ISO-10303-21;
HEADER;
FILE_DESCRIPTION (( 'STEP AP214' ),
    '1' );
FILE_NAME ('81935.STEP',
    '2023-06-30T22:36:47',
    ( '' ),
    ( '' ),
    'SwSTEP 2.0',
    'SolidWorks 2023',
    '' );
FILE_SCHEMA (( 'AUTOMOTIVE_DESIGN' ));
ENDSEC;

DATA;
#1 = COLOUR_RGB ( '',0.7921568627450980005, 0.8196078431372548767, 0.9333333333333333481 ) ;
#2 =( GEOMETRIC_REPRESENTATION_CONTEXT ( 3 ) GLOBAL_UNCERTAINTY_ASSIGNED_CONTEXT ( ( #12 ) ) GLOBAL_UNIT_ASSIGNED_CONTEXT ( ( #317, #288, #182 ) ) REPRESENTATION_CONTEXT ( 'NONE', 'WORKASPACE' ) );
#3 = DIRECTION ( 'NONE',  ( -1.836970198721029441E-16, 1.000000000000000000, 0.000000000000000000 ) ) ;
#4 = FILL_AREA_STYLE ('',( #352 ) ) ;
#5 = VERTEX_POINT ( 'NONE', #279 ) ;
#6 = FACE_OUTER_BOUND ( 'NONE', #297, .T. ) ;
#7 = EDGE_CURVE ( 'NONE', #97, #21, #32, .T. ) ;
#8 = CLOSED_SHELL ( 'NONE', ( #305, #43, #371, #90, #188 ) ) ;
#9 = MECHANICAL_DESIGN_GEOMETRIC_PRESENTATION_REPRESENTATION (  '', ( #199 ), #244 ) ;
#10 = VERTEX_POINT ( 'NONE', #340 ) ;
#11 = CYLINDRICAL_SURFACE ( 'NONE', #135, 0.2499999999999997224 ) ;
#12 = UNCERTAINTY_MEASURE_WITH_UNIT (LENGTH_MEASURE( 1.000000000000000082E-05 ), #317, 'distance_accuracy_value', 'NONE');
#13 = DIMENSIONAL_EXPONENTS ( 1.000000000000000000, 0.000000000000000000, 0.000000000000000000, 0.000000000000000000, 0.000000000000000000, 0.000000000000000000, 0.000000000000000000 ) ;
#14 =( NAMED_UNIT ( * ) SI_UNIT ( $, .STERADIAN. ) SOLID_ANGLE_UNIT ( ) );
#15 = EDGE_CURVE ( 'NONE', #240, #97, #106, .T. ) ;
#16 = FILL_AREA_STYLE_COLOUR ( '', #17 ) ;
#17 = COLOUR_RGB ( '',1.000000000000000000, 0.000000000000000000, 0.000000000000000000 ) ;
#18 = FILL_AREA_STYLE ('',( #281 ) ) ;
#19 = DIRECTION ( 'NONE',  ( 0.000000000000000000, 0.000000000000000000, -1.000000000000000000 ) ) ;
#20 = EDGE_CURVE ( 'NONE', #186, #335, #280, .T. ) ;
#21 = VERTEX_POINT ( 'NONE', #109 ) ;
#22 = SURFACE_STYLE_FILL_AREA ( #313 ) ;
#23 =( GEOMETRIC_REPRESENTATION_CONTEXT ( 3 ) GLOBAL_UNCERTAINTY_ASSIGNED_CONTEXT ( ( #299 ) ) GLOBAL_UNIT_ASSIGNED_CONTEXT ( ( #36, #29, #373 ) ) REPRESENTATION_CONTEXT ( 'NONE', 'WORKASPACE' ) );
#24 = DIRECTION ( 'NONE',  ( 1.000000000000000000, 0.000000000000000000, 0.000000000000000000 ) ) ;
#25 = PRESENTATION_STYLE_ASSIGNMENT (( #84 ) ) ;
#26 = DIRECTION ( 'NONE',  ( -1.836970198721029441E-16, 1.000000000000000000, -0.000000000000000000 ) ) ;
#27 = DIRECTION ( 'NONE',  ( 0.000000000000000000, -0.000000000000000000, 1.000000000000000000 ) ) ;
#28 = DIRECTION ( 'NONE',  ( -0.000000000000000000, -1.000000000000000000, -0.000000000000000000 ) ) ;
#29 =( NAMED_UNIT ( * ) PLANE_ANGLE_UNIT ( ) SI_UNIT ( $, .RADIAN. ) );
#30 = CYLINDRICAL_SURFACE ( 'NONE', #143, 0.2499999999999998890 ) ;
#31 = PLANE ( 'NONE',  #103 ) ;
#32 = CIRCLE ( 'NONE', #354, 0.2500000000000000555 ) ;
#33 = LENGTH_MEASURE_WITH_UNIT ( LENGTH_MEASURE( 0.02539999999999999897 ), #320 );
#34 = PRESENTATION_STYLE_ASSIGNMENT (( #295 ) ) ;
#35 = CARTESIAN_POINT ( 'NONE',  ( 0.000000000000000000, 0.000000000000000000, 0.000000000000000000 ) ) ;
#36 =( CONVERSION_BASED_UNIT ( 'INCH', #114 ) LENGTH_UNIT ( ) NAMED_UNIT ( #247 ) );
#37 = CARTESIAN_POINT ( 'NONE',  ( 3.061616997868383634E-17, 0.2500000000000000555, 0.2500000000000000000 ) ) ;
#38 =( CONVERSION_BASED_UNIT ( 'INCH', #152 ) LENGTH_UNIT ( ) NAMED_UNIT ( #64 ) );
#39 = CARTESIAN_POINT ( 'NONE',  ( 0.000000000000000000, 0.2500000000000000555, 0.000000000000000000 ) ) ;
#40 = PRODUCT_DEFINITION_CONTEXT ( 'detailed design', #345, 'design' ) ;
#41 = SHAPE_DEFINITION_REPRESENTATION ( #166, #99 ) ;
#42 = STYLED_ITEM ( 'NONE', ( #25 ), #43 ) ;
#43 = ADVANCED_FACE ( 'NONE', ( #236 ), #30, .T. ) ;
#44 = DIMENSIONAL_EXPONENTS ( 1.000000000000000000, 0.000000000000000000, 0.000000000000000000, 0.000000000000000000, 0.000000000000000000, 0.000000000000000000, 0.000000000000000000 ) ;
#45 = AXIS2_PLACEMENT_3D ( 'NONE', #67, #189, #301 ) ;
#46 = FILL_AREA_STYLE_COLOUR ( '', #1 ) ;
#47 = VECTOR ( 'NONE', #185, 39.37007874015748143 ) ;
#48 = FACE_OUTER_BOUND ( 'NONE', #168, .T. ) ;
#49 = ORIENTED_EDGE ( 'NONE', *, *, #214, .T. ) ;
#50 = ORIENTED_EDGE ( 'NONE', *, *, #156, .T. ) ;
#51 = CARTESIAN_POINT ( 'NONE',  ( -0.2499999999999998612, 4.000000000000000000, 0.000000000000000000 ) ) ;
#52 = DIRECTION ( 'NONE',  ( -1.000000000000000000, 0.000000000000000000, 0.000000000000000000 ) ) ;
#53 = VERTEX_POINT ( 'NONE', #329 ) ;
#54 = CIRCLE ( 'NONE', #310, 0.2499999999999997502 ) ;
#55 = EDGE_LOOP ( 'NONE', ( #172, #77, #183, #62 ) ) ;
#56 = SURFACE_SIDE_STYLE ('',( #206 ) ) ;
#57 = AXIS2_PLACEMENT_3D ( 'NONE', #158, #296, #359 ) ;
#58 = DIRECTION ( 'NONE',  ( -1.836970198721029441E-16, 1.000000000000000000, -0.000000000000000000 ) ) ;
#59 = ORIENTED_EDGE ( 'NONE', *, *, #252, .T. ) ;
#60 = SURFACE_SIDE_STYLE ('',( #321 ) ) ;
#61 = AXIS2_PLACEMENT_3D ( 'NONE', #208, #173, #365 ) ;
#62 = ORIENTED_EDGE ( 'NONE', *, *, #136, .T. ) ;
#63 = SURFACE_STYLE_USAGE ( .BOTH. , #160 ) ;
#64 = DIMENSIONAL_EXPONENTS ( 1.000000000000000000, 0.000000000000000000, 0.000000000000000000, 0.000000000000000000, 0.000000000000000000, 0.000000000000000000, 0.000000000000000000 ) ;
#65 = PRESENTATION_STYLE_ASSIGNMENT (( #63 ) ) ;
#66 = MECHANICAL_DESIGN_GEOMETRIC_PRESENTATION_REPRESENTATION (  '', ( #341 ), #302 ) ;
#67 = CARTESIAN_POINT ( 'NONE',  ( -1.224646799147352714E-16, 4.000000000000000000, 0.000000000000000000 ) ) ;
#68 =( CONVERSION_BASED_UNIT ( 'INCH', #94 ) LENGTH_UNIT ( ) NAMED_UNIT ( #118 ) );
#69 = APPLICATION_PROTOCOL_DEFINITION ( 'draft international standard', 'automotive_design', 1998, #345 ) ;
#70 = DIRECTION ( 'NONE',  ( 0.000000000000000000, 0.000000000000000000, -1.000000000000000000 ) ) ;
#71 = CARTESIAN_POINT ( 'NONE',  ( 0.2500000000000000000, 0.2500000000000000555, 0.000000000000000000 ) ) ;
#72 = EDGE_LOOP ( 'NONE', ( #264, #88, #255, #198 ) ) ;
#73 = MECHANICAL_DESIGN_GEOMETRIC_PRESENTATION_REPRESENTATION (  '', ( #322 ), #171 ) ;
#74 = CARTESIAN_POINT ( 'NONE',  ( -0.2500000000000001110, 4.000000000000000000, 0.000000000000000000 ) ) ;
#75 = DIRECTION ( 'NONE',  ( 1.836970198721029441E-16, -1.000000000000000000, 0.000000000000000000 ) ) ;
#76 = EDGE_CURVE ( 'NONE', #335, #97, #261, .T. ) ;
#77 = ORIENTED_EDGE ( 'NONE', *, *, #105, .T. ) ;
#78 = VECTOR ( 'NONE', #326, 39.37007874015748143 ) ;
#79 = STYLED_ITEM ( 'NONE', ( #91 ), #371 ) ;
#80 = CARTESIAN_POINT ( 'NONE',  ( 2.449293598294706414E-16, 2.000000000000000000, 0.000000000000000000 ) ) ;
#81 = DIRECTION ( 'NONE',  ( -0.000000000000000000, -1.000000000000000000, -0.000000000000000000 ) ) ;
#82 = PRODUCT_RELATED_PRODUCT_CATEGORY ( 'part', '', ( #285 ) ) ;
#83 = CIRCLE ( 'NONE', #92, 0.2500000000000000555 ) ;
#84 = SURFACE_STYLE_USAGE ( .BOTH. , #56 ) ;
#85 = CIRCLE ( 'NONE', #273, 0.2500000000000000555 ) ;
#86 = APPLICATION_CONTEXT ( 'automotive_design' ) ;
#87 = FACE_OUTER_BOUND ( 'NONE', #72, .T. ) ;
#88 = ORIENTED_EDGE ( 'NONE', *, *, #328, .T. ) ;
#89 = LINE ( 'NONE', #113, #47 ) ;
#90 = ADVANCED_FACE ( 'NONE', ( #125 ), #304, .T. ) ;
#91 = PRESENTATION_STYLE_ASSIGNMENT (( #141 ) ) ;
#92 = AXIS2_PLACEMENT_3D ( 'NONE', #216, #122, #159 ) ;
#93 = UNCERTAINTY_MEASURE_WITH_UNIT (LENGTH_MEASURE( 1.000000000000000082E-05 ), #353, 'distance_accuracy_value', 'NONE');
#94 = LENGTH_MEASURE_WITH_UNIT ( LENGTH_MEASURE( 0.02539999999999999897 ), #163 );
#95 = SURFACE_STYLE_FILL_AREA ( #360 ) ;
#96 = DIRECTION ( 'NONE',  ( 0.000000000000000000, 0.000000000000000000, -1.000000000000000000 ) ) ;
#97 = VERTEX_POINT ( 'NONE', #37 ) ;
#98 = ADVANCED_FACE ( 'NONE', ( #6 ), #358, .T. ) ;
#99 = ADVANCED_BREP_SHAPE_REPRESENTATION ( '81935', ( #138, #140, #57 ), #23 ) ;
#100 = MECHANICAL_DESIGN_GEOMETRIC_PRESENTATION_REPRESENTATION (  '', ( #177 ), #372 ) ;
#101 = CARTESIAN_POINT ( 'NONE',  ( 0.2499999999999998335, 4.000000000000000000, 0.000000000000000000 ) ) ;
#102 = AXIS2_PLACEMENT_3D ( 'NONE', #35, #300, #96 ) ;
#103 = AXIS2_PLACEMENT_3D ( 'NONE', #117, #3, #139 ) ;
#104 =( LENGTH_UNIT ( ) NAMED_UNIT ( * ) SI_UNIT ( $, .METRE. ) );
#105 = EDGE_CURVE ( 'NONE', #21, #186, #347, .T. ) ;
#106 = LINE ( 'NONE', #260, #78 ) ;
#107 = DIRECTION ( 'NONE',  ( -1.000000000000000000, 0.000000000000000000, 0.000000000000000000 ) ) ;
#108 = MECHANICAL_DESIGN_GEOMETRIC_PRESENTATION_REPRESENTATION (  '', ( #42 ), #176 ) ;
#109 = CARTESIAN_POINT ( 'NONE',  ( -0.2500000000000000555, 0.2500000000000000555, 3.061616997868383018E-17 ) ) ;
#110 =( GEOMETRIC_REPRESENTATION_CONTEXT ( 3 ) GLOBAL_UNCERTAINTY_ASSIGNED_CONTEXT ( ( #123 ) ) GLOBAL_UNIT_ASSIGNED_CONTEXT ( ( #68, #233, #14 ) ) REPRESENTATION_CONTEXT ( 'NONE', 'WORKASPACE' ) );
#111 =( NAMED_UNIT ( * ) PLANE_ANGLE_UNIT ( ) SI_UNIT ( $, .RADIAN. ) );
#112 = VERTEX_POINT ( 'NONE', #298 ) ;
#113 = CARTESIAN_POINT ( 'NONE',  ( 0.000000000000000000, 0.000000000000000000, -0.2499999999999998890 ) ) ;
#114 = LENGTH_MEASURE_WITH_UNIT ( LENGTH_MEASURE( 0.02539999999999999897 ), #290 );
#115 = ORIENTED_EDGE ( 'NONE', *, *, #162, .F. ) ;
#116 = DIRECTION ( 'NONE',  ( 0.000000000000000000, 0.000000000000000000, -1.000000000000000000 ) ) ;
#117 = CARTESIAN_POINT ( 'NONE',  ( 2.449293598294706414E-16, 2.000000000000000000, 0.000000000000000000 ) ) ;
#118 = DIMENSIONAL_EXPONENTS ( 1.000000000000000000, 0.000000000000000000, 0.000000000000000000, 0.000000000000000000, 0.000000000000000000, 0.000000000000000000, 0.000000000000000000 ) ;
#119 = VECTOR ( 'NONE', #370, 39.37007874015748143 ) ;
#120 = UNCERTAINTY_MEASURE_WITH_UNIT (LENGTH_MEASURE( 1.000000000000000082E-05 ), #145, 'distance_accuracy_value', 'NONE');
#121 = FILL_AREA_STYLE_COLOUR ( '', #292 ) ;
#122 = DIRECTION ( 'NONE',  ( 0.000000000000000000, 0.000000000000000000, -1.000000000000000000 ) ) ;
#123 = UNCERTAINTY_MEASURE_WITH_UNIT (LENGTH_MEASURE( 1.000000000000000082E-05 ), #68, 'distance_accuracy_value', 'NONE');
#124 = AXIS2_PLACEMENT_3D ( 'NONE', #315, #180, #24 ) ;
#125 = FACE_OUTER_BOUND ( 'NONE', #362, .T. ) ;
#126 = ORIENTED_EDGE ( 'NONE', *, *, #314, .T. ) ;
#127 = SURFACE_STYLE_FILL_AREA ( #227 ) ;
#128 = ORIENTED_EDGE ( 'NONE', *, *, #162, .T. ) ;
#129 = CARTESIAN_POINT ( 'NONE',  ( 0.000000000000000000, 0.2500000000000000555, -0.2500000000000000555 ) ) ;
#130 = COLOUR_RGB ( '',1.000000000000000000, 0.000000000000000000, 0.000000000000000000 ) ;
#131 = AXIS2_PLACEMENT_3D ( 'NONE', #205, #312, #284 ) ;
#132 = EDGE_LOOP ( 'NONE', ( #369, #115 ) ) ;
#133 = DIRECTION ( 'NONE',  ( -0.000000000000000000, -1.000000000000000000, -0.000000000000000000 ) ) ;
#134 = LINE ( 'NONE', #51, #119 ) ;
#135 = AXIS2_PLACEMENT_3D ( 'NONE', #228, #250, #52 ) ;
#136 = EDGE_CURVE ( 'NONE', #335, #5, #83, .T. ) ;
#137 =( LENGTH_UNIT ( ) NAMED_UNIT ( * ) SI_UNIT ( $, .METRE. ) );
#138 = MANIFOLD_SOLID_BREP ( 'Revolve - Cutting Edge', #8 ) ;
#139 = DIRECTION ( 'NONE',  ( -1.000000000000000000, -1.836970198721029441E-16, 0.000000000000000000 ) ) ;
#140 = MANIFOLD_SOLID_BREP ( 'Revolve - Tool Body (Straight Shanked)', #184 ) ;
#141 = SURFACE_STYLE_USAGE ( .BOTH. , #235 ) ;
#142 = CARTESIAN_POINT ( 'NONE',  ( 0.2499999999999995837, 4.000000000000000000, 3.061616997868379320E-17 ) ) ;
#143 = AXIS2_PLACEMENT_3D ( 'NONE', #161, #331, #70 ) ;
#144 = FILL_AREA_STYLE_COLOUR ( '', #130 ) ;
#145 =( CONVERSION_BASED_UNIT ( 'INCH', #251 ) LENGTH_UNIT ( ) NAMED_UNIT ( #336 ) );
#146 =( CONVERSION_BASED_UNIT ( 'INCH', #33 ) LENGTH_UNIT ( ) NAMED_UNIT ( #44 ) );
#147 =( LENGTH_UNIT ( ) NAMED_UNIT ( * ) SI_UNIT ( $, .METRE. ) );
#148 = DIRECTION ( 'NONE',  ( 0.000000000000000000, 1.000000000000000000, 0.000000000000000000 ) ) ;
#149 = APPLICATION_PROTOCOL_DEFINITION ( 'draft international standard', 'automotive_design', 1998, #86 ) ;
#150 = EDGE_LOOP ( 'NONE', ( #126, #49 ) ) ;
#151 =( NAMED_UNIT ( * ) PLANE_ANGLE_UNIT ( ) SI_UNIT ( $, .RADIAN. ) );
#152 = LENGTH_MEASURE_WITH_UNIT ( LENGTH_MEASURE( 0.02539999999999999897 ), #137 );
#153 = ORIENTED_EDGE ( 'NONE', *, *, #15, .F. ) ;
#154 =( LENGTH_UNIT ( ) NAMED_UNIT ( * ) SI_UNIT ( $, .METRE. ) );
#155 = PRESENTATION_LAYER_ASSIGNMENT (  '', '', ( #42 ) ) ;
#156 = EDGE_CURVE ( 'NONE', #10, #343, #134, .T. ) ;
#157 = CIRCLE ( 'NONE', #212, 0.2499999999999995282 ) ;
#158 = CARTESIAN_POINT ( 'NONE',  ( 0.000000000000000000, 0.000000000000000000, 0.000000000000000000 ) ) ;
#159 = DIRECTION ( 'NONE',  ( -1.000000000000000000, 0.000000000000000000, 0.000000000000000000 ) ) ;
#160 = SURFACE_SIDE_STYLE ('',( #272 ) ) ;
#161 = CARTESIAN_POINT ( 'NONE',  ( 0.000000000000000000, 0.000000000000000000, 0.000000000000000000 ) ) ;
#162 = EDGE_CURVE ( 'NONE', #240, #112, #54, .T. ) ;
#163 =( LENGTH_UNIT ( ) NAMED_UNIT ( * ) SI_UNIT ( $, .METRE. ) );
#164 = ORIENTED_EDGE ( 'NONE', *, *, #293, .F. ) ;
#165 = PRESENTATION_LAYER_ASSIGNMENT (  '', '', ( #245 ) ) ;
#166 = PRODUCT_DEFINITION_SHAPE ( 'NONE', 'NONE',  #349 ) ;
#167 = CARTESIAN_POINT ( 'NONE',  ( -3.061616997868383018E-17, 0.2500000000000000000, 0.000000000000000000 ) ) ;
#168 = EDGE_LOOP ( 'NONE', ( #274, #231, #187, #319 ) ) ;
#169 = DIRECTION ( 'NONE',  ( 0.000000000000000000, 0.000000000000000000, -1.000000000000000000 ) ) ;
#170 = ORIENTED_EDGE ( 'NONE', *, *, #226, .T. ) ;
#171 =( GEOMETRIC_REPRESENTATION_CONTEXT ( 3 ) GLOBAL_UNCERTAINTY_ASSIGNED_CONTEXT ( ( #197 ) ) GLOBAL_UNIT_ASSIGNED_CONTEXT ( ( #146, #325, #309 ) ) REPRESENTATION_CONTEXT ( 'NONE', 'WORKASPACE' ) );
#172 = ORIENTED_EDGE ( 'NONE', *, *, #328, .F. ) ;
#173 = DIRECTION ( 'NONE',  ( -1.836970198721029441E-16, 1.000000000000000000, -0.000000000000000000 ) ) ;
#174 = CARTESIAN_POINT ( 'NONE',  ( 0.000000000000000000, 0.2500000000000000555, 0.000000000000000000 ) ) ;
#175 = SPHERICAL_SURFACE ( 'NONE', #124, 0.2500000000000000555 ) ;
#176 =( GEOMETRIC_REPRESENTATION_CONTEXT ( 3 ) GLOBAL_UNCERTAINTY_ASSIGNED_CONTEXT ( ( #93 ) ) GLOBAL_UNIT_ASSIGNED_CONTEXT ( ( #353, #220, #192 ) ) REPRESENTATION_CONTEXT ( 'NONE', 'WORKASPACE' ) );
#177 = STYLED_ITEM ( 'NONE', ( #311 ), #188 ) ;
#178 = DIRECTION ( 'NONE',  ( -1.000000000000000000, 0.000000000000000000, 0.000000000000000000 ) ) ;
#179 = LENGTH_MEASURE_WITH_UNIT ( LENGTH_MEASURE( 0.02539999999999999897 ), #234 );
#180 = DIRECTION ( 'NONE',  ( 0.000000000000000000, 0.000000000000000000, 1.000000000000000000 ) ) ;
#181 = LINE ( 'NONE', #142, #366 ) ;
#182 =( NAMED_UNIT ( * ) SI_UNIT ( $, .STERADIAN. ) SOLID_ANGLE_UNIT ( ) );
#183 = ORIENTED_EDGE ( 'NONE', *, *, #20, .T. ) ;
#184 = CLOSED_SHELL ( 'NONE', ( #368, #248, #98, #332 ) ) ;
#185 = DIRECTION ( 'NONE',  ( -0.000000000000000000, -1.000000000000000000, -0.000000000000000000 ) ) ;
#186 = VERTEX_POINT ( 'NONE', #129 ) ;
#187 = ORIENTED_EDGE ( 'NONE', *, *, #314, .F. ) ;
#188 = ADVANCED_FACE ( 'NONE', ( #338 ), #175, .T. ) ;
#189 = DIRECTION ( 'NONE',  ( -1.836970198721029441E-16, 1.000000000000000000, -0.000000000000000000 ) ) ;
#190 = AXIS2_PLACEMENT_3D ( 'NONE', #243, #271, #116 ) ;
#191 = PRESENTATION_LAYER_ASSIGNMENT (  '', '', ( #177 ) ) ;
#192 =( NAMED_UNIT ( * ) SI_UNIT ( $, .STERADIAN. ) SOLID_ANGLE_UNIT ( ) );
#193 = EDGE_CURVE ( 'NONE', #10, #53, #157, .T. ) ;
#194 =( NAMED_UNIT ( * ) PLANE_ANGLE_UNIT ( ) SI_UNIT ( $, .RADIAN. ) );
#195 = DIRECTION ( 'NONE',  ( 0.000000000000000000, 0.000000000000000000, -1.000000000000000000 ) ) ;
#196 = DIRECTION ( 'NONE',  ( 1.000000000000000000, 1.836970198721029441E-16, 0.000000000000000000 ) ) ;
#197 = UNCERTAINTY_MEASURE_WITH_UNIT (LENGTH_MEASURE( 1.000000000000000082E-05 ), #146, 'distance_accuracy_value', 'NONE');
#198 = ORIENTED_EDGE ( 'NONE', *, *, #76, .T. ) ;
#199 = STYLED_ITEM ( 'NONE', ( #65 ), #90 ) ;
#200 = AXIS2_PLACEMENT_3D ( 'NONE', #289, #259, #107 ) ;
#201 = FACE_OUTER_BOUND ( 'NONE', #132, .T. ) ;
#202 = ORIENTED_EDGE ( 'NONE', *, *, #15, .T. ) ;
#203 = AXIS2_PLACEMENT_3D ( 'NONE', #174, #81, #258 ) ;
#204 = SURFACE_STYLE_FILL_AREA ( #18 ) ;
#205 = CARTESIAN_POINT ( 'NONE',  ( -3.061616997868383018E-17, 0.2500000000000000000, 0.000000000000000000 ) ) ;
#206 = SURFACE_STYLE_FILL_AREA ( #351 ) ;
#207 = ORIENTED_EDGE ( 'NONE', *, *, #193, .F. ) ;
#208 = CARTESIAN_POINT ( 'NONE',  ( -1.224646799147352468E-16, 4.000000000000000000, 0.000000000000000000 ) ) ;
#209 = ORIENTED_EDGE ( 'NONE', *, *, #76, .F. ) ;
#210 =( CONVERSION_BASED_UNIT ( 'INCH', #217 ) LENGTH_UNIT ( ) NAMED_UNIT ( #223 ) );
#211 = PRESENTATION_LAYER_ASSIGNMENT (  '', '', ( #199 ) ) ;
#212 = AXIS2_PLACEMENT_3D ( 'NONE', #80, #58, #178 ) ;
#213 = CARTESIAN_POINT ( 'NONE',  ( 0.000000000000000000, 2.000000000000000000, 0.000000000000000000 ) ) ;
#214 = EDGE_CURVE ( 'NONE', #339, #343, #269, .T. ) ;
#215 = FILL_AREA_STYLE_COLOUR ( '', #364 ) ;
#216 = CARTESIAN_POINT ( 'NONE',  ( -3.061616997868383018E-17, 0.2500000000000000000, 0.000000000000000000 ) ) ;
#217 = LENGTH_MEASURE_WITH_UNIT ( LENGTH_MEASURE( 0.02539999999999999897 ), #154 );
#218 = UNCERTAINTY_MEASURE_WITH_UNIT (LENGTH_MEASURE( 1.000000000000000082E-05 ), #210, 'distance_accuracy_value', 'NONE');
#219 = SURFACE_STYLE_USAGE ( .BOTH. , #356 ) ;
#220 =( NAMED_UNIT ( * ) PLANE_ANGLE_UNIT ( ) SI_UNIT ( $, .RADIAN. ) );
#221 = PRODUCT_CONTEXT ( 'NONE', #86, 'mechanical' ) ;
#222 = ORIENTED_EDGE ( 'NONE', *, *, #214, .F. ) ;
#223 = DIMENSIONAL_EXPONENTS ( 1.000000000000000000, 0.000000000000000000, 0.000000000000000000, 0.000000000000000000, 0.000000000000000000, 0.000000000000000000, 0.000000000000000000 ) ;
#224 = ORIENTED_EDGE ( 'NONE', *, *, #105, .F. ) ;
#225 = PRESENTATION_LAYER_ASSIGNMENT (  '', '', ( #79 ) ) ;
#226 = EDGE_CURVE ( 'NONE', #53, #10, #254, .T. ) ;
#227 = FILL_AREA_STYLE ('',( #46 ) ) ;
#228 = CARTESIAN_POINT ( 'NONE',  ( -1.224646799147352714E-16, 4.000000000000000000, 0.000000000000000000 ) ) ;
#229 = DIRECTION ( 'NONE',  ( -0.000000000000000000, -1.000000000000000000, -0.000000000000000000 ) ) ;
#230 = DIRECTION ( 'NONE',  ( 1.000000000000000000, 0.000000000000000000, -1.224646799147353207E-16 ) ) ;
#231 = ORIENTED_EDGE ( 'NONE', *, *, #266, .T. ) ;
#232 = SPHERICAL_SURFACE ( 'NONE', #131, 0.2500000000000000555 ) ;
#233 =( NAMED_UNIT ( * ) PLANE_ANGLE_UNIT ( ) SI_UNIT ( $, .RADIAN. ) );
#234 =( LENGTH_UNIT ( ) NAMED_UNIT ( * ) SI_UNIT ( $, .METRE. ) );
#235 = SURFACE_SIDE_STYLE ('',( #22 ) ) ;
#236 = FACE_OUTER_BOUND ( 'NONE', #276, .T. ) ;
#237 = DIRECTION ( 'NONE',  ( -1.000000000000000000, 0.000000000000000000, 0.000000000000000000 ) ) ;
#238 = CIRCLE ( 'NONE', #287, 0.2499999999999997502 ) ;
#239 = CARTESIAN_POINT ( 'NONE',  ( 0.000000000000000000, 2.000000000000000000, 0.000000000000000000 ) ) ;
#240 = VERTEX_POINT ( 'NONE', #242 ) ;
#241 = LENGTH_MEASURE_WITH_UNIT ( LENGTH_MEASURE( 0.02539999999999999897 ), #147 );
#242 = CARTESIAN_POINT ( 'NONE',  ( 3.061616997868381169E-17, 2.000000000000000000, 0.2499999999999997502 ) ) ;
#243 = CARTESIAN_POINT ( 'NONE',  ( 0.000000000000000000, 0.2500000000000000555, 0.000000000000000000 ) ) ;
#244 =( GEOMETRIC_REPRESENTATION_CONTEXT ( 3 ) GLOBAL_UNCERTAINTY_ASSIGNED_CONTEXT ( ( #218 ) ) GLOBAL_UNIT_ASSIGNED_CONTEXT ( ( #210, #151, #327 ) ) REPRESENTATION_CONTEXT ( 'NONE', 'WORKASPACE' ) );
#245 = STYLED_ITEM ( 'NONE', ( #330 ), #140 ) ;
#246 = DIRECTION ( 'NONE',  ( -0.000000000000000000, -1.000000000000000000, -0.000000000000000000 ) ) ;
#247 = DIMENSIONAL_EXPONENTS ( 1.000000000000000000, 0.000000000000000000, 0.000000000000000000, 0.000000000000000000, 0.000000000000000000, 0.000000000000000000, 0.000000000000000000 ) ;
#248 = ADVANCED_FACE ( 'NONE', ( #263 ), #31, .F. ) ;
#249 = AXIS2_PLACEMENT_3D ( 'NONE', #101, #75, #196 ) ;
#250 = DIRECTION ( 'NONE',  ( -1.836970198721029441E-16, 1.000000000000000000, -0.000000000000000000 ) ) ;
#251 = LENGTH_MEASURE_WITH_UNIT ( LENGTH_MEASURE( 0.02539999999999999897 ), #104 );
#252 = EDGE_CURVE ( 'NONE', #112, #240, #238, .T. ) ;
#253 = DIRECTION ( 'NONE',  ( 1.224646799147353207E-16, -0.000000000000000000, 1.000000000000000000 ) ) ;
#254 = CIRCLE ( 'NONE', #318, 0.2499999999999995282 ) ;
#255 = ORIENTED_EDGE ( 'NONE', *, *, #136, .F. ) ;
#256 = SURFACE_SIDE_STYLE ('',( #204 ) ) ;
#257 = AXIS2_PLACEMENT_3D ( 'NONE', #213, #148, #27 ) ;
#258 = DIRECTION ( 'NONE',  ( 0.000000000000000000, 0.000000000000000000, -1.000000000000000000 ) ) ;
#259 = DIRECTION ( 'NONE',  ( -1.836970198721029441E-16, 1.000000000000000000, -0.000000000000000000 ) ) ;
#260 = CARTESIAN_POINT ( 'NONE',  ( 3.061616997868381785E-17, 0.000000000000000000, 0.2499999999999998890 ) ) ;
#261 = CIRCLE ( 'NONE', #316, 0.2500000000000000555 ) ;
#262 = PRESENTATION_LAYER_ASSIGNMENT (  '', '', ( #341 ) ) ;
#263 = FACE_OUTER_BOUND ( 'NONE', #350, .T. ) ;
#264 = ORIENTED_EDGE ( 'NONE', *, *, #7, .T. ) ;
#265 = PRESENTATION_STYLE_ASSIGNMENT (( #219 ) ) ;
#266 = EDGE_CURVE ( 'NONE', #53, #339, #181, .T. ) ;
#267 = DIRECTION ( 'NONE',  ( 0.000000000000000000, 0.000000000000000000, -1.000000000000000000 ) ) ;
#268 = PRESENTATION_LAYER_ASSIGNMENT (  '', '', ( #322 ) ) ;
#269 = CIRCLE ( 'NONE', #200, 0.2499999999999999722 ) ;
#270 = FILL_AREA_STYLE ('',( #215 ) ) ;
#271 = DIRECTION ( 'NONE',  ( -0.000000000000000000, -1.000000000000000000, -0.000000000000000000 ) ) ;
#272 = SURFACE_STYLE_FILL_AREA ( #270 ) ;
#273 = AXIS2_PLACEMENT_3D ( 'NONE', #167, #253, #230 ) ;
#274 = ORIENTED_EDGE ( 'NONE', *, *, #193, .T. ) ;
#275 = UNCERTAINTY_MEASURE_WITH_UNIT (LENGTH_MEASURE( 1.000000000000000082E-05 ), #38, 'distance_accuracy_value', 'NONE');
#276 = EDGE_LOOP ( 'NONE', ( #59, #202, #209, #307, #164 ) ) ;
#277 = PLANE ( 'NONE',  #249 ) ;
#278 = PLANE ( 'NONE',  #257 ) ;
#279 = CARTESIAN_POINT ( 'NONE',  ( -1.530808498934191201E-17, -3.414809992080329023E-17, 0.000000000000000000 ) ) ;
#280 = CIRCLE ( 'NONE', #203, 0.2500000000000000555 ) ;
#281 = FILL_AREA_STYLE_COLOUR ( '', #306 ) ;
#282 = SURFACE_STYLE_USAGE ( .BOTH. , #337 ) ;
#283 = CARTESIAN_POINT ( 'NONE',  ( 0.000000000000000000, 0.2500000000000000555, 0.000000000000000000 ) ) ;
#284 = DIRECTION ( 'NONE',  ( 1.000000000000000000, 0.000000000000000000, 0.000000000000000000 ) ) ;
#285 = PRODUCT ( '81935', '81935', '', ( #221 ) ) ;
#286 =( NAMED_UNIT ( * ) SI_UNIT ( $, .STERADIAN. ) SOLID_ANGLE_UNIT ( ) );
#287 = AXIS2_PLACEMENT_3D ( 'NONE', #239, #28, #267 ) ;
#288 =( NAMED_UNIT ( * ) PLANE_ANGLE_UNIT ( ) SI_UNIT ( $, .RADIAN. ) );
#289 = CARTESIAN_POINT ( 'NONE',  ( -1.224646799147352468E-16, 4.000000000000000000, 0.000000000000000000 ) ) ;
#290 =( LENGTH_UNIT ( ) NAMED_UNIT ( * ) SI_UNIT ( $, .METRE. ) );
#291 = CARTESIAN_POINT ( 'NONE',  ( 2.449293598294706414E-16, 2.000000000000000000, 0.000000000000000000 ) ) ;
#292 = COLOUR_RGB ( '',0.7921568627450980005, 0.8196078431372548767, 0.9333333333333333481 ) ;
#293 = EDGE_CURVE ( 'NONE', #112, #186, #89, .T. ) ;
#294 = COLOUR_RGB ( '',1.000000000000000000, 0.000000000000000000, 0.000000000000000000 ) ;
#295 = SURFACE_STYLE_USAGE ( .BOTH. , #60 ) ;
#296 = DIRECTION ( 'NONE',  ( 0.000000000000000000, 0.000000000000000000, 1.000000000000000000 ) ) ;
#297 = EDGE_LOOP ( 'NONE', ( #334, #170, #50, #222 ) ) ;
#298 = CARTESIAN_POINT ( 'NONE',  ( 0.000000000000000000, 2.000000000000000000, -0.2499999999999997502 ) ) ;
#299 = UNCERTAINTY_MEASURE_WITH_UNIT (LENGTH_MEASURE( 1.000000000000000082E-05 ), #36, 'distance_accuracy_value', 'NONE');
#300 = DIRECTION ( 'NONE',  ( -0.000000000000000000, -1.000000000000000000, -0.000000000000000000 ) ) ;
#301 = DIRECTION ( 'NONE',  ( -1.000000000000000000, 0.000000000000000000, 0.000000000000000000 ) ) ;
#302 =( GEOMETRIC_REPRESENTATION_CONTEXT ( 3 ) GLOBAL_UNCERTAINTY_ASSIGNED_CONTEXT ( ( #275 ) ) GLOBAL_UNIT_ASSIGNED_CONTEXT ( ( #38, #194, #357 ) ) REPRESENTATION_CONTEXT ( 'NONE', 'WORKASPACE' ) );
#303 = DIMENSIONAL_EXPONENTS ( 1.000000000000000000, 0.000000000000000000, 0.000000000000000000, 0.000000000000000000, 0.000000000000000000, 0.000000000000000000, 0.000000000000000000 ) ;
#304 = CYLINDRICAL_SURFACE ( 'NONE', #102, 0.2499999999999998890 ) ;
#305 = ADVANCED_FACE ( 'NONE', ( #87 ), #232, .T. ) ;
#306 = COLOUR_RGB ( '',1.000000000000000000, 0.000000000000000000, 0.000000000000000000 ) ;
#307 = ORIENTED_EDGE ( 'NONE', *, *, #20, .F. ) ;
#308 = ORIENTED_EDGE ( 'NONE', *, *, #293, .T. ) ;
#309 =( NAMED_UNIT ( * ) SI_UNIT ( $, .STERADIAN. ) SOLID_ANGLE_UNIT ( ) );
#310 = AXIS2_PLACEMENT_3D ( 'NONE', #342, #229, #169 ) ;
#311 = PRESENTATION_STYLE_ASSIGNMENT (( #344 ) ) ;
#312 = DIRECTION ( 'NONE',  ( 0.000000000000000000, 0.000000000000000000, 1.000000000000000000 ) ) ;
#313 = FILL_AREA_STYLE ('',( #16 ) ) ;
#314 = EDGE_CURVE ( 'NONE', #343, #339, #348, .T. ) ;
#315 = CARTESIAN_POINT ( 'NONE',  ( -3.061616997868383018E-17, 0.2500000000000000000, 0.000000000000000000 ) ) ;
#316 = AXIS2_PLACEMENT_3D ( 'NONE', #39, #246, #195 ) ;
#317 =( CONVERSION_BASED_UNIT ( 'INCH', #179 ) LENGTH_UNIT ( ) NAMED_UNIT ( #13 ) );
#318 = AXIS2_PLACEMENT_3D ( 'NONE', #291, #26, #237 ) ;
#319 = ORIENTED_EDGE ( 'NONE', *, *, #156, .F. ) ;
#320 =( LENGTH_UNIT ( ) NAMED_UNIT ( * ) SI_UNIT ( $, .METRE. ) );
#321 = SURFACE_STYLE_FILL_AREA ( #4 ) ;
#322 = STYLED_ITEM ( 'NONE', ( #265 ), #138 ) ;
#323 = ORIENTED_EDGE ( 'NONE', *, *, #226, .F. ) ;
#324 = MECHANICAL_DESIGN_GEOMETRIC_PRESENTATION_REPRESENTATION (  '', ( #79 ), #2 ) ;
#325 =( NAMED_UNIT ( * ) PLANE_ANGLE_UNIT ( ) SI_UNIT ( $, .RADIAN. ) );
#326 = DIRECTION ( 'NONE',  ( -0.000000000000000000, -1.000000000000000000, -0.000000000000000000 ) ) ;
#327 =( NAMED_UNIT ( * ) SI_UNIT ( $, .STERADIAN. ) SOLID_ANGLE_UNIT ( ) );
#328 = EDGE_CURVE ( 'NONE', #21, #5, #85, .T. ) ;
#329 = CARTESIAN_POINT ( 'NONE',  ( 0.2499999999999997502, 2.000000000000000000, 3.061616997868381169E-17 ) ) ;
#330 = PRESENTATION_STYLE_ASSIGNMENT (( #282 ) ) ;
#331 = DIRECTION ( 'NONE',  ( -0.000000000000000000, -1.000000000000000000, -0.000000000000000000 ) ) ;
#332 = ADVANCED_FACE ( 'NONE', ( #333 ), #277, .F. ) ;
#333 = FACE_OUTER_BOUND ( 'NONE', #150, .T. ) ;
#334 = ORIENTED_EDGE ( 'NONE', *, *, #266, .F. ) ;
#335 = VERTEX_POINT ( 'NONE', #71 ) ;
#336 = DIMENSIONAL_EXPONENTS ( 1.000000000000000000, 0.000000000000000000, 0.000000000000000000, 0.000000000000000000, 0.000000000000000000, 0.000000000000000000, 0.000000000000000000 ) ;
#337 = SURFACE_SIDE_STYLE ('',( #127 ) ) ;
#338 = FACE_OUTER_BOUND ( 'NONE', #55, .T. ) ;
#339 = VERTEX_POINT ( 'NONE', #363 ) ;
#340 = CARTESIAN_POINT ( 'NONE',  ( -0.2499999999999992784, 2.000000000000000000, 0.000000000000000000 ) ) ;
#341 = STYLED_ITEM ( 'NONE', ( #34 ), #305 ) ;
#342 = CARTESIAN_POINT ( 'NONE',  ( 0.000000000000000000, 2.000000000000000000, 0.000000000000000000 ) ) ;
#343 = VERTEX_POINT ( 'NONE', #74 ) ;
#344 = SURFACE_STYLE_USAGE ( .BOTH. , #256 ) ;
#345 = APPLICATION_CONTEXT ( 'automotive_design' ) ;
#346 = DIRECTION ( 'NONE',  ( -1.836970198721029441E-16, 1.000000000000000000, -0.000000000000000000 ) ) ;
#347 = CIRCLE ( 'NONE', #190, 0.2500000000000000555 ) ;
#348 = CIRCLE ( 'NONE', #61, 0.2499999999999999722 ) ;
#349 = PRODUCT_DEFINITION ( 'UNKNOWN', '', #361, #40 ) ;
#350 = EDGE_LOOP ( 'NONE', ( #207, #323 ) ) ;
#351 = FILL_AREA_STYLE ('',( #144 ) ) ;
#352 = FILL_AREA_STYLE_COLOUR ( '', #294 ) ;
#353 =( CONVERSION_BASED_UNIT ( 'INCH', #241 ) LENGTH_UNIT ( ) NAMED_UNIT ( #303 ) );
#354 = AXIS2_PLACEMENT_3D ( 'NONE', #283, #133, #19 ) ;
#355 = MECHANICAL_DESIGN_GEOMETRIC_PRESENTATION_REPRESENTATION (  '', ( #245 ), #110 ) ;
#356 = SURFACE_SIDE_STYLE ('',( #95 ) ) ;
#357 =( NAMED_UNIT ( * ) SI_UNIT ( $, .STERADIAN. ) SOLID_ANGLE_UNIT ( ) );
#358 = CYLINDRICAL_SURFACE ( 'NONE', #45, 0.2499999999999997224 ) ;
#359 = DIRECTION ( 'NONE',  ( 1.000000000000000000, 0.000000000000000000, 0.000000000000000000 ) ) ;
#360 = FILL_AREA_STYLE ('',( #121 ) ) ;
#361 = PRODUCT_DEFINITION_FORMATION_WITH_SPECIFIED_SOURCE ( 'ANY', '', #285, .NOT_KNOWN. ) ;
#362 = EDGE_LOOP ( 'NONE', ( #153, #128, #308, #224, #367 ) ) ;
#363 = CARTESIAN_POINT ( 'NONE',  ( 0.2499999999999998335, 4.000000000000000000, 3.061616997868381169E-17 ) ) ;
#364 = COLOUR_RGB ( '',1.000000000000000000, 0.000000000000000000, 0.000000000000000000 ) ;
#365 = DIRECTION ( 'NONE',  ( -1.000000000000000000, 0.000000000000000000, 0.000000000000000000 ) ) ;
#366 = VECTOR ( 'NONE', #346, 39.37007874015748143 ) ;
#367 = ORIENTED_EDGE ( 'NONE', *, *, #7, .F. ) ;
#368 = ADVANCED_FACE ( 'NONE', ( #48 ), #11, .T. ) ;
#369 = ORIENTED_EDGE ( 'NONE', *, *, #252, .F. ) ;
#370 = DIRECTION ( 'NONE',  ( -1.836970198721029441E-16, 1.000000000000000000, -0.000000000000000000 ) ) ;
#371 = ADVANCED_FACE ( 'NONE', ( #201 ), #278, .T. ) ;
#372 =( GEOMETRIC_REPRESENTATION_CONTEXT ( 3 ) GLOBAL_UNCERTAINTY_ASSIGNED_CONTEXT ( ( #120 ) ) GLOBAL_UNIT_ASSIGNED_CONTEXT ( ( #145, #111, #286 ) ) REPRESENTATION_CONTEXT ( 'NONE', 'WORKASPACE' ) );
#373 =( NAMED_UNIT ( * ) SI_UNIT ( $, .STERADIAN. ) SOLID_ANGLE_UNIT ( ) );
ENDSEC;
END-ISO-10303-21;
