ISO-10303-21;
HEADER;
FILE_DESCRIPTION (( 'STEP AP214' ),
    '1' );
FILE_NAME ('Micro_GEC-187-3-020X.STEP',
    '2021-09-03T17:10:25',
    ( '' ),
    ( '' ),
    'SwSTEP 2.0',
    'SolidWorks 2020',
    '' );
FILE_SCHEMA (( 'AUTOMOTIVE_DESIGN' ));
ENDSEC;

DATA;
#1 = FACE_OUTER_BOUND ( 'NONE', #245, .T. ) ;
#2 = ORIENTED_EDGE ( 'NONE', *, *, #167, .F. ) ;
#3 = CARTESIAN_POINT ( 'NONE',  ( 0.0000000000000000000, 0.0000000000000000000, 2.000000000000000000 ) ) ;
#4 = DIRECTION ( 'NONE',  ( 1.000000000000000000, 0.0000000000000000000, 0.0000000000000000000 ) ) ;
#5 = AXIS2_PLACEMENT_3D ( 'NONE', #74, #298, #244 ) ;
#6 = CARTESIAN_POINT ( 'NONE',  ( 2.449293598294706769E-18, 0.0000000000000000000, 0.0000000000000000000 ) ) ;
#7 = EDGE_LOOP ( 'NONE', ( #320, #313, #36, #228 ) ) ;
#8 = CIRCLE ( 'NONE', #208, 0.09375000000000001388 ) ;
#9 = FACE_OUTER_BOUND ( 'NONE', #186, .T. ) ;
#10 = VERTEX_POINT ( 'NONE', #287 ) ;
#11 = CARTESIAN_POINT ( 'NONE',  ( -0.07874999999999980627, 0.0000000000000000000, 2.000000000000000000 ) ) ;
#12 = EDGE_CURVE ( 'NONE', #10, #97, #17, .T. ) ;
#13 = CIRCLE ( 'NONE', #248, 0.09375000000000001388 ) ;
#14 = AXIS2_PLACEMENT_3D ( 'NONE', #189, #324, #326 ) ;
#15 = SURFACE_STYLE_FILL_AREA ( #149 ) ;
#16 = ORIENTED_EDGE ( 'NONE', *, *, #139, .F. ) ;
#17 = CIRCLE ( 'NONE', #34, 0.02000000000000000042 ) ;
#18 = TOROIDAL_SURFACE ( 'NONE', #219, 0.07365624999999999256, 0.02000000000000000042 ) ;
#19 = CARTESIAN_POINT ( 'NONE',  ( 2.449293598294706769E-18, 0.0000000000000000000, 0.02000000000000000042 ) ) ;
#20 = DIRECTION ( 'NONE',  ( 1.000000000000000000, 0.0000000000000000000, 0.0000000000000000000 ) ) ;
#21 = DIRECTION ( 'NONE',  ( -1.224646799147353207E-16, -0.0000000000000000000, -1.000000000000000000 ) ) ;
#22 = ORIENTED_EDGE ( 'NONE', *, *, #132, .F. ) ;
#23 = VECTOR ( 'NONE', #98, 39.37007874015747433 ) ;
#24 = DIRECTION ( 'NONE',  ( 0.0000000000000000000, 0.0000000000000000000, 1.000000000000000000 ) ) ;
#25 = PRODUCT_DEFINITION_SHAPE ( 'NONE', 'NONE',  #65 ) ;
#26 = ORIENTED_EDGE ( 'NONE', *, *, #204, .T. ) ;
#27 = DIRECTION ( 'NONE',  ( 0.0000000000000000000, 0.0000000000000000000, -1.000000000000000000 ) ) ;
#28 = VERTEX_POINT ( 'NONE', #257 ) ;
#29 = CARTESIAN_POINT ( 'NONE',  ( 0.09365625000000006584, 0.0000000000000000000, 0.6250000000000000000 ) ) ;
#30 = MANIFOLD_SOLID_BREP ( 'Fillet1', #232 ) ;
#31 = DIRECTION ( 'NONE',  ( 1.000000000000000000, 0.0000000000000000000, 0.0000000000000000000 ) ) ;
#32 = CARTESIAN_POINT ( 'NONE',  ( 0.09375000000000001388, 1.148106374200643863E-17, 1.984999999999999654 ) ) ;
#33 = CARTESIAN_POINT ( 'NONE',  ( 0.0000000000000000000, 0.0000000000000000000, 2.000000000000000000 ) ) ;
#34 = AXIS2_PLACEMENT_3D ( 'NONE', #316, #151, #261 ) ;
#35 = DIRECTION ( 'NONE',  ( -0.0000000000000000000, -0.0000000000000000000, -1.000000000000000000 ) ) ;
#36 = ORIENTED_EDGE ( 'NONE', *, *, #223, .T. ) ;
#37 = APPLICATION_CONTEXT ( 'automotive_design' ) ;
#38 = CIRCLE ( 'NONE', #285, 0.09365624999999999645 ) ;
#39 = CARTESIAN_POINT ( 'NONE',  ( 0.0000000000000000000, 0.0000000000000000000, 2.000000000000000000 ) ) ;
#40 = DIRECTION ( 'NONE',  ( 1.224646799147353207E-16, 0.0000000000000000000, 1.000000000000000000 ) ) ;
#41 = CARTESIAN_POINT ( 'NONE',  ( -0.09374999999999994449, 0.0000000000000000000, 0.6255316826705892286 ) ) ;
#42 = VERTEX_POINT ( 'NONE', #11 ) ;
#43 =( CONVERSION_BASED_UNIT ( 'INCH', #209 ) LENGTH_UNIT ( ) NAMED_UNIT ( #56 ) );
#44 = CARTESIAN_POINT ( 'NONE',  ( -0.07874999999999980627, 0.0000000000000000000, 2.000000000000000000 ) ) ;
#45 = AXIS2_PLACEMENT_3D ( 'NONE', #33, #275, #196 ) ;
#46 = LINE ( 'NONE', #72, #304 ) ;
#47 = DIRECTION ( 'NONE',  ( 0.7071067811865463515, 8.659560562354916834E-17, -0.7071067811865486830 ) ) ;
#48 =( GEOMETRIC_REPRESENTATION_CONTEXT ( 3 ) GLOBAL_UNCERTAINTY_ASSIGNED_CONTEXT ( ( #344 ) ) GLOBAL_UNIT_ASSIGNED_CONTEXT ( ( #43, #293, #290 ) ) REPRESENTATION_CONTEXT ( 'NONE', 'WORKASPACE' ) );
#49 = FACE_OUTER_BOUND ( 'NONE', #7, .T. ) ;
#50 = VERTEX_POINT ( 'NONE', #203 ) ;
#51 = AXIS2_PLACEMENT_3D ( 'NONE', #300, #154, #263 ) ;
#52 = CARTESIAN_POINT ( 'NONE',  ( 7.654042494670957853E-17, 0.0000000000000000000, 0.6250000000000000000 ) ) ;
#53 = AXIS2_PLACEMENT_3D ( 'NONE', #349, #301, #327 ) ;
#54 = ADVANCED_FACE ( 'NONE', ( #119 ), #136, .T. ) ;
#55 = ORIENTED_EDGE ( 'NONE', *, *, #155, .F. ) ;
#56 = DIMENSIONAL_EXPONENTS ( 1.000000000000000000, 0.0000000000000000000, 0.0000000000000000000, 0.0000000000000000000, 0.0000000000000000000, 0.0000000000000000000, 0.0000000000000000000 ) ;
#57 = DIRECTION ( 'NONE',  ( -1.224646799147353207E-16, -0.0000000000000000000, -1.000000000000000000 ) ) ;
#58 = DIRECTION ( 'NONE',  ( 0.1736481776669313304, 0.0000000000000000000, 0.9848077530122077983 ) ) ;
#59 = AXIS2_PLACEMENT_3D ( 'NONE', #309, #134, #113 ) ;
#60 = DIRECTION ( 'NONE',  ( -1.224646799147353207E-16, -0.0000000000000000000, -1.000000000000000000 ) ) ;
#61 = ORIENTED_EDGE ( 'NONE', *, *, #299, .T. ) ;
#62 = CARTESIAN_POINT ( 'NONE',  ( -0.09365624999999992706, 1.147532321013543253E-17, 0.6250000000000000000 ) ) ;
#63 = ORIENTED_EDGE ( 'NONE', *, *, #12, .F. ) ;
#64 = EDGE_LOOP ( 'NONE', ( #117, #254, #157, #2 ) ) ;
#65 = PRODUCT_DEFINITION ( 'UNKNOWN', '', #220, #294 ) ;
#66 = CIRCLE ( 'NONE', #297, 0.07365624999999999256 ) ;
#67 = DIRECTION ( 'NONE',  ( -1.000000000000000000, 0.0000000000000000000, 0.0000000000000000000 ) ) ;
#68 = ADVANCED_FACE ( 'NONE', ( #235 ), #347, .T. ) ;
#69 = DIRECTION ( 'NONE',  ( 1.000000000000000000, 0.0000000000000000000, 0.0000000000000000000 ) ) ;
#70 = AXIS2_PLACEMENT_3D ( 'NONE', #80, #99, #133 ) ;
#71 = ORIENTED_EDGE ( 'NONE', *, *, #236, .F. ) ;
#72 = CARTESIAN_POINT ( 'NONE',  ( -0.09365624999999999645, 0.0000000000000000000, 1.146958267826442798E-17 ) ) ;
#73 = EDGE_CURVE ( 'NONE', #329, #82, #129, .T. ) ;
#74 = CARTESIAN_POINT ( 'NONE',  ( 0.0000000000000000000, 0.0000000000000000000, 1.984999999999999654 ) ) ;
#75 = EDGE_CURVE ( 'NONE', #144, #97, #143, .T. ) ;
#76 = COLOUR_RGB ( '',0.7921568627450980005, 0.8196078431372548767, 0.9333333333333333481 ) ;
#77 = PLANE ( 'NONE',  #150 ) ;
#78 = FILL_AREA_STYLE ('',( #169 ) ) ;
#79 = LINE ( 'NONE', #152, #23 ) ;
#80 = CARTESIAN_POINT ( 'NONE',  ( 7.654042494670957853E-17, 0.0000000000000000000, 0.6250000000000000000 ) ) ;
#81 = APPLICATION_PROTOCOL_DEFINITION ( 'draft international standard', 'automotive_design', 1998, #37 ) ;
#82 = VERTEX_POINT ( 'NONE', #41 ) ;
#83 = AXIS2_PLACEMENT_3D ( 'NONE', #170, #57, #164 ) ;
#84 = DIRECTION ( 'NONE',  ( 0.0000000000000000000, 0.0000000000000000000, 1.000000000000000000 ) ) ;
#85 =( NAMED_UNIT ( * ) PLANE_ANGLE_UNIT ( ) SI_UNIT ( $, .RADIAN. ) );
#86 =( CONVERSION_BASED_UNIT ( 'INCH', #110 ) LENGTH_UNIT ( ) NAMED_UNIT ( #107 ) );
#87 = CARTESIAN_POINT ( 'NONE',  ( 2.449293598294706769E-18, 0.0000000000000000000, 0.0000000000000000000 ) ) ;
#88 = CIRCLE ( 'NONE', #125, 0.07365624999999999256 ) ;
#89 = ORIENTED_EDGE ( 'NONE', *, *, #155, .T. ) ;
#90 =( NAMED_UNIT ( * ) SI_UNIT ( $, .STERADIAN. ) SOLID_ANGLE_UNIT ( ) );
#91 = EDGE_LOOP ( 'NONE', ( #295, #351, #55, #270 ) ) ;
#92 = ORIENTED_EDGE ( 'NONE', *, *, #262, .T. ) ;
#93 = TOROIDAL_SURFACE ( 'NONE', #310, 0.07365624999999999256, 0.02000000000000000042 ) ;
#94 = CARTESIAN_POINT ( 'NONE',  ( 2.449293598294707154E-18, 0.0000000000000000000, 0.02000000000000000389 ) ) ;
#95 = ORIENTED_EDGE ( 'NONE', *, *, #126, .F. ) ;
#96 = ORIENTED_EDGE ( 'NONE', *, *, #284, .T. ) ;
#97 = VERTEX_POINT ( 'NONE', #341 ) ;
#98 = DIRECTION ( 'NONE',  ( -0.1736481776669311639, 2.126576849575782392E-17, 0.9848077530122080203 ) ) ;
#99 = DIRECTION ( 'NONE',  ( -1.224646799147353207E-16, -0.0000000000000000000, -1.000000000000000000 ) ) ;
#100 = ADVANCED_FACE ( 'NONE', ( #214 ), #242, .T. ) ;
#101 = DIRECTION ( 'NONE',  ( -0.7071067811865463515, 0.0000000000000000000, -0.7071067811865486830 ) ) ;
#102 = APPLICATION_PROTOCOL_DEFINITION ( 'draft international standard', 'automotive_design', 1998, #177 ) ;
#103 = ORIENTED_EDGE ( 'NONE', *, *, #184, .T. ) ;
#104 = LINE ( 'NONE', #303, #319 ) ;
#105 = ORIENTED_EDGE ( 'NONE', *, *, #75, .T. ) ;
#106 = DIRECTION ( 'NONE',  ( 1.224646799147353207E-16, 0.0000000000000000000, 1.000000000000000000 ) ) ;
#107 = DIMENSIONAL_EXPONENTS ( 1.000000000000000000, 0.0000000000000000000, 0.0000000000000000000, 0.0000000000000000000, 0.0000000000000000000, 0.0000000000000000000, 0.0000000000000000000 ) ;
#108 = AXIS2_PLACEMENT_3D ( 'NONE', #120, #234, #340 ) ;
#109 = LINE ( 'NONE', #311, #190 ) ;
#110 = LENGTH_MEASURE_WITH_UNIT ( LENGTH_MEASURE( 0.02539999999999999897 ), #192 );
#111 = ADVANCED_FACE ( 'NONE', ( #162 ), #93, .T. ) ;
#112 = ADVANCED_FACE ( 'NONE', ( #1 ), #161, .T. ) ;
#113 = DIRECTION ( 'NONE',  ( 1.000000000000000000, 0.0000000000000000000, 0.0000000000000000000 ) ) ;
#114 = ORIENTED_EDGE ( 'NONE', *, *, #142, .F. ) ;
#115 = LINE ( 'NONE', #194, #258 ) ;
#116 = VECTOR ( 'NONE', #345, 39.37007874015748143 ) ;
#117 = ORIENTED_EDGE ( 'NONE', *, *, #284, .F. ) ;
#118 = EDGE_LOOP ( 'NONE', ( #141, #26, #105, #259 ) ) ;
#119 = FACE_OUTER_BOUND ( 'NONE', #305, .T. ) ;
#120 = CARTESIAN_POINT ( 'NONE',  ( 7.660553729477949085E-17, 0.0000000000000000000, 0.6255316826705892286 ) ) ;
#121 = PRESENTATION_LAYER_ASSIGNMENT (  '', '', ( #279 ) ) ;
#122 = DIRECTION ( 'NONE',  ( 0.0000000000000000000, 0.0000000000000000000, -1.000000000000000000 ) ) ;
#123 = ADVANCED_FACE ( 'NONE', ( #130 ), #77, .F. ) ;
#124 = STYLED_ITEM ( 'NONE', ( #260 ), #30 ) ;
#125 = AXIS2_PLACEMENT_3D ( 'NONE', #87, #35, #308 ) ;
#126 = EDGE_CURVE ( 'NONE', #302, #82, #79, .T. ) ;
#127 = DIRECTION ( 'NONE',  ( -1.224646799147353207E-16, -0.0000000000000000000, -1.000000000000000000 ) ) ;
#128 = DIRECTION ( 'NONE',  ( -0.0000000000000000000, -0.0000000000000000000, -1.000000000000000000 ) ) ;
#129 = CIRCLE ( 'NONE', #108, 0.09375000000000001388 ) ;
#130 = FACE_OUTER_BOUND ( 'NONE', #174, .T. ) ;
#131 = ORIENTED_EDGE ( 'NONE', *, *, #179, .F. ) ;
#132 = EDGE_CURVE ( 'NONE', #28, #252, #8, .T. ) ;
#133 = DIRECTION ( 'NONE',  ( -1.000000000000000000, 0.0000000000000000000, 0.0000000000000000000 ) ) ;
#134 = DIRECTION ( 'NONE',  ( 0.0000000000000000000, 0.0000000000000000000, 1.000000000000000000 ) ) ;
#135 = DIRECTION ( 'NONE',  ( -1.000000000000000000, 0.0000000000000000000, 0.0000000000000000000 ) ) ;
#136 = CONICAL_SURFACE ( 'NONE', #201, 0.07874999999999980627, 0.7853981633974466137 ) ;
#137 = DIRECTION ( 'NONE',  ( 1.000000000000000000, 0.0000000000000000000, -0.0000000000000000000 ) ) ;
#138 = ORIENTED_EDGE ( 'NONE', *, *, #200, .F. ) ;
#139 = EDGE_CURVE ( 'NONE', #42, #28, #159, .T. ) ;
#140 = DIRECTION ( 'NONE',  ( -1.224646799147353207E-16, -0.0000000000000000000, -1.000000000000000000 ) ) ;
#141 = ORIENTED_EDGE ( 'NONE', *, *, #142, .T. ) ;
#142 = EDGE_CURVE ( 'NONE', #302, #229, #226, .T. ) ;
#143 = CIRCLE ( 'NONE', #336, 0.09365624999999999645 ) ;
#144 = VERTEX_POINT ( 'NONE', #211 ) ;
#145 = EDGE_CURVE ( 'NONE', #252, #329, #185, .T. ) ;
#146 = SURFACE_SIDE_STYLE ('',( #15 ) ) ;
#147 = DIRECTION ( 'NONE',  ( 1.000000000000000000, 0.0000000000000000000, 0.0000000000000000000 ) ) ;
#148 = ADVANCED_FACE ( 'NONE', ( #183 ), #212, .T. ) ;
#149 = FILL_AREA_STYLE ('',( #237 ) ) ;
#150 = AXIS2_PLACEMENT_3D ( 'NONE', #272, #346, #325 ) ;
#151 = DIRECTION ( 'NONE',  ( 1.224646799147353207E-16, 1.000000000000000000, -0.0000000000000000000 ) ) ;
#152 = CARTESIAN_POINT ( 'NONE',  ( -0.09365624999999992706, 1.146958267826442798E-17, 0.6250000000000000000 ) ) ;
#153 = AXIS2_PLACEMENT_3D ( 'NONE', #283, #332, #137 ) ;
#154 = DIRECTION ( 'NONE',  ( -0.0000000000000000000, -0.0000000000000000000, -1.000000000000000000 ) ) ;
#155 = EDGE_CURVE ( 'NONE', #82, #329, #13, .T. ) ;
#156 = CYLINDRICAL_SURFACE ( 'NONE', #238, 0.09375000000000001388 ) ;
#157 = ORIENTED_EDGE ( 'NONE', *, *, #75, .F. ) ;
#158 = SURFACE_STYLE_FILL_AREA ( #78 ) ;
#159 = LINE ( 'NONE', #44, #269 ) ;
#160 = ORIENTED_EDGE ( 'NONE', *, *, #317, .F. ) ;
#161 = CONICAL_SURFACE ( 'NONE', #314, 0.09365624999999999645, 0.1745329251994338360 ) ;
#162 = FACE_OUTER_BOUND ( 'NONE', #168, .T. ) ;
#163 = EDGE_LOOP ( 'NONE', ( #131, #71, #215, #138 ) ) ;
#164 = DIRECTION ( 'NONE',  ( -1.000000000000000000, 0.0000000000000000000, 1.224646799147352961E-16 ) ) ;
#165 = CARTESIAN_POINT ( 'NONE',  ( 2.449293598294707154E-18, 0.0000000000000000000, 0.02000000000000000389 ) ) ;
#166 = CYLINDRICAL_SURFACE ( 'NONE', #339, 0.09365624999999999645 ) ;
#167 = EDGE_CURVE ( 'NONE', #199, #144, #255, .T. ) ;
#168 = EDGE_LOOP ( 'NONE', ( #63, #160, #206, #243 ) ) ;
#169 = FILL_AREA_STYLE_COLOUR ( '', #76 ) ;
#170 = CARTESIAN_POINT ( 'NONE',  ( 0.0000000000000000000, 0.0000000000000000000, 0.0000000000000000000 ) ) ;
#171 = ORIENTED_EDGE ( 'NONE', *, *, #299, .F. ) ;
#172 = MECHANICAL_DESIGN_GEOMETRIC_PRESENTATION_REPRESENTATION (  '', ( #124 ), #48 ) ;
#173 = CIRCLE ( 'NONE', #45, 0.07874999999999980627 ) ;
#174 = EDGE_LOOP ( 'NONE', ( #335, #96 ) ) ;
#175 = CARTESIAN_POINT ( 'NONE',  ( 7.654042494670957853E-17, 0.0000000000000000000, 0.6250000000000000000 ) ) ;
#176 = EDGE_LOOP ( 'NONE', ( #95, #318, #197, #231 ) ) ;
#177 = APPLICATION_CONTEXT ( 'automotive_design' ) ;
#178 = CIRCLE ( 'NONE', #59, 0.07874999999999980627 ) ;
#179 = EDGE_CURVE ( 'NONE', #50, #252, #104, .T. ) ;
#180 =( LENGTH_UNIT ( ) NAMED_UNIT ( * ) SI_UNIT ( $, .METRE. ) );
#181 = CARTESIAN_POINT ( 'NONE',  ( 0.0000000000000000000, 0.0000000000000000000, 1.984999999999999654 ) ) ;
#182 = LINE ( 'NONE', #296, #195 ) ;
#183 = FACE_OUTER_BOUND ( 'NONE', #91, .T. ) ;
#184 = EDGE_CURVE ( 'NONE', #302, #97, #46, .T. ) ;
#185 = LINE ( 'NONE', #216, #116 ) ;
#186 = EDGE_LOOP ( 'NONE', ( #207, #61 ) ) ;
#187 = SURFACE_STYLE_USAGE ( .BOTH. , #271 ) ;
#188 = COLOUR_RGB ( '',0.7921568627450980005, 0.8196078431372548767, 0.9333333333333333481 ) ;
#189 = CARTESIAN_POINT ( 'NONE',  ( 0.07365624999999999256, 0.0000000000000000000, 0.02000000000000000042 ) ) ;
#190 = VECTOR ( 'NONE', #218, 39.37007874015748143 ) ;
#191 = DIRECTION ( 'NONE',  ( -0.0000000000000000000, -0.0000000000000000000, -1.000000000000000000 ) ) ;
#192 =( LENGTH_UNIT ( ) NAMED_UNIT ( * ) SI_UNIT ( $, .METRE. ) );
#193 = DIMENSIONAL_EXPONENTS ( 1.000000000000000000, 0.0000000000000000000, 0.0000000000000000000, 0.0000000000000000000, 0.0000000000000000000, 0.0000000000000000000, 0.0000000000000000000 ) ;
#194 = CARTESIAN_POINT ( 'NONE',  ( 0.09365625000000006584, 0.0000000000000000000, 0.6250000000000000000 ) ) ;
#195 = VECTOR ( 'NONE', #264, 39.37007874015748143 ) ;
#196 = DIRECTION ( 'NONE',  ( 1.000000000000000000, 0.0000000000000000000, 0.0000000000000000000 ) ) ;
#197 = ORIENTED_EDGE ( 'NONE', *, *, #323, .T. ) ;
#198 = ORIENTED_EDGE ( 'NONE', *, *, #291, .T. ) ;
#199 = VERTEX_POINT ( 'NONE', #239 ) ;
#200 = EDGE_CURVE ( 'NONE', #252, #28, #213, .T. ) ;
#201 = AXIS2_PLACEMENT_3D ( 'NONE', #39, #122, #67 ) ;
#202 = CIRCLE ( 'NONE', #331, 0.09365624999999999645 ) ;
#203 = CARTESIAN_POINT ( 'NONE',  ( 0.07874999999999980627, 1.056257864264590573E-17, 2.000000000000000000 ) ) ;
#204 = EDGE_CURVE ( 'NONE', #229, #144, #182, .T. ) ;
#205 = DIRECTION ( 'NONE',  ( 0.0000000000000000000, 0.0000000000000000000, 1.000000000000000000 ) ) ;
#206 = ORIENTED_EDGE ( 'NONE', *, *, #167, .T. ) ;
#207 = ORIENTED_EDGE ( 'NONE', *, *, #236, .T. ) ;
#208 = AXIS2_PLACEMENT_3D ( 'NONE', #181, #27, #267 ) ;
#209 = LENGTH_MEASURE_WITH_UNIT ( LENGTH_MEASURE( 0.02539999999999999897 ), #180 );
#210 = PRODUCT ( 'Micro_GEC-187-3-020X', 'Micro_GEC-187-3-020X', '', ( #273 ) ) ;
#211 = CARTESIAN_POINT ( 'NONE',  ( 0.09365624999999999645, 1.146958267826442798E-17, 0.02000000000000000389 ) ) ;
#212 = CYLINDRICAL_SURFACE ( 'NONE', #51, 0.09375000000000001388 ) ;
#213 = CIRCLE ( 'NONE', #5, 0.09375000000000001388 ) ;
#214 = FACE_OUTER_BOUND ( 'NONE', #163, .T. ) ;
#215 = ORIENTED_EDGE ( 'NONE', *, *, #139, .T. ) ;
#216 = CARTESIAN_POINT ( 'NONE',  ( 0.09375000000000001388, 1.148106374200643863E-17, 2.000000000000000000 ) ) ;
#217 = UNCERTAINTY_MEASURE_WITH_UNIT (LENGTH_MEASURE( 1.000000000000000082E-05 ), #86, 'distance_accuracy_value', 'NONE');
#218 = DIRECTION ( 'NONE',  ( -0.0000000000000000000, -0.0000000000000000000, -1.000000000000000000 ) ) ;
#219 = AXIS2_PLACEMENT_3D ( 'NONE', #282, #256, #31 ) ;
#220 = PRODUCT_DEFINITION_FORMATION_WITH_SPECIFIED_SOURCE ( 'ANY', '', #210, .NOT_KNOWN. ) ;
#221 = ADVANCED_FACE ( 'NONE', ( #49 ), #156, .T. ) ;
#222 = LENGTH_MEASURE_WITH_UNIT ( LENGTH_MEASURE( 0.02539999999999999897 ), #227 );
#223 = EDGE_CURVE ( 'NONE', #28, #82, #109, .T. ) ;
#224 = FACE_OUTER_BOUND ( 'NONE', #225, .T. ) ;
#225 = EDGE_LOOP ( 'NONE', ( #337, #92, #103, #198 ) ) ;
#226 = CIRCLE ( 'NONE', #70, 0.09365624999999999645 ) ;
#227 =( LENGTH_UNIT ( ) NAMED_UNIT ( * ) SI_UNIT ( $, .METRE. ) );
#228 = ORIENTED_EDGE ( 'NONE', *, *, #73, .F. ) ;
#229 = VERTEX_POINT ( 'NONE', #29 ) ;
#230 = PRESENTATION_STYLE_ASSIGNMENT (( #187 ) ) ;
#231 = ORIENTED_EDGE ( 'NONE', *, *, #73, .T. ) ;
#232 = CLOSED_SHELL ( 'NONE', ( #306, #342, #112, #54, #148, #221, #268, #100, #68, #251, #123, #111 ) ) ;
#233 =( GEOMETRIC_REPRESENTATION_CONTEXT ( 3 ) GLOBAL_UNCERTAINTY_ASSIGNED_CONTEXT ( ( #281 ) ) GLOBAL_UNIT_ASSIGNED_CONTEXT ( ( #333, #85, #90 ) ) REPRESENTATION_CONTEXT ( 'NONE', 'WORKASPACE' ) );
#234 = DIRECTION ( 'NONE',  ( -1.224646799147353207E-16, -0.0000000000000000000, -1.000000000000000000 ) ) ;
#235 = FACE_OUTER_BOUND ( 'NONE', #176, .T. ) ;
#236 = EDGE_CURVE ( 'NONE', #42, #50, #178, .T. ) ;
#237 = FILL_AREA_STYLE_COLOUR ( '', #188 ) ;
#238 = AXIS2_PLACEMENT_3D ( 'NONE', #265, #128, #348 ) ;
#239 = CARTESIAN_POINT ( 'NONE',  ( 0.07365624999999999256, 0.0000000000000000000, 0.0000000000000000000 ) ) ;
#240 = DIRECTION ( 'NONE',  ( 0.0000000000000000000, 0.0000000000000000000, -1.000000000000000000 ) ) ;
#241 = DIRECTION ( 'NONE',  ( -1.000000000000000000, 0.0000000000000000000, 0.0000000000000000000 ) ) ;
#242 = CONICAL_SURFACE ( 'NONE', #343, 0.07874999999999980627, 0.7853981633974466137 ) ;
#243 = ORIENTED_EDGE ( 'NONE', *, *, #291, .F. ) ;
#244 = DIRECTION ( 'NONE',  ( 1.000000000000000000, 0.0000000000000000000, 0.0000000000000000000 ) ) ;
#245 = EDGE_LOOP ( 'NONE', ( #114, #338, #89, #288 ) ) ;
#246 = DIRECTION ( 'NONE',  ( 1.000000000000000000, 0.0000000000000000000, 0.0000000000000000000 ) ) ;
#247 = DIRECTION ( 'NONE',  ( 1.000000000000000000, 0.0000000000000000000, 0.0000000000000000000 ) ) ;
#248 = AXIS2_PLACEMENT_3D ( 'NONE', #322, #21, #246 ) ;
#249 =( GEOMETRIC_REPRESENTATION_CONTEXT ( 3 ) GLOBAL_UNCERTAINTY_ASSIGNED_CONTEXT ( ( #217 ) ) GLOBAL_UNIT_ASSIGNED_CONTEXT ( ( #86, #278, #266 ) ) REPRESENTATION_CONTEXT ( 'NONE', 'WORKASPACE' ) );
#250 = CARTESIAN_POINT ( 'NONE',  ( 0.0000000000000000000, 0.0000000000000000000, 0.0000000000000000000 ) ) ;
#251 = ADVANCED_FACE ( 'NONE', ( #224 ), #280, .T. ) ;
#252 = VERTEX_POINT ( 'NONE', #32 ) ;
#253 = DIRECTION ( 'NONE',  ( -1.000000000000000000, 0.0000000000000000000, 1.224646799147352961E-16 ) ) ;
#254 = ORIENTED_EDGE ( 'NONE', *, *, #12, .T. ) ;
#255 = CIRCLE ( 'NONE', #14, 0.02000000000000000042 ) ;
#256 = DIRECTION ( 'NONE',  ( 0.0000000000000000000, 0.0000000000000000000, 1.000000000000000000 ) ) ;
#257 = CARTESIAN_POINT ( 'NONE',  ( -0.09375000000000001388, 0.0000000000000000000, 1.984999999999999654 ) ) ;
#258 = VECTOR ( 'NONE', #58, 39.37007874015748143 ) ;
#259 = ORIENTED_EDGE ( 'NONE', *, *, #184, .F. ) ;
#260 = PRESENTATION_STYLE_ASSIGNMENT (( #315 ) ) ;
#261 = DIRECTION ( 'NONE',  ( -1.000000000000000000, 1.224646799147353454E-16, 0.0000000000000000000 ) ) ;
#262 = EDGE_CURVE ( 'NONE', #229, #302, #38, .T. ) ;
#263 = DIRECTION ( 'NONE',  ( -1.000000000000000000, 0.0000000000000000000, 0.0000000000000000000 ) ) ;
#264 = DIRECTION ( 'NONE',  ( -1.224646799147353207E-16, -0.0000000000000000000, -1.000000000000000000 ) ) ;
#265 = CARTESIAN_POINT ( 'NONE',  ( 0.0000000000000000000, 0.0000000000000000000, 2.000000000000000000 ) ) ;
#266 =( NAMED_UNIT ( * ) SI_UNIT ( $, .STERADIAN. ) SOLID_ANGLE_UNIT ( ) );
#267 = DIRECTION ( 'NONE',  ( 1.000000000000000000, 0.0000000000000000000, 0.0000000000000000000 ) ) ;
#268 = ADVANCED_FACE ( 'NONE', ( #9 ), #334, .T. ) ;
#269 = VECTOR ( 'NONE', #101, 39.37007874015748143 ) ;
#270 = ORIENTED_EDGE ( 'NONE', *, *, #223, .F. ) ;
#271 = SURFACE_SIDE_STYLE ('',( #158 ) ) ;
#272 = CARTESIAN_POINT ( 'NONE',  ( 0.0000000000000000000, 0.0000000000000000000, 0.0000000000000000000 ) ) ;
#273 = PRODUCT_CONTEXT ( 'NONE', #37, 'mechanical' ) ;
#274 = ORIENTED_EDGE ( 'NONE', *, *, #179, .T. ) ;
#275 = DIRECTION ( 'NONE',  ( 0.0000000000000000000, 0.0000000000000000000, 1.000000000000000000 ) ) ;
#276 = SHAPE_DEFINITION_REPRESENTATION ( #25, #289 ) ;
#277 = FACE_OUTER_BOUND ( 'NONE', #64, .T. ) ;
#278 =( NAMED_UNIT ( * ) PLANE_ANGLE_UNIT ( ) SI_UNIT ( $, .RADIAN. ) );
#279 = STYLED_ITEM ( 'NONE', ( #230 ), #289 ) ;
#280 = CYLINDRICAL_SURFACE ( 'NONE', #83, 0.09365624999999999645 ) ;
#281 = UNCERTAINTY_MEASURE_WITH_UNIT (LENGTH_MEASURE( 1.000000000000000082E-05 ), #333, 'distance_accuracy_value', 'NONE');
#282 = CARTESIAN_POINT ( 'NONE',  ( 2.449293598294706769E-18, 0.0000000000000000000, 0.02000000000000000042 ) ) ;
#283 = CARTESIAN_POINT ( 'NONE',  ( 0.0000000000000000000, 0.0000000000000000000, 2.000000000000000000 ) ) ;
#284 = EDGE_CURVE ( 'NONE', #10, #199, #88, .T. ) ;
#285 = AXIS2_PLACEMENT_3D ( 'NONE', #330, #60, #135 ) ;
#286 = MECHANICAL_DESIGN_GEOMETRIC_PRESENTATION_REPRESENTATION (  '', ( #279 ), #249 ) ;
#287 = CARTESIAN_POINT ( 'NONE',  ( -0.07365624999999999256, 1.024493587911707594E-17, 0.0000000000000000000 ) ) ;
#288 = ORIENTED_EDGE ( 'NONE', *, *, #323, .F. ) ;
#289 = ADVANCED_BREP_SHAPE_REPRESENTATION ( 'Micro_GEC-187-3-020X', ( #30, #53 ), #233 ) ;
#290 =( NAMED_UNIT ( * ) SI_UNIT ( $, .STERADIAN. ) SOLID_ANGLE_UNIT ( ) );
#291 = EDGE_CURVE ( 'NONE', #97, #144, #202, .T. ) ;
#292 = AXIS2_PLACEMENT_3D ( 'NONE', #175, #40, #147 ) ;
#293 =( NAMED_UNIT ( * ) PLANE_ANGLE_UNIT ( ) SI_UNIT ( $, .RADIAN. ) );
#294 = PRODUCT_DEFINITION_CONTEXT ( 'detailed design', #177, 'design' ) ;
#295 = ORIENTED_EDGE ( 'NONE', *, *, #132, .T. ) ;
#296 = CARTESIAN_POINT ( 'NONE',  ( 0.09365624999999999645, 1.146958267826442798E-17, -1.146958267826442798E-17 ) ) ;
#297 = AXIS2_PLACEMENT_3D ( 'NONE', #6, #191, #4 ) ;
#298 = DIRECTION ( 'NONE',  ( 0.0000000000000000000, 0.0000000000000000000, -1.000000000000000000 ) ) ;
#299 = EDGE_CURVE ( 'NONE', #50, #42, #173, .T. ) ;
#300 = CARTESIAN_POINT ( 'NONE',  ( 0.0000000000000000000, 0.0000000000000000000, 2.000000000000000000 ) ) ;
#301 = DIRECTION ( 'NONE',  ( 0.0000000000000000000, 0.0000000000000000000, 1.000000000000000000 ) ) ;
#302 = VERTEX_POINT ( 'NONE', #62 ) ;
#303 = CARTESIAN_POINT ( 'NONE',  ( 0.07874999999999980627, 9.644093543285380530E-18, 2.000000000000000000 ) ) ;
#304 = VECTOR ( 'NONE', #127, 39.37007874015748143 ) ;
#305 = EDGE_LOOP ( 'NONE', ( #171, #274, #22, #16 ) ) ;
#306 = ADVANCED_FACE ( 'NONE', ( #277 ), #18, .T. ) ;
#307 = FACE_OUTER_BOUND ( 'NONE', #118, .T. ) ;
#308 = DIRECTION ( 'NONE',  ( 1.000000000000000000, 0.0000000000000000000, 0.0000000000000000000 ) ) ;
#309 = CARTESIAN_POINT ( 'NONE',  ( 0.0000000000000000000, 0.0000000000000000000, 2.000000000000000000 ) ) ;
#310 = AXIS2_PLACEMENT_3D ( 'NONE', #19, #24, #20 ) ;
#311 = CARTESIAN_POINT ( 'NONE',  ( -0.09375000000000001388, 0.0000000000000000000, 2.000000000000000000 ) ) ;
#312 = CARTESIAN_POINT ( 'NONE',  ( 0.09375000000000006939, 1.148106374200644633E-17, 0.6255316826705892286 ) ) ;
#313 = ORIENTED_EDGE ( 'NONE', *, *, #200, .T. ) ;
#314 = AXIS2_PLACEMENT_3D ( 'NONE', #52, #106, #321 ) ;
#315 = SURFACE_STYLE_USAGE ( .BOTH. , #146 ) ;
#316 = CARTESIAN_POINT ( 'NONE',  ( -0.07365624999999999256, 9.020289079969722367E-18, 0.02000000000000000042 ) ) ;
#317 = EDGE_CURVE ( 'NONE', #199, #10, #66, .T. ) ;
#318 = ORIENTED_EDGE ( 'NONE', *, *, #262, .F. ) ;
#319 = VECTOR ( 'NONE', #47, 39.37007874015748143 ) ;
#320 = ORIENTED_EDGE ( 'NONE', *, *, #145, .F. ) ;
#321 = DIRECTION ( 'NONE',  ( 1.000000000000000000, 0.0000000000000000000, 0.0000000000000000000 ) ) ;
#322 = CARTESIAN_POINT ( 'NONE',  ( 7.660553729477949085E-17, 0.0000000000000000000, 0.6255316826705892286 ) ) ;
#323 = EDGE_CURVE ( 'NONE', #229, #329, #115, .T. ) ;
#324 = DIRECTION ( 'NONE',  ( 0.0000000000000000000, -1.000000000000000000, 0.0000000000000000000 ) ) ;
#325 = DIRECTION ( 'NONE',  ( 1.000000000000000000, 0.0000000000000000000, -0.0000000000000000000 ) ) ;
#326 = DIRECTION ( 'NONE',  ( 0.0000000000000000000, 0.0000000000000000000, -1.000000000000000000 ) ) ;
#327 = DIRECTION ( 'NONE',  ( 1.000000000000000000, 0.0000000000000000000, 0.0000000000000000000 ) ) ;
#328 = PRESENTATION_LAYER_ASSIGNMENT (  '', '', ( #124 ) ) ;
#329 = VERTEX_POINT ( 'NONE', #312 ) ;
#330 = CARTESIAN_POINT ( 'NONE',  ( 7.654042494670957853E-17, 0.0000000000000000000, 0.6250000000000000000 ) ) ;
#331 = AXIS2_PLACEMENT_3D ( 'NONE', #165, #84, #247 ) ;
#332 = DIRECTION ( 'NONE',  ( 0.0000000000000000000, 0.0000000000000000000, 1.000000000000000000 ) ) ;
#333 =( CONVERSION_BASED_UNIT ( 'INCH', #222 ) LENGTH_UNIT ( ) NAMED_UNIT ( #193 ) );
#334 = PLANE ( 'NONE',  #153 ) ;
#335 = ORIENTED_EDGE ( 'NONE', *, *, #317, .T. ) ;
#336 = AXIS2_PLACEMENT_3D ( 'NONE', #94, #205, #69 ) ;
#337 = ORIENTED_EDGE ( 'NONE', *, *, #204, .F. ) ;
#338 = ORIENTED_EDGE ( 'NONE', *, *, #126, .T. ) ;
#339 = AXIS2_PLACEMENT_3D ( 'NONE', #250, #140, #253 ) ;
#340 = DIRECTION ( 'NONE',  ( 1.000000000000000000, 0.0000000000000000000, 0.0000000000000000000 ) ) ;
#341 = CARTESIAN_POINT ( 'NONE',  ( -0.09365624999999999645, 0.0000000000000000000, 0.02000000000000000389 ) ) ;
#342 = ADVANCED_FACE ( 'NONE', ( #307 ), #166, .T. ) ;
#343 = AXIS2_PLACEMENT_3D ( 'NONE', #3, #240, #241 ) ;
#344 = UNCERTAINTY_MEASURE_WITH_UNIT (LENGTH_MEASURE( 1.000000000000000082E-05 ), #43, 'distance_accuracy_value', 'NONE');
#345 = DIRECTION ( 'NONE',  ( -0.0000000000000000000, -0.0000000000000000000, -1.000000000000000000 ) ) ;
#346 = DIRECTION ( 'NONE',  ( 0.0000000000000000000, 0.0000000000000000000, 1.000000000000000000 ) ) ;
#347 = CONICAL_SURFACE ( 'NONE', #292, 0.09365624999999999645, 0.1745329251994338360 ) ;
#348 = DIRECTION ( 'NONE',  ( -1.000000000000000000, 0.0000000000000000000, 0.0000000000000000000 ) ) ;
#349 = CARTESIAN_POINT ( 'NONE',  ( 0.0000000000000000000, 0.0000000000000000000, 0.0000000000000000000 ) ) ;
#350 = PRODUCT_RELATED_PRODUCT_CATEGORY ( 'part', '', ( #210 ) ) ;
#351 = ORIENTED_EDGE ( 'NONE', *, *, #145, .T. ) ;
ENDSEC;
END-ISO-10303-21;
