ISO-10303-21;
HEADER;
FILE_DESCRIPTION (( 'STEP AP214' ),
    '1' );
FILE_NAME ('Micro_GEM-375-2.STEP',
    '2021-09-01T20:34:20',
    ( '' ),
    ( '' ),
    'SwSTEP 2.0',
    'SolidWorks 2020',
    '' );
FILE_SCHEMA (( 'AUTOMOTIVE_DESIGN' ));
ENDSEC;

DATA;
#1 = FACE_OUTER_BOUND ( 'NONE', #177, .T. ) ;
#2 =( NAMED_UNIT ( * ) SI_UNIT ( $, .STERADIAN. ) SOLID_ANGLE_UNIT ( ) );
#3 = DIRECTION ( 'NONE',  ( -1.000000000000000000, 0.0000000000000000000, 1.224646799147352961E-16 ) ) ;
#4 = CIRCLE ( 'NONE', #209, 0.1875000000000000278 ) ;
#5 = DIRECTION ( 'NONE',  ( -0.0000000000000000000, -0.0000000000000000000, -1.000000000000000000 ) ) ;
#6 =( NAMED_UNIT ( * ) PLANE_ANGLE_UNIT ( ) SI_UNIT ( $, .RADIAN. ) );
#7 = ORIENTED_EDGE ( 'NONE', *, *, #275, .T. ) ;
#8 = VECTOR ( 'NONE', #296, 39.37007874015748854 ) ;
#9 = STYLED_ITEM ( 'NONE', ( #49 ), #173 ) ;
#10 =( NAMED_UNIT ( * ) PLANE_ANGLE_UNIT ( ) SI_UNIT ( $, .RADIAN. ) );
#11 = ORIENTED_EDGE ( 'NONE', *, *, #72, .T. ) ;
#12 = VERTEX_POINT ( 'NONE', #134 ) ;
#13 = VERTEX_POINT ( 'NONE', #95 ) ;
#14 = EDGE_CURVE ( 'NONE', #12, #241, #284, .T. ) ;
#15 = DIRECTION ( 'NONE',  ( -1.000000000000000000, 0.0000000000000000000, 0.0000000000000000000 ) ) ;
#16 = CARTESIAN_POINT ( 'NONE',  ( -0.1873124999999999096, 2.295064642027087123E-17, 0.8750000000000000000 ) ) ;
#17 = CIRCLE ( 'NONE', #33, 0.1873124999999999929 ) ;
#18 = DIRECTION ( 'NONE',  ( 1.000000000000000000, 0.0000000000000000000, -0.0000000000000000000 ) ) ;
#19 = EDGE_CURVE ( 'NONE', #227, #268, #45, .T. ) ;
#20 = DIRECTION ( 'NONE',  ( -1.000000000000000000, 0.0000000000000000000, 1.224646799147352961E-16 ) ) ;
#21 = ORIENTED_EDGE ( 'NONE', *, *, #208, .F. ) ;
#22 = AXIS2_PLACEMENT_3D ( 'NONE', #135, #64, #69 ) ;
#23 = DIMENSIONAL_EXPONENTS ( 1.000000000000000000, 0.0000000000000000000, 0.0000000000000000000, 0.0000000000000000000, 0.0000000000000000000, 0.0000000000000000000, 0.0000000000000000000 ) ;
#24 = PRESENTATION_LAYER_ASSIGNMENT (  '', '', ( #9 ) ) ;
#25 = FACE_OUTER_BOUND ( 'NONE', #71, .T. ) ;
#26 = DIRECTION ( 'NONE',  ( -0.1736481776669311916, 2.126576849575783316E-17, 0.9848077530122080203 ) ) ;
#27 = CARTESIAN_POINT ( 'NONE',  ( 1.071565949253934025E-16, 0.0000000000000000000, 0.8750000000000000000 ) ) ;
#28 = ADVANCED_FACE ( 'NONE', ( #210 ), #228, .T. ) ;
#29 = DIRECTION ( 'NONE',  ( -1.224646799147353207E-16, -0.0000000000000000000, -1.000000000000000000 ) ) ;
#30 = ORIENTED_EDGE ( 'NONE', *, *, #208, .T. ) ;
#31 =( NAMED_UNIT ( * ) SI_UNIT ( $, .STERADIAN. ) SOLID_ANGLE_UNIT ( ) );
#32 = ORIENTED_EDGE ( 'NONE', *, *, #255, .F. ) ;
#33 = AXIS2_PLACEMENT_3D ( 'NONE', #190, #142, #3 ) ;
#34 = SURFACE_STYLE_FILL_AREA ( #243 ) ;
#35 = ADVANCED_FACE ( 'NONE', ( #91 ), #277, .T. ) ;
#36 = EDGE_LOOP ( 'NONE', ( #21, #245, #11, #199 ) ) ;
#37 = DIRECTION ( 'NONE',  ( -1.000000000000000000, 0.0000000000000000000, 0.0000000000000000000 ) ) ;
#38 = ORIENTED_EDGE ( 'NONE', *, *, #250, .T. ) ;
#39 = ORIENTED_EDGE ( 'NONE', *, *, #46, .F. ) ;
#40 = VECTOR ( 'NONE', #292, 39.37007874015748143 ) ;
#41 = CARTESIAN_POINT ( 'NONE',  ( 0.1873125000000001317, 0.0000000000000000000, 0.8750000000000000000 ) ) ;
#42 = DIRECTION ( 'NONE',  ( 0.0000000000000000000, 0.0000000000000000000, -1.000000000000000000 ) ) ;
#43 = LINE ( 'NONE', #206, #40 ) ;
#44 = VECTOR ( 'NONE', #161, 39.37007874015748143 ) ;
#45 = LINE ( 'NONE', #231, #115 ) ;
#46 = EDGE_CURVE ( 'NONE', #241, #12, #4, .T. ) ;
#47 = CYLINDRICAL_SURFACE ( 'NONE', #50, 0.1875000000000000278 ) ;
#48 = DIRECTION ( 'NONE',  ( 1.000000000000000000, 0.0000000000000000000, 0.0000000000000000000 ) ) ;
#49 = PRESENTATION_STYLE_ASSIGNMENT (( #282 ) ) ;
#50 = AXIS2_PLACEMENT_3D ( 'NONE', #112, #137, #187 ) ;
#51 = CARTESIAN_POINT ( 'NONE',  ( -0.1875000000000000278, 0.0000000000000000000, 2.484999999999999432 ) ) ;
#52 = FILL_AREA_STYLE_COLOUR ( '', #76 ) ;
#53 = DIRECTION ( 'NONE',  ( 1.000000000000000000, 0.0000000000000000000, 0.0000000000000000000 ) ) ;
#54 = ORIENTED_EDGE ( 'NONE', *, *, #83, .F. ) ;
#55 = ADVANCED_FACE ( 'NONE', ( #207 ), #47, .T. ) ;
#56 =( CONVERSION_BASED_UNIT ( 'INCH', #283 ) LENGTH_UNIT ( ) NAMED_UNIT ( #297 ) );
#57 = VERTEX_POINT ( 'NONE', #272 ) ;
#58 = ADVANCED_FACE ( 'NONE', ( #232 ), #188, .T. ) ;
#59 = ORIENTED_EDGE ( 'NONE', *, *, #255, .T. ) ;
#60 = CIRCLE ( 'NONE', #230, 0.1724999999999995981 ) ;
#61 = DIRECTION ( 'NONE',  ( 0.0000000000000000000, 0.0000000000000000000, 1.000000000000000000 ) ) ;
#62 = ORIENTED_EDGE ( 'NONE', *, *, #197, .T. ) ;
#63 =( NAMED_UNIT ( * ) SI_UNIT ( $, .STERADIAN. ) SOLID_ANGLE_UNIT ( ) );
#64 = DIRECTION ( 'NONE',  ( -1.224646799147353207E-16, -0.0000000000000000000, -1.000000000000000000 ) ) ;
#65 = CONICAL_SURFACE ( 'NONE', #81, 0.1873125000000000207, 0.1745329251994338915 ) ;
#66 = AXIS2_PLACEMENT_3D ( 'NONE', #116, #274, #20 ) ;
#67 = CARTESIAN_POINT ( 'NONE',  ( 0.0000000000000000000, 0.0000000000000000000, 2.484999999999999432 ) ) ;
#68 = LINE ( 'NONE', #41, #44 ) ;
#69 = DIRECTION ( 'NONE',  ( -1.000000000000000000, 0.0000000000000000000, 0.0000000000000000000 ) ) ;
#70 = PRODUCT_DEFINITION_FORMATION_WITH_SPECIFIED_SOURCE ( 'ANY', '', #162, .NOT_KNOWN. ) ;
#71 = EDGE_LOOP ( 'NONE', ( #32, #139, #118, #186 ) ) ;
#72 = EDGE_CURVE ( 'NONE', #227, #57, #68, .T. ) ;
#73 = UNCERTAINTY_MEASURE_WITH_UNIT (LENGTH_MEASURE( 1.000000000000000082E-05 ), #261, 'distance_accuracy_value', 'NONE');
#74 = SURFACE_SIDE_STYLE ('',( #145 ) ) ;
#75 = AXIS2_PLACEMENT_3D ( 'NONE', #267, #154, #178 ) ;
#76 = COLOUR_RGB ( '',0.7921568627450980005, 0.8196078431372548767, 0.9333333333333333481 ) ;
#77 = FACE_OUTER_BOUND ( 'NONE', #179, .T. ) ;
#78 = CLOSED_SHELL ( 'NONE', ( #58, #183, #152, #55, #28, #35, #204, #163, #149, #194 ) ) ;
#79 = AXIS2_PLACEMENT_3D ( 'NONE', #265, #61, #151 ) ;
#80 = AXIS2_PLACEMENT_3D ( 'NONE', #67, #42, #294 ) ;
#81 = AXIS2_PLACEMENT_3D ( 'NONE', #27, #278, #99 ) ;
#82 = ORIENTED_EDGE ( 'NONE', *, *, #259, .F. ) ;
#83 = EDGE_CURVE ( 'NONE', #241, #288, #43, .T. ) ;
#84 = EDGE_LOOP ( 'NONE', ( #233, #111, #220, #247 ) ) ;
#85 = ORIENTED_EDGE ( 'NONE', *, *, #275, .F. ) ;
#86 =( GEOMETRIC_REPRESENTATION_CONTEXT ( 3 ) GLOBAL_UNCERTAINTY_ASSIGNED_CONTEXT ( ( #141 ) ) GLOBAL_UNIT_ASSIGNED_CONTEXT ( ( #56, #106, #63 ) ) REPRESENTATION_CONTEXT ( 'NONE', 'WORKASPACE' ) );
#87 = SHAPE_DEFINITION_REPRESENTATION ( #167, #147 ) ;
#88 = EDGE_LOOP ( 'NONE', ( #225, #30, #7, #150 ) ) ;
#89 = LINE ( 'NONE', #254, #242 ) ;
#90 = CONICAL_SURFACE ( 'NONE', #126, 0.1724999999999995981, 0.7853981633974357335 ) ;
#91 = FACE_OUTER_BOUND ( 'NONE', #184, .T. ) ;
#92 = ORIENTED_EDGE ( 'NONE', *, *, #97, .T. ) ;
#93 = DIRECTION ( 'NONE',  ( -1.224646799147353207E-16, -0.0000000000000000000, -1.000000000000000000 ) ) ;
#94 = VECTOR ( 'NONE', #146, 39.37007874015748854 ) ;
#95 = CARTESIAN_POINT ( 'NONE',  ( -0.1724999999999995981, 0.0000000000000000000, 2.500000000000000000 ) ) ;
#96 = DIRECTION ( 'NONE',  ( 0.0000000000000000000, 0.0000000000000000000, 1.000000000000000000 ) ) ;
#97 = EDGE_CURVE ( 'NONE', #127, #286, #89, .T. ) ;
#98 = AXIS2_PLACEMENT_3D ( 'NONE', #279, #256, #235 ) ;
#99 = DIRECTION ( 'NONE',  ( 1.000000000000000000, 0.0000000000000000000, 0.0000000000000000000 ) ) ;
#100 = LINE ( 'NONE', #195, #94 ) ;
#101 = PRESENTATION_STYLE_ASSIGNMENT (( #287 ) ) ;
#102 =( LENGTH_UNIT ( ) NAMED_UNIT ( * ) SI_UNIT ( $, .METRE. ) );
#103 = CONICAL_SURFACE ( 'NONE', #198, 0.1873125000000000207, 0.1745329251994338915 ) ;
#104 = COLOUR_RGB ( '',0.7921568627450980005, 0.8196078431372548767, 0.9333333333333333481 ) ;
#105 = APPLICATION_CONTEXT ( 'automotive_design' ) ;
#106 =( NAMED_UNIT ( * ) PLANE_ANGLE_UNIT ( ) SI_UNIT ( $, .RADIAN. ) );
#107 = ORIENTED_EDGE ( 'NONE', *, *, #46, .T. ) ;
#108 =( CONVERSION_BASED_UNIT ( 'INCH', #285 ) LENGTH_UNIT ( ) NAMED_UNIT ( #23 ) );
#109 = ORIENTED_EDGE ( 'NONE', *, *, #159, .F. ) ;
#110 = AXIS2_PLACEMENT_3D ( 'NONE', #239, #29, #37 ) ;
#111 = ORIENTED_EDGE ( 'NONE', *, *, #19, .T. ) ;
#112 = CARTESIAN_POINT ( 'NONE',  ( 0.0000000000000000000, 0.0000000000000000000, 2.500000000000000000 ) ) ;
#113 = CARTESIAN_POINT ( 'NONE',  ( -0.1724999999999995981, 0.0000000000000000000, 2.500000000000000000 ) ) ;
#114 = AXIS2_PLACEMENT_3D ( 'NONE', #253, #219, #238 ) ;
#115 = VECTOR ( 'NONE', #93, 39.37007874015748143 ) ;
#116 = CARTESIAN_POINT ( 'NONE',  ( 0.0000000000000000000, 0.0000000000000000000, 0.0000000000000000000 ) ) ;
#117 = CARTESIAN_POINT ( 'NONE',  ( 1.072868196215332272E-16, 0.0000000000000000000, 0.8760633653411783461 ) ) ;
#118 = ORIENTED_EDGE ( 'NONE', *, *, #128, .T. ) ;
#119 = DIMENSIONAL_EXPONENTS ( 1.000000000000000000, 0.0000000000000000000, 0.0000000000000000000, 0.0000000000000000000, 0.0000000000000000000, 0.0000000000000000000, 0.0000000000000000000 ) ;
#120 = CARTESIAN_POINT ( 'NONE',  ( 0.0000000000000000000, 0.0000000000000000000, 0.0000000000000000000 ) ) ;
#121 = CARTESIAN_POINT ( 'NONE',  ( 0.0000000000000000000, 0.0000000000000000000, 2.500000000000000000 ) ) ;
#122 = DIRECTION ( 'NONE',  ( 0.0000000000000000000, 0.0000000000000000000, -1.000000000000000000 ) ) ;
#123 = LINE ( 'NONE', #218, #298 ) ;
#124 = ORIENTED_EDGE ( 'NONE', *, *, #159, .T. ) ;
#125 = CARTESIAN_POINT ( 'NONE',  ( -0.1873124999999999929, 0.0000000000000000000, 4.587833071305771192E-17 ) ) ;
#126 = AXIS2_PLACEMENT_3D ( 'NONE', #144, #122, #217 ) ;
#127 = VERTEX_POINT ( 'NONE', #16 ) ;
#128 = EDGE_CURVE ( 'NONE', #13, #241, #299, .T. ) ;
#129 = VERTEX_POINT ( 'NONE', #269 ) ;
#130 = ORIENTED_EDGE ( 'NONE', *, *, #138, .F. ) ;
#131 = VECTOR ( 'NONE', #26, 39.37007874015747433 ) ;
#132 = CARTESIAN_POINT ( 'NONE',  ( 0.0000000000000000000, 0.0000000000000000000, 2.484999999999999432 ) ) ;
#133 = EDGE_CURVE ( 'NONE', #127, #227, #281, .T. ) ;
#134 = CARTESIAN_POINT ( 'NONE',  ( 0.1875000000000000278, 2.296212748401287726E-17, 2.484999999999999432 ) ) ;
#135 = CARTESIAN_POINT ( 'NONE',  ( 1.071565949253934025E-16, 0.0000000000000000000, 0.8750000000000000000 ) ) ;
#136 = AXIS2_PLACEMENT_3D ( 'NONE', #157, #251, #18 ) ;
#137 = DIRECTION ( 'NONE',  ( -0.0000000000000000000, -0.0000000000000000000, -1.000000000000000000 ) ) ;
#138 = EDGE_CURVE ( 'NONE', #57, #288, #213, .T. ) ;
#139 = ORIENTED_EDGE ( 'NONE', *, *, #197, .F. ) ;
#140 = FACE_OUTER_BOUND ( 'NONE', #36, .T. ) ;
#141 = UNCERTAINTY_MEASURE_WITH_UNIT (LENGTH_MEASURE( 1.000000000000000082E-05 ), #56, 'distance_accuracy_value', 'NONE');
#142 = DIRECTION ( 'NONE',  ( -1.224646799147353207E-16, -0.0000000000000000000, -1.000000000000000000 ) ) ;
#143 = DIRECTION ( 'NONE',  ( 0.0000000000000000000, 0.0000000000000000000, -1.000000000000000000 ) ) ;
#144 = CARTESIAN_POINT ( 'NONE',  ( 0.0000000000000000000, 0.0000000000000000000, 2.500000000000000000 ) ) ;
#145 = SURFACE_STYLE_FILL_AREA ( #234 ) ;
#146 = DIRECTION ( 'NONE',  ( 0.7071067811865385799, 8.659560562354823157E-17, -0.7071067811865563435 ) ) ;
#147 = ADVANCED_BREP_SHAPE_REPRESENTATION ( 'Micro_GEM-375-2', ( #173, #79 ), #86 ) ;
#148 = ORIENTED_EDGE ( 'NONE', *, *, #19, .F. ) ;
#149 = ADVANCED_FACE ( 'NONE', ( #271 ), #160, .T. ) ;
#150 = ORIENTED_EDGE ( 'NONE', *, *, #72, .F. ) ;
#151 = DIRECTION ( 'NONE',  ( 1.000000000000000000, 0.0000000000000000000, 0.0000000000000000000 ) ) ;
#152 = ADVANCED_FACE ( 'NONE', ( #77 ), #90, .T. ) ;
#153 = EDGE_LOOP ( 'NONE', ( #107, #38, #85, #54 ) ) ;
#154 = DIRECTION ( 'NONE',  ( 0.0000000000000000000, 0.0000000000000000000, 1.000000000000000000 ) ) ;
#155 = ORIENTED_EDGE ( 'NONE', *, *, #264, .T. ) ;
#156 = AXIS2_PLACEMENT_3D ( 'NONE', #120, #168, #193 ) ;
#157 = CARTESIAN_POINT ( 'NONE',  ( 0.0000000000000000000, 0.0000000000000000000, 2.500000000000000000 ) ) ;
#158 = AXIS2_PLACEMENT_3D ( 'NONE', #224, #263, #53 ) ;
#159 = EDGE_CURVE ( 'NONE', #268, #286, #17, .T. ) ;
#160 = CYLINDRICAL_SURFACE ( 'NONE', #114, 0.1873124999999999929 ) ;
#161 = DIRECTION ( 'NONE',  ( 0.1736481776669313859, 0.0000000000000000000, 0.9848077530122077983 ) ) ;
#162 = PRODUCT ( 'Micro_GEM-375-2', 'Micro_GEM-375-2', '', ( #201 ) ) ;
#163 = ADVANCED_FACE ( 'NONE', ( #140 ), #65, .T. ) ;
#164 = DIRECTION ( 'NONE',  ( -1.224646799147353207E-16, -0.0000000000000000000, -1.000000000000000000 ) ) ;
#165 = DIRECTION ( 'NONE',  ( -0.0000000000000000000, -0.0000000000000000000, -1.000000000000000000 ) ) ;
#166 = DIRECTION ( 'NONE',  ( 1.000000000000000000, 0.0000000000000000000, 0.0000000000000000000 ) ) ;
#167 = PRODUCT_DEFINITION_SHAPE ( 'NONE', 'NONE',  #289 ) ;
#168 = DIRECTION ( 'NONE',  ( 0.0000000000000000000, 0.0000000000000000000, 1.000000000000000000 ) ) ;
#169 = APPLICATION_CONTEXT ( 'automotive_design' ) ;
#170 = AXIS2_PLACEMENT_3D ( 'NONE', #229, #165, #15 ) ;
#171 = CIRCLE ( 'NONE', #110, 0.1873125000000000207 ) ;
#172 = CARTESIAN_POINT ( 'NONE',  ( 1.071565949253934025E-16, 0.0000000000000000000, 0.8750000000000000000 ) ) ;
#173 = MANIFOLD_SOLID_BREP ( 'Cut-Revolve1', #78 ) ;
#174 = CARTESIAN_POINT ( 'NONE',  ( 0.0000000000000000000, 0.0000000000000000000, 2.500000000000000000 ) ) ;
#175 = PLANE ( 'NONE',  #156 ) ;
#176 = CIRCLE ( 'NONE', #158, 0.1875000000000000278 ) ;
#177 = EDGE_LOOP ( 'NONE', ( #203, #124 ) ) ;
#178 = DIRECTION ( 'NONE',  ( 1.000000000000000000, 0.0000000000000000000, 0.0000000000000000000 ) ) ;
#179 = EDGE_LOOP ( 'NONE', ( #82, #59, #39, #189 ) ) ;
#180 = STYLED_ITEM ( 'NONE', ( #101 ), #147 ) ;
#181 =( LENGTH_UNIT ( ) NAMED_UNIT ( * ) SI_UNIT ( $, .METRE. ) );
#182 = EDGE_LOOP ( 'NONE', ( #148, #155, #92, #109 ) ) ;
#183 = ADVANCED_FACE ( 'NONE', ( #191 ), #103, .T. ) ;
#184 = EDGE_LOOP ( 'NONE', ( #62, #205 ) ) ;
#185 = AXIS2_PLACEMENT_3D ( 'NONE', #117, #164, #248 ) ;
#186 = ORIENTED_EDGE ( 'NONE', *, *, #14, .F. ) ;
#187 = DIRECTION ( 'NONE',  ( -1.000000000000000000, 0.0000000000000000000, 0.0000000000000000000 ) ) ;
#188 = CYLINDRICAL_SURFACE ( 'NONE', #66, 0.1873124999999999929 ) ;
#189 = ORIENTED_EDGE ( 'NONE', *, *, #128, .F. ) ;
#190 = CARTESIAN_POINT ( 'NONE',  ( 2.809237542898491532E-33, 0.0000000000000000000, 2.293916535652885596E-17 ) ) ;
#191 = FACE_OUTER_BOUND ( 'NONE', #88, .T. ) ;
#192 = LINE ( 'NONE', #237, #131 ) ;
#193 = DIRECTION ( 'NONE',  ( 1.000000000000000000, 0.0000000000000000000, -0.0000000000000000000 ) ) ;
#194 = ADVANCED_FACE ( 'NONE', ( #1 ), #175, .F. ) ;
#195 = CARTESIAN_POINT ( 'NONE',  ( 0.1724999999999995981, 2.112515728529179297E-17, 2.500000000000000000 ) ) ;
#196 = SURFACE_SIDE_STYLE ('',( #34 ) ) ;
#197 = EDGE_CURVE ( 'NONE', #13, #129, #60, .T. ) ;
#198 = AXIS2_PLACEMENT_3D ( 'NONE', #172, #280, #166 ) ;
#199 = ORIENTED_EDGE ( 'NONE', *, *, #138, .T. ) ;
#200 = EDGE_CURVE ( 'NONE', #286, #268, #270, .T. ) ;
#201 = PRODUCT_CONTEXT ( 'NONE', #105, 'mechanical' ) ;
#202 =( GEOMETRIC_REPRESENTATION_CONTEXT ( 3 ) GLOBAL_UNCERTAINTY_ASSIGNED_CONTEXT ( ( #273 ) ) GLOBAL_UNIT_ASSIGNED_CONTEXT ( ( #108, #10, #31 ) ) REPRESENTATION_CONTEXT ( 'NONE', 'WORKASPACE' ) );
#203 = ORIENTED_EDGE ( 'NONE', *, *, #200, .T. ) ;
#204 = ADVANCED_FACE ( 'NONE', ( #25 ), #276, .T. ) ;
#205 = ORIENTED_EDGE ( 'NONE', *, *, #259, .T. ) ;
#206 = CARTESIAN_POINT ( 'NONE',  ( -0.1875000000000000278, 0.0000000000000000000, 2.500000000000000000 ) ) ;
#207 = FACE_OUTER_BOUND ( 'NONE', #153, .T. ) ;
#208 = EDGE_CURVE ( 'NONE', #127, #288, #192, .T. ) ;
#209 = AXIS2_PLACEMENT_3D ( 'NONE', #132, #249, #211 ) ;
#210 = FACE_OUTER_BOUND ( 'NONE', #212, .T. ) ;
#211 = DIRECTION ( 'NONE',  ( 1.000000000000000000, 0.0000000000000000000, 0.0000000000000000000 ) ) ;
#212 = EDGE_LOOP ( 'NONE', ( #266, #223, #240, #130 ) ) ;
#213 = CIRCLE ( 'NONE', #185, 0.1875000000000000278 ) ;
#214 = LENGTH_MEASURE_WITH_UNIT ( LENGTH_MEASURE( 0.02539999999999999897 ), #258 );
#215 = PRODUCT_DEFINITION_CONTEXT ( 'detailed design', #169, 'design' ) ;
#216 = DIRECTION ( 'NONE',  ( -1.000000000000000000, 0.0000000000000000000, 0.0000000000000000000 ) ) ;
#217 = DIRECTION ( 'NONE',  ( -1.000000000000000000, 0.0000000000000000000, 0.0000000000000000000 ) ) ;
#218 = CARTESIAN_POINT ( 'NONE',  ( 0.1875000000000000278, 2.296212748401287726E-17, 2.500000000000000000 ) ) ;
#219 = DIRECTION ( 'NONE',  ( -1.224646799147353207E-16, -0.0000000000000000000, -1.000000000000000000 ) ) ;
#220 = ORIENTED_EDGE ( 'NONE', *, *, #200, .F. ) ;
#221 = CIRCLE ( 'NONE', #75, 0.1724999999999995981 ) ;
#222 = APPLICATION_PROTOCOL_DEFINITION ( 'draft international standard', 'automotive_design', 1998, #105 ) ;
#223 = ORIENTED_EDGE ( 'NONE', *, *, #14, .T. ) ;
#224 = CARTESIAN_POINT ( 'NONE',  ( 1.072868196215332272E-16, 0.0000000000000000000, 0.8760633653411783461 ) ) ;
#225 = ORIENTED_EDGE ( 'NONE', *, *, #133, .F. ) ;
#226 = FILL_AREA_STYLE_COLOUR ( '', #104 ) ;
#227 = VERTEX_POINT ( 'NONE', #260 ) ;
#228 = CYLINDRICAL_SURFACE ( 'NONE', #170, 0.1875000000000000278 ) ;
#229 = CARTESIAN_POINT ( 'NONE',  ( 0.0000000000000000000, 0.0000000000000000000, 2.500000000000000000 ) ) ;
#230 = AXIS2_PLACEMENT_3D ( 'NONE', #174, #96, #48 ) ;
#231 = CARTESIAN_POINT ( 'NONE',  ( 0.1873124999999999929, 2.293916535652885596E-17, -2.293916535652885596E-17 ) ) ;
#232 = FACE_OUTER_BOUND ( 'NONE', #84, .T. ) ;
#233 = ORIENTED_EDGE ( 'NONE', *, *, #133, .T. ) ;
#234 = FILL_AREA_STYLE ('',( #52 ) ) ;
#235 = DIRECTION ( 'NONE',  ( -1.000000000000000000, 0.0000000000000000000, 1.224646799147352961E-16 ) ) ;
#236 = PRODUCT_RELATED_PRODUCT_CATEGORY ( 'part', '', ( #162 ) ) ;
#237 = CARTESIAN_POINT ( 'NONE',  ( -0.1873124999999999096, 2.293916535652885904E-17, 0.8750000000000000000 ) ) ;
#238 = DIRECTION ( 'NONE',  ( -1.000000000000000000, 0.0000000000000000000, 1.224646799147352961E-16 ) ) ;
#239 = CARTESIAN_POINT ( 'NONE',  ( 1.071565949253934025E-16, 0.0000000000000000000, 0.8750000000000000000 ) ) ;
#240 = ORIENTED_EDGE ( 'NONE', *, *, #83, .T. ) ;
#241 = VERTEX_POINT ( 'NONE', #51 ) ;
#242 = VECTOR ( 'NONE', #295, 39.37007874015748143 ) ;
#243 = FILL_AREA_STYLE ('',( #226 ) ) ;
#244 =( GEOMETRIC_REPRESENTATION_CONTEXT ( 3 ) GLOBAL_UNCERTAINTY_ASSIGNED_CONTEXT ( ( #73 ) ) GLOBAL_UNIT_ASSIGNED_CONTEXT ( ( #261, #6, #2 ) ) REPRESENTATION_CONTEXT ( 'NONE', 'WORKASPACE' ) );
#245 = ORIENTED_EDGE ( 'NONE', *, *, #264, .F. ) ;
#246 = CARTESIAN_POINT ( 'NONE',  ( 0.1873124999999999929, 2.293916535652885596E-17, 0.0000000000000000000 ) ) ;
#247 = ORIENTED_EDGE ( 'NONE', *, *, #97, .F. ) ;
#248 = DIRECTION ( 'NONE',  ( 1.000000000000000000, 0.0000000000000000000, 0.0000000000000000000 ) ) ;
#249 = DIRECTION ( 'NONE',  ( 0.0000000000000000000, 0.0000000000000000000, -1.000000000000000000 ) ) ;
#250 = EDGE_CURVE ( 'NONE', #12, #57, #123, .T. ) ;
#251 = DIRECTION ( 'NONE',  ( 0.0000000000000000000, 0.0000000000000000000, 1.000000000000000000 ) ) ;
#252 = MECHANICAL_DESIGN_GEOMETRIC_PRESENTATION_REPRESENTATION (  '', ( #180 ), #202 ) ;
#253 = CARTESIAN_POINT ( 'NONE',  ( 0.0000000000000000000, 0.0000000000000000000, 0.0000000000000000000 ) ) ;
#254 = CARTESIAN_POINT ( 'NONE',  ( -0.1873124999999999929, 0.0000000000000000000, 2.293916535652885596E-17 ) ) ;
#255 = EDGE_CURVE ( 'NONE', #129, #12, #100, .T. ) ;
#256 = DIRECTION ( 'NONE',  ( -1.224646799147353207E-16, -0.0000000000000000000, -1.000000000000000000 ) ) ;
#257 = PRESENTATION_LAYER_ASSIGNMENT (  '', '', ( #180 ) ) ;
#258 =( LENGTH_UNIT ( ) NAMED_UNIT ( * ) SI_UNIT ( $, .METRE. ) );
#259 = EDGE_CURVE ( 'NONE', #129, #13, #221, .T. ) ;
#260 = CARTESIAN_POINT ( 'NONE',  ( 0.1873125000000001317, 0.0000000000000000000, 0.8750000000000000000 ) ) ;
#261 =( CONVERSION_BASED_UNIT ( 'INCH', #214 ) LENGTH_UNIT ( ) NAMED_UNIT ( #119 ) );
#262 = CARTESIAN_POINT ( 'NONE',  ( -0.1874999999999999167, 0.0000000000000000000, 0.8760633653411783461 ) ) ;
#263 = DIRECTION ( 'NONE',  ( -1.224646799147353207E-16, -0.0000000000000000000, -1.000000000000000000 ) ) ;
#264 = EDGE_CURVE ( 'NONE', #227, #127, #171, .T. ) ;
#265 = CARTESIAN_POINT ( 'NONE',  ( 0.0000000000000000000, 0.0000000000000000000, 0.0000000000000000000 ) ) ;
#266 = ORIENTED_EDGE ( 'NONE', *, *, #250, .F. ) ;
#267 = CARTESIAN_POINT ( 'NONE',  ( 0.0000000000000000000, 0.0000000000000000000, 2.500000000000000000 ) ) ;
#268 = VERTEX_POINT ( 'NONE', #246 ) ;
#269 = CARTESIAN_POINT ( 'NONE',  ( 0.1724999999999995981, 2.204364238465233357E-17, 2.500000000000000000 ) ) ;
#270 = CIRCLE ( 'NONE', #98, 0.1873124999999999929 ) ;
#271 = FACE_OUTER_BOUND ( 'NONE', #182, .T. ) ;
#272 = CARTESIAN_POINT ( 'NONE',  ( 0.1875000000000000833, 2.296212748401288650E-17, 0.8760633653411783461 ) ) ;
#273 = UNCERTAINTY_MEASURE_WITH_UNIT (LENGTH_MEASURE( 1.000000000000000082E-05 ), #108, 'distance_accuracy_value', 'NONE');
#274 = DIRECTION ( 'NONE',  ( -1.224646799147353207E-16, -0.0000000000000000000, -1.000000000000000000 ) ) ;
#275 = EDGE_CURVE ( 'NONE', #288, #57, #176, .T. ) ;
#276 = CONICAL_SURFACE ( 'NONE', #290, 0.1724999999999995981, 0.7853981633974357335 ) ;
#277 = PLANE ( 'NONE',  #136 ) ;
#278 = DIRECTION ( 'NONE',  ( 1.224646799147353207E-16, 0.0000000000000000000, 1.000000000000000000 ) ) ;
#279 = CARTESIAN_POINT ( 'NONE',  ( 2.809237542898491532E-33, 0.0000000000000000000, 2.293916535652885596E-17 ) ) ;
#280 = DIRECTION ( 'NONE',  ( 1.224646799147353207E-16, 0.0000000000000000000, 1.000000000000000000 ) ) ;
#281 = CIRCLE ( 'NONE', #22, 0.1873125000000000207 ) ;
#282 = SURFACE_STYLE_USAGE ( .BOTH. , #74 ) ;
#283 = LENGTH_MEASURE_WITH_UNIT ( LENGTH_MEASURE( 0.02539999999999999897 ), #181 );
#284 = CIRCLE ( 'NONE', #80, 0.1875000000000000278 ) ;
#285 = LENGTH_MEASURE_WITH_UNIT ( LENGTH_MEASURE( 0.02539999999999999897 ), #102 );
#286 = VERTEX_POINT ( 'NONE', #125 ) ;
#287 = SURFACE_STYLE_USAGE ( .BOTH. , #196 ) ;
#288 = VERTEX_POINT ( 'NONE', #262 ) ;
#289 = PRODUCT_DEFINITION ( 'UNKNOWN', '', #70, #215 ) ;
#290 = AXIS2_PLACEMENT_3D ( 'NONE', #121, #143, #216 ) ;
#291 = APPLICATION_PROTOCOL_DEFINITION ( 'draft international standard', 'automotive_design', 1998, #169 ) ;
#292 = DIRECTION ( 'NONE',  ( -0.0000000000000000000, -0.0000000000000000000, -1.000000000000000000 ) ) ;
#293 = MECHANICAL_DESIGN_GEOMETRIC_PRESENTATION_REPRESENTATION (  '', ( #9 ), #244 ) ;
#294 = DIRECTION ( 'NONE',  ( 1.000000000000000000, 0.0000000000000000000, 0.0000000000000000000 ) ) ;
#295 = DIRECTION ( 'NONE',  ( -1.224646799147353207E-16, -0.0000000000000000000, -1.000000000000000000 ) ) ;
#296 = DIRECTION ( 'NONE',  ( -0.7071067811865385799, 0.0000000000000000000, -0.7071067811865563435 ) ) ;
#297 = DIMENSIONAL_EXPONENTS ( 1.000000000000000000, 0.0000000000000000000, 0.0000000000000000000, 0.0000000000000000000, 0.0000000000000000000, 0.0000000000000000000, 0.0000000000000000000 ) ;
#298 = VECTOR ( 'NONE', #5, 39.37007874015748143 ) ;
#299 = LINE ( 'NONE', #113, #8 ) ;
ENDSEC;
END-ISO-10303-21;
