ISO-10303-21;
HEADER;
FILE_DESCRIPTION (( 'STEP AP214' ),
    '1' );
FILE_NAME ('Micro_BMS-028-2.STEP',
    '2021-09-03T15:04:46',
    ( '' ),
    ( '' ),
    'SwSTEP 2.0',
    'SolidWorks 2020',
    '' );
FILE_SCHEMA (( 'AUTOMOTIVE_DESIGN' ));
ENDSEC;

DATA;
#1 = CARTESIAN_POINT ( 'NONE',  ( 0.0000000000000000000, 0.0000000000000000000, 0.0000000000000000000 ) ) ;
#2 = LINE ( 'NONE', #234, #202 ) ;
#3 = EDGE_CURVE ( 'NONE', #215, #65, #244, .T. ) ;
#4 = AXIS2_PLACEMENT_3D ( 'NONE', #40, #37, #132 ) ;
#5 = CARTESIAN_POINT ( 'NONE',  ( 5.143516556418885177E-18, 0.0000000000000000000, 0.04200000000000000955 ) ) ;
#6 = CARTESIAN_POINT ( 'NONE',  ( 0.0000000000000000000, 0.0000000000000000000, 1.500000000000000222 ) ) ;
#7 = AXIS2_PLACEMENT_3D ( 'NONE', #200, #165, #273 ) ;
#8 = ADVANCED_FACE ( 'NONE', ( #112 ), #289, .T. ) ;
#9 = DIRECTION ( 'NONE',  ( -1.224646799147353454E-16, -0.0000000000000000000, -1.000000000000000000 ) ) ;
#10 = DIRECTION ( 'NONE',  ( -1.000000000000000000, 0.0000000000000000000, 0.0000000000000000000 ) ) ;
#11 = CIRCLE ( 'NONE', #180, 0.01398600000000000190 ) ;
#12 = CARTESIAN_POINT ( 'NONE',  ( 0.0000000000000000000, 0.0000000000000000000, 1.485000000000000764 ) ) ;
#13 = FACE_OUTER_BOUND ( 'NONE', #155, .T. ) ;
#14 = DIRECTION ( 'NONE',  ( 0.7071067811865456854, 8.659560562354911904E-17, -0.7071067811865493491 ) ) ;
#15 = AXIS2_PLACEMENT_3D ( 'NONE', #219, #323, #94 ) ;
#16 = LENGTH_MEASURE_WITH_UNIT ( LENGTH_MEASURE( 0.02539999999999999897 ), #270 );
#17 = DIRECTION ( 'NONE',  ( 1.000000000000000000, 0.0000000000000000000, 0.0000000000000000000 ) ) ;
#18 = ORIENTED_EDGE ( 'NONE', *, *, #209, .F. ) ;
#19 = DIRECTION ( 'NONE',  ( 0.1736481776669313859, 0.0000000000000000000, 0.9848077530122077983 ) ) ;
#20 = EDGE_CURVE ( 'NONE', #179, #137, #154, .T. ) ;
#21 = ORIENTED_EDGE ( 'NONE', *, *, #271, .F. ) ;
#22 = VECTOR ( 'NONE', #120, 39.37007874015748143 ) ;
#23 = DIRECTION ( 'NONE',  ( -0.0000000000000000000, -0.0000000000000000000, -1.000000000000000000 ) ) ;
#24 = FILL_AREA_STYLE_COLOUR ( '', #310 ) ;
#25 = CARTESIAN_POINT ( 'NONE',  ( 1.712791013287488357E-18, 0.0000000000000000000, 0.01398600000000000017 ) ) ;
#26 = APPLICATION_PROTOCOL_DEFINITION ( 'draft international standard', 'automotive_design', 1998, #146 ) ;
#27 = CARTESIAN_POINT ( 'NONE',  ( 0.06250000000000000000, 7.654042494670956004E-18, 1.485000000000000764 ) ) ;
#28 = VECTOR ( 'NONE', #245, 39.37007874015747433 ) ;
#29 = CARTESIAN_POINT ( 'NONE',  ( 0.04750000000000064587, 6.735557395310482421E-18, 1.500000000000000222 ) ) ;
#30 = AXIS2_PLACEMENT_3D ( 'NONE', #196, #53, #71 ) ;
#31 = SPHERICAL_SURFACE ( 'NONE', #81, 0.01398600000000000017 ) ;
#32 = ORIENTED_EDGE ( 'NONE', *, *, #177, .T. ) ;
#33 = CARTESIAN_POINT ( 'NONE',  ( -0.01398600000000000017, 0.0000000000000000000, 1.712791013287488357E-18 ) ) ;
#34 =( GEOMETRIC_REPRESENTATION_CONTEXT ( 3 ) GLOBAL_UNCERTAINTY_ASSIGNED_CONTEXT ( ( #125 ) ) GLOBAL_UNIT_ASSIGNED_CONTEXT ( ( #248, #201, #54 ) ) REPRESENTATION_CONTEXT ( 'NONE', 'WORKASPACE' ) );
#35 = VERTEX_POINT ( 'NONE', #195 ) ;
#36 = FILL_AREA_STYLE_COLOUR ( '', #309 ) ;
#37 = DIRECTION ( 'NONE',  ( -0.0000000000000000000, -0.0000000000000000000, -1.000000000000000000 ) ) ;
#38 = ORIENTED_EDGE ( 'NONE', *, *, #3, .F. ) ;
#39 = FACE_OUTER_BOUND ( 'NONE', #114, .T. ) ;
#40 = CARTESIAN_POINT ( 'NONE',  ( 0.0000000000000000000, 0.0000000000000000000, 1.500000000000000222 ) ) ;
#41 =( CONVERSION_BASED_UNIT ( 'INCH', #16 ) LENGTH_UNIT ( ) NAMED_UNIT ( #62 ) );
#42 = VERTEX_POINT ( 'NONE', #72 ) ;
#43 = DIRECTION ( 'NONE',  ( -1.000000000000000000, 0.0000000000000000000, 1.525994741205638118E-16 ) ) ;
#44 = ORIENTED_EDGE ( 'NONE', *, *, #177, .F. ) ;
#45 = EDGE_LOOP ( 'NONE', ( #38, #136, #217, #113 ) ) ;
#46 = CARTESIAN_POINT ( 'NONE',  ( -0.06250000000000000000, 0.0000000000000000000, 1.500000000000000222 ) ) ;
#47 = ORIENTED_EDGE ( 'NONE', *, *, #288, .T. ) ;
#48 = SURFACE_STYLE_USAGE ( .BOTH. , #73 ) ;
#49 = CIRCLE ( 'NONE', #262, 0.04750000000000064587 ) ;
#50 = CARTESIAN_POINT ( 'NONE',  ( -0.06249999999999995837, 0.0000000000000000000, 0.3171365661969320349 ) ) ;
#51 =( NAMED_UNIT ( * ) SI_UNIT ( $, .STERADIAN. ) SOLID_ANGLE_UNIT ( ) );
#52 = ORIENTED_EDGE ( 'NONE', *, *, #20, .T. ) ;
#53 = DIRECTION ( 'NONE',  ( 0.0000000000000000000, 0.0000000000000000000, 1.000000000000000000 ) ) ;
#54 =( NAMED_UNIT ( * ) SI_UNIT ( $, .STERADIAN. ) SOLID_ANGLE_UNIT ( ) );
#55 = APPLICATION_CONTEXT ( 'automotive_design' ) ;
#56 = EDGE_CURVE ( 'NONE', #140, #106, #228, .T. ) ;
#57 = ADVANCED_FACE ( 'NONE', ( #203 ), #281, .T. ) ;
#58 = CONICAL_SURFACE ( 'NONE', #7, 0.01398600000000000190, 0.1745329251994338915 ) ;
#59 = FACE_OUTER_BOUND ( 'NONE', #45, .T. ) ;
#60 = CYLINDRICAL_SURFACE ( 'NONE', #171, 0.06250000000000000000 ) ;
#61 = FACE_OUTER_BOUND ( 'NONE', #258, .T. ) ;
#62 = DIMENSIONAL_EXPONENTS ( 1.000000000000000000, 0.0000000000000000000, 0.0000000000000000000, 0.0000000000000000000, 0.0000000000000000000, 0.0000000000000000000, 0.0000000000000000000 ) ;
#63 = ORIENTED_EDGE ( 'NONE', *, *, #299, .F. ) ;
#64 =( LENGTH_UNIT ( ) NAMED_UNIT ( * ) SI_UNIT ( $, .METRE. ) );
#65 = VERTEX_POINT ( 'NONE', #27 ) ;
#66 =( LENGTH_UNIT ( ) NAMED_UNIT ( * ) SI_UNIT ( $, .METRE. ) );
#67 = VECTOR ( 'NONE', #14, 39.37007874015748143 ) ;
#68 = CONICAL_SURFACE ( 'NONE', #76, 0.04750000000000064587, 0.7853981633974457255 ) ;
#69 = MECHANICAL_DESIGN_GEOMETRIC_PRESENTATION_REPRESENTATION (  '', ( #148 ), #174 ) ;
#70 = ORIENTED_EDGE ( 'NONE', *, *, #128, .T. ) ;
#71 = DIRECTION ( 'NONE',  ( 1.000000000000000000, 0.0000000000000000000, 0.0000000000000000000 ) ) ;
#72 = CARTESIAN_POINT ( 'NONE',  ( -0.06250000000000000000, 0.0000000000000000000, 1.485000000000000764 ) ) ;
#73 = SURFACE_SIDE_STYLE ('',( #95 ) ) ;
#74 = LINE ( 'NONE', #117, #210 ) ;
#75 = EDGE_LOOP ( 'NONE', ( #223, #70, #21 ) ) ;
#76 = AXIS2_PLACEMENT_3D ( 'NONE', #157, #268, #190 ) ;
#77 = LINE ( 'NONE', #324, #22 ) ;
#78 = EDGE_CURVE ( 'NONE', #162, #215, #218, .T. ) ;
#79 = AXIS2_PLACEMENT_3D ( 'NONE', #305, #254, #105 ) ;
#80 = DIRECTION ( 'NONE',  ( 1.000000000000000000, 0.0000000000000000000, 0.0000000000000000000 ) ) ;
#81 = AXIS2_PLACEMENT_3D ( 'NONE', #129, #264, #214 ) ;
#82 = EDGE_CURVE ( 'NONE', #272, #106, #221, .T. ) ;
#83 = DIRECTION ( 'NONE',  ( 1.000000000000000000, 0.0000000000000000000, 0.0000000000000000000 ) ) ;
#84 = ADVANCED_FACE ( 'NONE', ( #147 ), #58, .T. ) ;
#85 = CARTESIAN_POINT ( 'NONE',  ( 0.06250000000000004163, 7.654042494670960626E-18, 0.3171365661969320349 ) ) ;
#86 = ORIENTED_EDGE ( 'NONE', *, *, #110, .F. ) ;
#87 = DIRECTION ( 'NONE',  ( -1.000000000000000000, 0.0000000000000000000, 1.224646799147353207E-16 ) ) ;
#88 = MECHANICAL_DESIGN_GEOMETRIC_PRESENTATION_REPRESENTATION (  '', ( #108 ), #34 ) ;
#89 = UNCERTAINTY_MEASURE_WITH_UNIT (LENGTH_MEASURE( 1.000000000000000082E-05 ), #222, 'distance_accuracy_value', 'NONE');
#90 = DIRECTION ( 'NONE',  ( 0.0000000000000000000, 0.0000000000000000000, -1.000000000000000000 ) ) ;
#91 = DIMENSIONAL_EXPONENTS ( 1.000000000000000000, 0.0000000000000000000, 0.0000000000000000000, 0.0000000000000000000, 0.0000000000000000000, 0.0000000000000000000, 0.0000000000000000000 ) ;
#92 = EDGE_LOOP ( 'NONE', ( #274, #52, #189 ) ) ;
#93 = AXIS2_PLACEMENT_3D ( 'NONE', #167, #316, #17 ) ;
#94 = DIRECTION ( 'NONE',  ( -1.000000000000000000, 0.0000000000000000000, 0.0000000000000000000 ) ) ;
#95 = SURFACE_STYLE_FILL_AREA ( #220 ) ;
#96 = DIRECTION ( 'NONE',  ( 1.224646799147353207E-16, 1.000000000000000000, -0.0000000000000000000 ) ) ;
#97 = ORIENTED_EDGE ( 'NONE', *, *, #131, .T. ) ;
#98 = DIRECTION ( 'NONE',  ( -0.0000000000000000000, -0.0000000000000000000, -1.000000000000000000 ) ) ;
#99 = CIRCLE ( 'NONE', #79, 0.06250000000000000000 ) ;
#100 = AXIS2_PLACEMENT_3D ( 'NONE', #12, #90, #188 ) ;
#101 = PRODUCT ( 'Micro_BMS-028-2', 'Micro_BMS-028-2', '', ( #212 ) ) ;
#102 = PRESENTATION_LAYER_ASSIGNMENT (  '', '', ( #108 ) ) ;
#103 = DIRECTION ( 'NONE',  ( 1.224646799147353454E-16, 0.0000000000000000000, 1.000000000000000000 ) ) ;
#104 = EDGE_CURVE ( 'NONE', #162, #42, #77, .T. ) ;
#105 = DIRECTION ( 'NONE',  ( 1.000000000000000000, 0.0000000000000000000, 0.0000000000000000000 ) ) ;
#106 = VERTEX_POINT ( 'NONE', #50 ) ;
#107 = ORIENTED_EDGE ( 'NONE', *, *, #124, .T. ) ;
#108 = STYLED_ITEM ( 'NONE', ( #303 ), #173 ) ;
#109 = EDGE_CURVE ( 'NONE', #215, #162, #49, .T. ) ;
#110 = EDGE_CURVE ( 'NONE', #42, #106, #298, .T. ) ;
#111 = CYLINDRICAL_SURFACE ( 'NONE', #314, 0.01398600000000000017 ) ;
#112 = FACE_OUTER_BOUND ( 'NONE', #145, .T. ) ;
#113 = ORIENTED_EDGE ( 'NONE', *, *, #131, .F. ) ;
#114 = EDGE_LOOP ( 'NONE', ( #63, #134, #320, #207 ) ) ;
#115 = CARTESIAN_POINT ( 'NONE',  ( 0.04750000000000064587, 5.817072295950006528E-18, 1.500000000000000222 ) ) ;
#116 = CIRCLE ( 'NONE', #184, 0.06250000000000000000 ) ;
#117 = CARTESIAN_POINT ( 'NONE',  ( 0.06250000000000000000, 7.654042494670956004E-18, 1.500000000000000222 ) ) ;
#118 = LENGTH_MEASURE_WITH_UNIT ( LENGTH_MEASURE( 0.02539999999999999897 ), #64 );
#119 = ORIENTED_EDGE ( 'NONE', *, *, #226, .F. ) ;
#120 = DIRECTION ( 'NONE',  ( -0.7071067811865456854, 0.0000000000000000000, -0.7071067811865493491 ) ) ;
#121 = DIRECTION ( 'NONE',  ( 0.0000000000000000000, 1.000000000000000000, 0.0000000000000000000 ) ) ;
#122 = CIRCLE ( 'NONE', #236, 0.01398600000000000017 ) ;
#123 = AXIS2_PLACEMENT_3D ( 'NONE', #166, #241, #192 ) ;
#124 = EDGE_CURVE ( 'NONE', #65, #140, #74, .T. ) ;
#125 = UNCERTAINTY_MEASURE_WITH_UNIT (LENGTH_MEASURE( 1.000000000000000082E-05 ), #248, 'distance_accuracy_value', 'NONE');
#126 = CIRCLE ( 'NONE', #269, 0.01398600000000000017 ) ;
#127 = CARTESIAN_POINT ( 'NONE',  ( 0.0000000000000000000, 0.0000000000000000000, 1.500000000000000222 ) ) ;
#128 = EDGE_CURVE ( 'NONE', #179, #267, #122, .T. ) ;
#129 = CARTESIAN_POINT ( 'NONE',  ( 1.712791013287488357E-18, 0.0000000000000000000, 0.01398600000000000017 ) ) ;
#130 = ORIENTED_EDGE ( 'NONE', *, *, #138, .T. ) ;
#131 = EDGE_CURVE ( 'NONE', #65, #42, #116, .T. ) ;
#132 = DIRECTION ( 'NONE',  ( -1.000000000000000000, 0.0000000000000000000, 0.0000000000000000000 ) ) ;
#133 = VECTOR ( 'NONE', #312, 39.37007874015748143 ) ;
#134 = ORIENTED_EDGE ( 'NONE', *, *, #82, .T. ) ;
#135 = SPHERICAL_SURFACE ( 'NONE', #256, 0.01398600000000000017 ) ;
#136 = ORIENTED_EDGE ( 'NONE', *, *, #78, .F. ) ;
#137 = VERTEX_POINT ( 'NONE', #280 ) ;
#138 = EDGE_CURVE ( 'NONE', #35, #140, #2, .T. ) ;
#139 = DIRECTION ( 'NONE',  ( 0.0000000000000000000, 0.0000000000000000000, 1.000000000000000000 ) ) ;
#140 = VERTEX_POINT ( 'NONE', #85 ) ;
#141 = LENGTH_MEASURE_WITH_UNIT ( LENGTH_MEASURE( 0.02539999999999999897 ), #66 );
#142 = CLOSED_SHELL ( 'NONE', ( #263, #164, #277, #8, #199, #163, #206, #253, #84, #57, #252 ) ) ;
#143 = AXIS2_PLACEMENT_3D ( 'NONE', #6, #257, #153 ) ;
#144 = DIRECTION ( 'NONE',  ( 1.000000000000000000, 0.0000000000000000000, 0.0000000000000000000 ) ) ;
#145 = EDGE_LOOP ( 'NONE', ( #297, #259, #44, #185 ) ) ;
#146 = APPLICATION_CONTEXT ( 'automotive_design' ) ;
#147 = FACE_OUTER_BOUND ( 'NONE', #261, .T. ) ;
#148 = STYLED_ITEM ( 'NONE', ( #294 ), #237 ) ;
#149 = CARTESIAN_POINT ( 'NONE',  ( 1.712791013287488357E-18, 0.0000000000000000000, 0.01398600000000000017 ) ) ;
#150 = FACE_OUTER_BOUND ( 'NONE', #287, .T. ) ;
#151 = AXIS2_PLACEMENT_3D ( 'NONE', #317, #308, #83 ) ;
#152 = EDGE_LOOP ( 'NONE', ( #235, #242, #47, #160 ) ) ;
#153 = DIRECTION ( 'NONE',  ( 1.000000000000000000, 0.0000000000000000000, -0.0000000000000000000 ) ) ;
#154 = CIRCLE ( 'NONE', #247, 0.01398600000000000017 ) ;
#155 = EDGE_LOOP ( 'NONE', ( #230, #279, #156, #265 ) ) ;
#156 = ORIENTED_EDGE ( 'NONE', *, *, #271, .T. ) ;
#157 = CARTESIAN_POINT ( 'NONE',  ( 0.0000000000000000000, 0.0000000000000000000, 1.500000000000000222 ) ) ;
#158 =( NAMED_UNIT ( * ) PLANE_ANGLE_UNIT ( ) SI_UNIT ( $, .RADIAN. ) );
#159 = CIRCLE ( 'NONE', #100, 0.06250000000000000000 ) ;
#160 = ORIENTED_EDGE ( 'NONE', *, *, #311, .T. ) ;
#161 = APPLICATION_PROTOCOL_DEFINITION ( 'draft international standard', 'automotive_design', 1998, #55 ) ;
#162 = VERTEX_POINT ( 'NONE', #233 ) ;
#163 = ADVANCED_FACE ( 'NONE', ( #61 ), #183, .T. ) ;
#164 = ADVANCED_FACE ( 'NONE', ( #13 ), #111, .T. ) ;
#165 = DIRECTION ( 'NONE',  ( 1.224646799147353454E-16, 0.0000000000000000000, 1.000000000000000000 ) ) ;
#166 = CARTESIAN_POINT ( 'NONE',  ( 0.0000000000000000000, 0.0000000000000000000, 0.0000000000000000000 ) ) ;
#167 = CARTESIAN_POINT ( 'NONE',  ( 3.883802806856555380E-17, 0.0000000000000000000, 0.3171365661969320349 ) ) ;
#168 = CARTESIAN_POINT ( 'NONE',  ( 0.0000000000000000000, 0.0000000000000000000, 1.485000000000000764 ) ) ;
#169 = EDGE_LOOP ( 'NONE', ( #32, #107, #18, #86 ) ) ;
#170 = CARTESIAN_POINT ( 'NONE',  ( 1.712791013287488357E-18, 0.0000000000000000000, 0.01398600000000000017 ) ) ;
#171 = AXIS2_PLACEMENT_3D ( 'NONE', #127, #285, #10 ) ;
#172 = CARTESIAN_POINT ( 'NONE',  ( -0.01398599999999999670, 1.712791013287488357E-18, 0.04200000000000000955 ) ) ;
#173 = MANIFOLD_SOLID_BREP ( 'Fillet1', #142 ) ;
#174 =( GEOMETRIC_REPRESENTATION_CONTEXT ( 3 ) GLOBAL_UNCERTAINTY_ASSIGNED_CONTEXT ( ( #89 ) ) GLOBAL_UNIT_ASSIGNED_CONTEXT ( ( #222, #319, #51 ) ) REPRESENTATION_CONTEXT ( 'NONE', 'WORKASPACE' ) );
#175 = CARTESIAN_POINT ( 'NONE',  ( 5.143516556418885177E-18, 0.0000000000000000000, 0.04200000000000000955 ) ) ;
#176 = VECTOR ( 'NONE', #23, 39.37007874015748143 ) ;
#177 = EDGE_CURVE ( 'NONE', #42, #65, #159, .T. ) ;
#178 = DIRECTION ( 'NONE',  ( -1.000000000000000000, 0.0000000000000000000, 0.0000000000000000000 ) ) ;
#179 = VERTEX_POINT ( 'NONE', #293 ) ;
#180 = AXIS2_PLACEMENT_3D ( 'NONE', #5, #211, #182 ) ;
#181 = ORIENTED_EDGE ( 'NONE', *, *, #56, .T. ) ;
#182 = DIRECTION ( 'NONE',  ( -1.000000000000000000, 0.0000000000000000000, 0.0000000000000000000 ) ) ;
#183 = CYLINDRICAL_SURFACE ( 'NONE', #4, 0.06250000000000000000 ) ;
#184 = AXIS2_PLACEMENT_3D ( 'NONE', #168, #250, #301 ) ;
#185 = ORIENTED_EDGE ( 'NONE', *, *, #104, .F. ) ;
#186 = DIRECTION ( 'NONE',  ( -1.224646799147353454E-16, -0.0000000000000000000, -1.000000000000000000 ) ) ;
#187 = ORIENTED_EDGE ( 'NONE', *, *, #78, .T. ) ;
#188 = DIRECTION ( 'NONE',  ( 1.000000000000000000, 0.0000000000000000000, 0.0000000000000000000 ) ) ;
#189 = ORIENTED_EDGE ( 'NONE', *, *, #311, .F. ) ;
#190 = DIRECTION ( 'NONE',  ( -1.000000000000000000, 0.0000000000000000000, 0.0000000000000000000 ) ) ;
#191 = LINE ( 'NONE', #313, #232 ) ;
#192 = DIRECTION ( 'NONE',  ( 1.000000000000000000, 0.0000000000000000000, 0.0000000000000000000 ) ) ;
#193 =( GEOMETRIC_REPRESENTATION_CONTEXT ( 3 ) GLOBAL_UNCERTAINTY_ASSIGNED_CONTEXT ( ( #205 ) ) GLOBAL_UNIT_ASSIGNED_CONTEXT ( ( #41, #158, #243 ) ) REPRESENTATION_CONTEXT ( 'NONE', 'WORKASPACE' ) );
#194 = EDGE_CURVE ( 'NONE', #35, #137, #191, .T. ) ;
#195 = CARTESIAN_POINT ( 'NONE',  ( 0.01398600000000000537, 0.0000000000000000000, 0.04200000000000000955 ) ) ;
#196 = CARTESIAN_POINT ( 'NONE',  ( 0.0000000000000000000, 0.0000000000000000000, 1.500000000000000222 ) ) ;
#197 = PRODUCT_DEFINITION_CONTEXT ( 'detailed design', #55, 'design' ) ;
#198 = ORIENTED_EDGE ( 'NONE', *, *, #110, .T. ) ;
#199 = ADVANCED_FACE ( 'NONE', ( #255 ), #60, .T. ) ;
#200 = CARTESIAN_POINT ( 'NONE',  ( 5.143516556418885177E-18, 0.0000000000000000000, 0.04200000000000000955 ) ) ;
#201 =( NAMED_UNIT ( * ) PLANE_ANGLE_UNIT ( ) SI_UNIT ( $, .RADIAN. ) );
#202 = VECTOR ( 'NONE', #19, 39.37007874015748143 ) ;
#203 = FACE_OUTER_BOUND ( 'NONE', #152, .T. ) ;
#204 = DIRECTION ( 'NONE',  ( -1.000000000000000000, 0.0000000000000000000, 1.525994741205638118E-16 ) ) ;
#205 = UNCERTAINTY_MEASURE_WITH_UNIT (LENGTH_MEASURE( 1.000000000000000082E-05 ), #41, 'distance_accuracy_value', 'NONE');
#206 = ADVANCED_FACE ( 'NONE', ( #150 ), #227, .T. ) ;
#207 = ORIENTED_EDGE ( 'NONE', *, *, #138, .F. ) ;
#208 = FACE_OUTER_BOUND ( 'NONE', #75, .T. ) ;
#209 = EDGE_CURVE ( 'NONE', #106, #140, #99, .T. ) ;
#210 = VECTOR ( 'NONE', #98, 39.37007874015748143 ) ;
#211 = DIRECTION ( 'NONE',  ( -1.224646799147353454E-16, -0.0000000000000000000, -1.000000000000000000 ) ) ;
#212 = PRODUCT_CONTEXT ( 'NONE', #146, 'mechanical' ) ;
#213 = DIRECTION ( 'NONE',  ( 0.0000000000000000000, 0.0000000000000000000, -1.000000000000000000 ) ) ;
#214 = DIRECTION ( 'NONE',  ( 1.000000000000000000, 0.0000000000000000000, 0.0000000000000000000 ) ) ;
#215 = VERTEX_POINT ( 'NONE', #29 ) ;
#216 = SURFACE_STYLE_USAGE ( .BOTH. , #276 ) ;
#217 = ORIENTED_EDGE ( 'NONE', *, *, #104, .T. ) ;
#218 = CIRCLE ( 'NONE', #30, 0.04750000000000064587 ) ;
#219 = CARTESIAN_POINT ( 'NONE',  ( 0.0000000000000000000, 0.0000000000000000000, 1.500000000000000222 ) ) ;
#220 = FILL_AREA_STYLE ('',( #36 ) ) ;
#221 = LINE ( 'NONE', #172, #28 ) ;
#222 =( CONVERSION_BASED_UNIT ( 'INCH', #118 ) LENGTH_UNIT ( ) NAMED_UNIT ( #91 ) );
#223 = ORIENTED_EDGE ( 'NONE', *, *, #20, .F. ) ;
#224 = DIRECTION ( 'NONE',  ( -1.000000000000000000, 0.0000000000000000000, 1.224646799147353207E-16 ) ) ;
#225 = AXIS2_PLACEMENT_3D ( 'NONE', #149, #103, #204 ) ;
#226 = EDGE_CURVE ( 'NONE', #35, #272, #304, .T. ) ;
#227 = PLANE ( 'NONE',  #143 ) ;
#228 = CIRCLE ( 'NONE', #93, 0.06250000000000000000 ) ;
#229 = PRODUCT_DEFINITION_FORMATION_WITH_SPECIFIED_SOURCE ( 'ANY', '', #101, .NOT_KNOWN. ) ;
#230 = ORIENTED_EDGE ( 'NONE', *, *, #299, .T. ) ;
#231 = DIRECTION ( 'NONE',  ( -1.224646799147353454E-16, -0.0000000000000000000, -1.000000000000000000 ) ) ;
#232 = VECTOR ( 'NONE', #231, 39.37007874015748143 ) ;
#233 = CARTESIAN_POINT ( 'NONE',  ( -0.04750000000000064587, 0.0000000000000000000, 1.500000000000000222 ) ) ;
#234 = CARTESIAN_POINT ( 'NONE',  ( 0.01398600000000000537, 0.0000000000000000000, 0.04200000000000000955 ) ) ;
#235 = ORIENTED_EDGE ( 'NONE', *, *, #194, .F. ) ;
#236 = AXIS2_PLACEMENT_3D ( 'NONE', #25, #96, #300 ) ;
#237 = ADVANCED_BREP_SHAPE_REPRESENTATION ( 'Micro_BMS-028-2', ( #173, #123 ), #193 ) ;
#238 = SURFACE_STYLE_FILL_AREA ( #246 ) ;
#239 = DIRECTION ( 'NONE',  ( 0.0000000000000000000, -1.000000000000000000, 0.0000000000000000000 ) ) ;
#240 = DIRECTION ( 'NONE',  ( 1.224646799147353454E-16, 0.0000000000000000000, 1.000000000000000000 ) ) ;
#241 = DIRECTION ( 'NONE',  ( 0.0000000000000000000, 0.0000000000000000000, 1.000000000000000000 ) ) ;
#242 = ORIENTED_EDGE ( 'NONE', *, *, #226, .T. ) ;
#243 =( NAMED_UNIT ( * ) SI_UNIT ( $, .STERADIAN. ) SOLID_ANGLE_UNIT ( ) );
#244 = LINE ( 'NONE', #115, #67 ) ;
#245 = DIRECTION ( 'NONE',  ( -0.1736481776669311916, 2.126576849575783316E-17, 0.9848077530122080203 ) ) ;
#246 = FILL_AREA_STYLE ('',( #24 ) ) ;
#247 = AXIS2_PLACEMENT_3D ( 'NONE', #318, #239, #213 ) ;
#248 =( CONVERSION_BASED_UNIT ( 'INCH', #141 ) LENGTH_UNIT ( ) NAMED_UNIT ( #266 ) );
#249 = PRODUCT_DEFINITION_SHAPE ( 'NONE', 'NONE',  #284 ) ;
#250 = DIRECTION ( 'NONE',  ( 0.0000000000000000000, 0.0000000000000000000, -1.000000000000000000 ) ) ;
#251 = CARTESIAN_POINT ( 'NONE',  ( 0.0000000000000000000, 0.0000000000000000000, 1.500000000000000222 ) ) ;
#252 = ADVANCED_FACE ( 'NONE', ( #283 ), #31, .T. ) ;
#253 = ADVANCED_FACE ( 'NONE', ( #59 ), #68, .T. ) ;
#254 = DIRECTION ( 'NONE',  ( -1.224646799147353454E-16, -0.0000000000000000000, -1.000000000000000000 ) ) ;
#255 = FACE_OUTER_BOUND ( 'NONE', #169, .T. ) ;
#256 = AXIS2_PLACEMENT_3D ( 'NONE', #170, #121, #80 ) ;
#257 = DIRECTION ( 'NONE',  ( 0.0000000000000000000, 0.0000000000000000000, 1.000000000000000000 ) ) ;
#258 = EDGE_LOOP ( 'NONE', ( #307, #97, #198, #325 ) ) ;
#259 = ORIENTED_EDGE ( 'NONE', *, *, #3, .T. ) ;
#260 = LINE ( 'NONE', #33, #133 ) ;
#261 = EDGE_LOOP ( 'NONE', ( #291, #119, #130, #181 ) ) ;
#262 = AXIS2_PLACEMENT_3D ( 'NONE', #251, #139, #144 ) ;
#263 = ADVANCED_FACE ( 'NONE', ( #208 ), #135, .T. ) ;
#264 = DIRECTION ( 'NONE',  ( 0.0000000000000000000, 1.000000000000000000, 0.0000000000000000000 ) ) ;
#265 = ORIENTED_EDGE ( 'NONE', *, *, #288, .F. ) ;
#266 = DIMENSIONAL_EXPONENTS ( 1.000000000000000000, 0.0000000000000000000, 0.0000000000000000000, 0.0000000000000000000, 0.0000000000000000000, 0.0000000000000000000, 0.0000000000000000000 ) ;
#267 = VERTEX_POINT ( 'NONE', #290 ) ;
#268 = DIRECTION ( 'NONE',  ( 0.0000000000000000000, 0.0000000000000000000, -1.000000000000000000 ) ) ;
#269 = AXIS2_PLACEMENT_3D ( 'NONE', #292, #240, #43 ) ;
#270 =( LENGTH_UNIT ( ) NAMED_UNIT ( * ) SI_UNIT ( $, .METRE. ) );
#271 = EDGE_CURVE ( 'NONE', #137, #267, #286, .T. ) ;
#272 = VERTEX_POINT ( 'NONE', #306 ) ;
#273 = DIRECTION ( 'NONE',  ( 1.000000000000000000, 0.0000000000000000000, 0.0000000000000000000 ) ) ;
#274 = ORIENTED_EDGE ( 'NONE', *, *, #128, .F. ) ;
#275 = DIRECTION ( 'NONE',  ( -1.224646799147353454E-16, -0.0000000000000000000, -1.000000000000000000 ) ) ;
#276 = SURFACE_SIDE_STYLE ('',( #238 ) ) ;
#277 = ADVANCED_FACE ( 'NONE', ( #39 ), #302, .T. ) ;
#278 = AXIS2_PLACEMENT_3D ( 'NONE', #175, #9, #178 ) ;
#279 = ORIENTED_EDGE ( 'NONE', *, *, #194, .T. ) ;
#280 = CARTESIAN_POINT ( 'NONE',  ( 0.01398600000000000190, 1.712791013287488164E-18, 0.01398599999999999670 ) ) ;
#281 = CYLINDRICAL_SURFACE ( 'NONE', #282, 0.01398600000000000017 ) ;
#282 = AXIS2_PLACEMENT_3D ( 'NONE', #1, #275, #224 ) ;
#283 = FACE_OUTER_BOUND ( 'NONE', #92, .T. ) ;
#284 = PRODUCT_DEFINITION ( 'UNKNOWN', '', #229, #197 ) ;
#285 = DIRECTION ( 'NONE',  ( -0.0000000000000000000, -0.0000000000000000000, -1.000000000000000000 ) ) ;
#286 = CIRCLE ( 'NONE', #225, 0.01398600000000000017 ) ;
#287 = EDGE_LOOP ( 'NONE', ( #187, #295 ) ) ;
#288 = EDGE_CURVE ( 'NONE', #272, #267, #260, .T. ) ;
#289 = CONICAL_SURFACE ( 'NONE', #15, 0.04750000000000064587, 0.7853981633974457255 ) ;
#290 = CARTESIAN_POINT ( 'NONE',  ( -0.01398599999999999670, 0.0000000000000000000, 0.01398600000000000190 ) ) ;
#291 = ORIENTED_EDGE ( 'NONE', *, *, #82, .F. ) ;
#292 = CARTESIAN_POINT ( 'NONE',  ( 1.712791013287488357E-18, 0.0000000000000000000, 0.01398600000000000017 ) ) ;
#293 = CARTESIAN_POINT ( 'NONE',  ( 2.569186519931232342E-18, 0.0000000000000000000, 0.0000000000000000000 ) ) ;
#294 = PRESENTATION_STYLE_ASSIGNMENT (( #216 ) ) ;
#295 = ORIENTED_EDGE ( 'NONE', *, *, #109, .T. ) ;
#296 = PRESENTATION_LAYER_ASSIGNMENT (  '', '', ( #148 ) ) ;
#297 = ORIENTED_EDGE ( 'NONE', *, *, #109, .F. ) ;
#298 = LINE ( 'NONE', #46, #176 ) ;
#299 = EDGE_CURVE ( 'NONE', #272, #35, #11, .T. ) ;
#300 = DIRECTION ( 'NONE',  ( -1.000000000000000000, 1.224646799147353207E-16, 0.0000000000000000000 ) ) ;
#301 = DIRECTION ( 'NONE',  ( 1.000000000000000000, 0.0000000000000000000, 0.0000000000000000000 ) ) ;
#302 = CONICAL_SURFACE ( 'NONE', #151, 0.01398600000000000190, 0.1745329251994338915 ) ;
#303 = PRESENTATION_STYLE_ASSIGNMENT (( #48 ) ) ;
#304 = CIRCLE ( 'NONE', #278, 0.01398600000000000190 ) ;
#305 = CARTESIAN_POINT ( 'NONE',  ( 3.883802806856555380E-17, 0.0000000000000000000, 0.3171365661969320349 ) ) ;
#306 = CARTESIAN_POINT ( 'NONE',  ( -0.01398599999999999670, 4.683416753979223143E-18, 0.04200000000000000955 ) ) ;
#307 = ORIENTED_EDGE ( 'NONE', *, *, #124, .F. ) ;
#308 = DIRECTION ( 'NONE',  ( 1.224646799147353454E-16, 0.0000000000000000000, 1.000000000000000000 ) ) ;
#309 = COLOUR_RGB ( '',0.7921568627450980005, 0.8196078431372548767, 0.9333333333333333481 ) ;
#310 = COLOUR_RGB ( '',0.7921568627450980005, 0.8196078431372548767, 0.9333333333333333481 ) ;
#311 = EDGE_CURVE ( 'NONE', #267, #137, #126, .T. ) ;
#312 = DIRECTION ( 'NONE',  ( -1.224646799147353454E-16, -0.0000000000000000000, -1.000000000000000000 ) ) ;
#313 = CARTESIAN_POINT ( 'NONE',  ( 0.01398600000000000017, 1.712791013287488164E-18, -1.712791013287488357E-18 ) ) ;
#314 = AXIS2_PLACEMENT_3D ( 'NONE', #315, #186, #87 ) ;
#315 = CARTESIAN_POINT ( 'NONE',  ( 0.0000000000000000000, 0.0000000000000000000, 0.0000000000000000000 ) ) ;
#316 = DIRECTION ( 'NONE',  ( -1.224646799147353454E-16, -0.0000000000000000000, -1.000000000000000000 ) ) ;
#317 = CARTESIAN_POINT ( 'NONE',  ( 5.143516556418885177E-18, 0.0000000000000000000, 0.04200000000000000955 ) ) ;
#318 = CARTESIAN_POINT ( 'NONE',  ( 1.712791013287488357E-18, 0.0000000000000000000, 0.01398600000000000017 ) ) ;
#319 =( NAMED_UNIT ( * ) PLANE_ANGLE_UNIT ( ) SI_UNIT ( $, .RADIAN. ) );
#320 = ORIENTED_EDGE ( 'NONE', *, *, #209, .T. ) ;
#321 = SHAPE_DEFINITION_REPRESENTATION ( #249, #237 ) ;
#322 = PRODUCT_RELATED_PRODUCT_CATEGORY ( 'part', '', ( #101 ) ) ;
#323 = DIRECTION ( 'NONE',  ( 0.0000000000000000000, 0.0000000000000000000, -1.000000000000000000 ) ) ;
#324 = CARTESIAN_POINT ( 'NONE',  ( -0.04750000000000064587, 0.0000000000000000000, 1.500000000000000222 ) ) ;
#325 = ORIENTED_EDGE ( 'NONE', *, *, #56, .F. ) ;
ENDSEC;
END-ISO-10303-21;
