ISO-10303-21;
HEADER;
FILE_DESCRIPTION (( 'STEP AP214' ),
    '1' );
FILE_NAME ('Micro_SPD-250-120.STEP',
    '2021-09-03T21:20:29',
    ( '' ),
    ( '' ),
    'SwSTEP 2.0',
    'SolidWorks 2020',
    '' );
FILE_SCHEMA (( 'AUTOMOTIVE_DESIGN' ));
ENDSEC;

DATA;
#1 = DIRECTION ( 'NONE',  ( 1.000000000000000000, 0.0000000000000000000, -0.0000000000000000000 ) ) ;
#2 = ORIENTED_EDGE ( 'NONE', *, *, #300, .F. ) ;
#3 = MANIFOLD_SOLID_BREP ( 'Cut-Revolve2', #135 ) ;
#4 = EDGE_CURVE ( 'NONE', #129, #248, #172, .T. ) ;
#5 = FACE_OUTER_BOUND ( 'NONE', #227, .T. ) ;
#6 = ORIENTED_EDGE ( 'NONE', *, *, #182, .F. ) ;
#7 = VECTOR ( 'NONE', #299, 39.37007874015748143 ) ;
#8 = CARTESIAN_POINT ( 'NONE',  ( 0.0000000000000000000, 0.0000000000000000000, 0.7500499999999999945 ) ) ;
#9 = ORIENTED_EDGE ( 'NONE', *, *, #141, .T. ) ;
#10 = LINE ( 'NONE', #316, #287 ) ;
#11 = CARTESIAN_POINT ( 'NONE',  ( 0.0000000000000000000, 0.0000000000000000000, 2.500000000000000000 ) ) ;
#12 = CIRCLE ( 'NONE', #315, 0.02149999999999999481 ) ;
#13 = COLOUR_RGB ( '',0.7921568627450980005, 0.8196078431372548767, 0.9333333333333333481 ) ;
#14 = SURFACE_STYLE_USAGE ( .BOTH. , #138 ) ;
#15 = CARTESIAN_POINT ( 'NONE',  ( -0.1249500000000001304, 1.530196175534619251E-17, 0.7500000000000001110 ) ) ;
#16 = APPLICATION_PROTOCOL_DEFINITION ( 'draft international standard', 'automotive_design', 1998, #26 ) ;
#17 = CYLINDRICAL_SURFACE ( 'NONE', #274, 0.1249500000000000749 ) ;
#18 = DIRECTION ( 'NONE',  ( -0.0000000000000000000, -0.0000000000000000000, -1.000000000000000000 ) ) ;
#19 = PLANE ( 'NONE',  #333 ) ;
#20 = DIRECTION ( 'NONE',  ( 0.0000000000000000000, 0.0000000000000000000, -1.000000000000000000 ) ) ;
#21 = EDGE_CURVE ( 'NONE', #226, #301, #10, .T. ) ;
#22 = CARTESIAN_POINT ( 'NONE',  ( 0.0000000000000000000, 0.0000000000000000000, 2.500000000000000000 ) ) ;
#23 = CIRCLE ( 'NONE', #94, 0.1100000000000002087 ) ;
#24 = EDGE_CURVE ( 'NONE', #80, #243, #337, .T. ) ;
#25 = FACE_OUTER_BOUND ( 'NONE', #104, .T. ) ;
#26 = APPLICATION_CONTEXT ( 'automotive_design' ) ;
#27 = ORIENTED_EDGE ( 'NONE', *, *, #300, .T. ) ;
#28 = STYLED_ITEM ( 'NONE', ( #109 ), #3 ) ;
#29 = DIRECTION ( 'NONE',  ( -0.7071067811865507924, 0.0000000000000000000, -0.7071067811865443531 ) ) ;
#30 = ORIENTED_EDGE ( 'NONE', *, *, #4, .F. ) ;
#31 = EDGE_CURVE ( 'NONE', #330, #248, #347, .T. ) ;
#32 = ORIENTED_EDGE ( 'NONE', *, *, #123, .F. ) ;
#33 = AXIS2_PLACEMENT_3D ( 'NONE', #244, #311, #335 ) ;
#34 = VERTEX_POINT ( 'NONE', #260 ) ;
#35 = PRODUCT_RELATED_PRODUCT_CATEGORY ( 'part', '', ( #184 ) ) ;
#36 = PRODUCT_DEFINITION_SHAPE ( 'NONE', 'NONE',  #246 ) ;
#37 = ORIENTED_EDGE ( 'NONE', *, *, #280, .F. ) ;
#38 = CIRCLE ( 'NONE', #75, 0.1250000000000000555 ) ;
#39 = CARTESIAN_POINT ( 'NONE',  ( 0.0000000000000000000, 0.0000000000000000000, 0.7500499999999999945 ) ) ;
#40 = DIRECTION ( 'NONE',  ( -0.0000000000000000000, -0.0000000000000000000, -1.000000000000000000 ) ) ;
#41 = AXIS2_PLACEMENT_3D ( 'NONE', #11, #252, #83 ) ;
#42 = DIRECTION ( 'NONE',  ( 1.000000000000000000, 0.0000000000000000000, 0.0000000000000000000 ) ) ;
#43 = DIRECTION ( 'NONE',  ( 1.000000000000000000, 0.0000000000000000000, 0.0000000000000000000 ) ) ;
#44 = EDGE_CURVE ( 'NONE', #103, #248, #112, .T. ) ;
#45 = CARTESIAN_POINT ( 'NONE',  ( -0.02149999999999999481, 2.632990618166808958E-18, 0.0000000000000000000 ) ) ;
#46 = DIRECTION ( 'NONE',  ( -0.0000000000000000000, -0.0000000000000000000, -1.000000000000000000 ) ) ;
#47 = AXIS2_PLACEMENT_3D ( 'NONE', #61, #179, #149 ) ;
#48 = EDGE_CURVE ( 'NONE', #349, #245, #238, .T. ) ;
#49 = CARTESIAN_POINT ( 'NONE',  ( 0.1249500000000000749, 1.530196175534618635E-17, 0.0000000000000000000 ) ) ;
#50 = ORIENTED_EDGE ( 'NONE', *, *, #137, .F. ) ;
#51 = ORIENTED_EDGE ( 'NONE', *, *, #81, .T. ) ;
#52 = DIRECTION ( 'NONE',  ( 0.0000000000000000000, 0.0000000000000000000, 1.000000000000000000 ) ) ;
#53 = EDGE_LOOP ( 'NONE', ( #50, #331, #74, #308 ) ) ;
#54 = ORIENTED_EDGE ( 'NONE', *, *, #207, .T. ) ;
#55 = EDGE_LOOP ( 'NONE', ( #163, #71, #169, #78 ) ) ;
#56 = AXIS2_PLACEMENT_3D ( 'NONE', #213, #46, #321 ) ;
#57 = ADVANCED_FACE ( 'NONE', ( #108 ), #17, .T. ) ;
#58 = EDGE_LOOP ( 'NONE', ( #279, #51, #223, #132 ) ) ;
#59 = AXIS2_PLACEMENT_3D ( 'NONE', #134, #102, #127 ) ;
#60 = DIRECTION ( 'NONE',  ( -0.0000000000000000000, -0.0000000000000000000, -1.000000000000000000 ) ) ;
#61 = CARTESIAN_POINT ( 'NONE',  ( 0.0000000000000000000, 0.0000000000000000000, 2.500000000000000000 ) ) ;
#62 = DIRECTION ( 'NONE',  ( -1.000000000000000000, 0.0000000000000000000, 0.0000000000000000000 ) ) ;
#63 = ADVANCED_FACE ( 'NONE', ( #203 ), #99, .T. ) ;
#64 = AXIS2_PLACEMENT_3D ( 'NONE', #198, #338, #314 ) ;
#65 = CARTESIAN_POINT ( 'NONE',  ( -0.1249500000000001304, 1.530502337234405688E-17, 0.7500000000000001110 ) ) ;
#66 = CARTESIAN_POINT ( 'NONE',  ( 0.1250000000000000555, 1.530808498934192125E-17, 2.500000000000000000 ) ) ;
#67 = DIMENSIONAL_EXPONENTS ( 1.000000000000000000, 0.0000000000000000000, 0.0000000000000000000, 0.0000000000000000000, 0.0000000000000000000, 0.0000000000000000000, 0.0000000000000000000 ) ;
#68 = CARTESIAN_POINT ( 'NONE',  ( -0.1249500000000000194, 0.0000000000000000000, 0.05972688534766642382 ) ) ;
#69 = DIRECTION ( 'NONE',  ( 0.0000000000000000000, 0.0000000000000000000, 1.000000000000000000 ) ) ;
#70 = CONICAL_SURFACE ( 'NONE', #170, 0.1100000000000002087, 0.7853981633974528309 ) ;
#71 = ORIENTED_EDGE ( 'NONE', *, *, #111, .T. ) ;
#72 = ADVANCED_FACE ( 'NONE', ( #25 ), #258, .T. ) ;
#73 = DIRECTION ( 'NONE',  ( 1.000000000000000000, 0.0000000000000000000, 0.0000000000000000000 ) ) ;
#74 = ORIENTED_EDGE ( 'NONE', *, *, #44, .T. ) ;
#75 = AXIS2_PLACEMENT_3D ( 'NONE', #8, #79, #130 ) ;
#76 = DIRECTION ( 'NONE',  ( 0.0000000000000000000, 0.0000000000000000000, 1.000000000000000000 ) ) ;
#77 = CARTESIAN_POINT ( 'NONE',  ( 0.02149999999999999481, 0.0000000000000000000, 0.0000000000000000000 ) ) ;
#78 = ORIENTED_EDGE ( 'NONE', *, *, #193, .F. ) ;
#79 = DIRECTION ( 'NONE',  ( -0.0000000000000000000, -0.0000000000000000000, -1.000000000000000000 ) ) ;
#80 = VERTEX_POINT ( 'NONE', #68 ) ;
#81 = EDGE_CURVE ( 'NONE', #349, #80, #148, .T. ) ;
#82 = SURFACE_STYLE_FILL_AREA ( #313 ) ;
#83 = DIRECTION ( 'NONE',  ( -1.000000000000000000, 0.0000000000000000000, 0.0000000000000000000 ) ) ;
#84 = ORIENTED_EDGE ( 'NONE', *, *, #346, .F. ) ;
#85 = DIRECTION ( 'NONE',  ( -0.7071067811865551223, 8.659560562355026535E-17, 0.7071067811865398012 ) ) ;
#86 = ADVANCED_FACE ( 'NONE', ( #117 ), #196, .T. ) ;
#87 = ORIENTED_EDGE ( 'NONE', *, *, #297, .F. ) ;
#88 = AXIS2_PLACEMENT_3D ( 'NONE', #214, #320, #181 ) ;
#89 = DIRECTION ( 'NONE',  ( -1.000000000000000000, 0.0000000000000000000, 0.0000000000000000000 ) ) ;
#90 = CARTESIAN_POINT ( 'NONE',  ( 0.0000000000000000000, 0.0000000000000000000, 2.485000000000000320 ) ) ;
#91 = PRODUCT_DEFINITION_CONTEXT ( 'detailed design', #302, 'design' ) ;
#92 = LINE ( 'NONE', #49, #7 ) ;
#93 = AXIS2_PLACEMENT_3D ( 'NONE', #343, #116, #293 ) ;
#94 = AXIS2_PLACEMENT_3D ( 'NONE', #96, #215, #235 ) ;
#95 = DIRECTION ( 'NONE',  ( -1.000000000000000000, 0.0000000000000000000, 0.0000000000000000000 ) ) ;
#96 = CARTESIAN_POINT ( 'NONE',  ( 0.0000000000000000000, 0.0000000000000000000, 2.500000000000000000 ) ) ;
#97 = DIRECTION ( 'NONE',  ( -0.0000000000000000000, -0.0000000000000000000, -1.000000000000000000 ) ) ;
#98 = LENGTH_MEASURE_WITH_UNIT ( LENGTH_MEASURE( 0.02539999999999999897 ), #269 );
#99 = CONICAL_SURFACE ( 'NONE', #47, 0.1100000000000002087, 0.7853981633974528309 ) ;
#100 = ORIENTED_EDGE ( 'NONE', *, *, #21, .T. ) ;
#101 =( CONVERSION_BASED_UNIT ( 'INCH', #98 ) LENGTH_UNIT ( ) NAMED_UNIT ( #67 ) );
#102 = DIRECTION ( 'NONE',  ( 0.0000000000000000000, 0.0000000000000000000, 1.000000000000000000 ) ) ;
#103 = VERTEX_POINT ( 'NONE', #295 ) ;
#104 = EDGE_LOOP ( 'NONE', ( #278, #272, #334, #188 ) ) ;
#105 = AXIS2_PLACEMENT_3D ( 'NONE', #340, #69, #43 ) ;
#106 = ORIENTED_EDGE ( 'NONE', *, *, #24, .F. ) ;
#107 =( LENGTH_UNIT ( ) NAMED_UNIT ( * ) SI_UNIT ( $, .METRE. ) );
#108 = FACE_OUTER_BOUND ( 'NONE', #55, .T. ) ;
#109 = PRESENTATION_STYLE_ASSIGNMENT (( #14 ) ) ;
#110 = AXIS2_PLACEMENT_3D ( 'NONE', #289, #40, #145 ) ;
#111 = EDGE_CURVE ( 'NONE', #220, #129, #177, .T. ) ;
#112 = LINE ( 'NONE', #336, #128 ) ;
#113 = FILL_AREA_STYLE_COLOUR ( '', #13 ) ;
#114 = DIRECTION ( 'NONE',  ( -0.0000000000000000000, -0.0000000000000000000, -1.000000000000000000 ) ) ;
#115 = STYLED_ITEM ( 'NONE', ( #291 ), #180 ) ;
#116 = DIRECTION ( 'NONE',  ( 0.0000000000000000000, 0.0000000000000000000, 1.000000000000000000 ) ) ;
#117 = FACE_OUTER_BOUND ( 'NONE', #58, .T. ) ;
#118 = EDGE_CURVE ( 'NONE', #226, #34, #23, .T. ) ;
#119 = CYLINDRICAL_SURFACE ( 'NONE', #56, 0.1250000000000000555 ) ;
#120 = CIRCLE ( 'NONE', #329, 0.1249500000000001304 ) ;
#121 = CARTESIAN_POINT ( 'NONE',  ( 0.0000000000000000000, 0.0000000000000000000, 0.7500000000000001110 ) ) ;
#122 = EDGE_CURVE ( 'NONE', #34, #226, #288, .T. ) ;
#123 = EDGE_CURVE ( 'NONE', #103, #301, #319, .T. ) ;
#124 = DIRECTION ( 'NONE',  ( -0.0000000000000000000, -0.0000000000000000000, -1.000000000000000000 ) ) ;
#125 = CARTESIAN_POINT ( 'NONE',  ( 0.0000000000000000000, 0.0000000000000000000, 0.7500000000000001110 ) ) ;
#126 = COLOUR_RGB ( '',0.7921568627450980005, 0.8196078431372548767, 0.9333333333333333481 ) ;
#127 = DIRECTION ( 'NONE',  ( 1.000000000000000000, 0.0000000000000000000, 0.0000000000000000000 ) ) ;
#128 = VECTOR ( 'NONE', #60, 39.37007874015748143 ) ;
#129 = VERTEX_POINT ( 'NONE', #65 ) ;
#130 = DIRECTION ( 'NONE',  ( 1.000000000000000000, 0.0000000000000000000, 0.0000000000000000000 ) ) ;
#131 = ORIENTED_EDGE ( 'NONE', *, *, #297, .T. ) ;
#132 = ORIENTED_EDGE ( 'NONE', *, *, #216, .F. ) ;
#133 = ADVANCED_FACE ( 'NONE', ( #265 ), #119, .T. ) ;
#134 = CARTESIAN_POINT ( 'NONE',  ( 0.0000000000000000000, 0.0000000000000000000, 0.7500000000000001110 ) ) ;
#135 = CLOSED_SHELL ( 'NONE', ( #86, #309, #286, #175, #133, #339, #204, #63, #283, #57, #72, #271 ) ) ;
#136 = VECTOR ( 'NONE', #29, 39.37007874015748143 ) ;
#137 = EDGE_CURVE ( 'NONE', #301, #330, #237, .T. ) ;
#138 = SURFACE_SIDE_STYLE ('',( #82 ) ) ;
#139 = VECTOR ( 'NONE', #85, 39.37007874015748854 ) ;
#140 = AXIS2_PLACEMENT_3D ( 'NONE', #292, #97, #322 ) ;
#141 = EDGE_CURVE ( 'NONE', #245, #349, #12, .T. ) ;
#142 = MECHANICAL_DESIGN_GEOMETRIC_PRESENTATION_REPRESENTATION (  '', ( #115 ), #218 ) ;
#143 = DIRECTION ( 'NONE',  ( -0.0000000000000000000, -0.0000000000000000000, -1.000000000000000000 ) ) ;
#144 =( NAMED_UNIT ( * ) SI_UNIT ( $, .STERADIAN. ) SOLID_ANGLE_UNIT ( ) );
#145 = DIRECTION ( 'NONE',  ( -1.000000000000000000, 0.0000000000000000000, 0.0000000000000000000 ) ) ;
#146 = DIRECTION ( 'NONE',  ( 1.000000000000000000, 0.0000000000000000000, 0.0000000000000000000 ) ) ;
#147 = VECTOR ( 'NONE', #231, 39.37007874015748143 ) ;
#148 = LINE ( 'NONE', #45, #249 ) ;
#149 = DIRECTION ( 'NONE',  ( -1.000000000000000000, 0.0000000000000000000, 0.0000000000000000000 ) ) ;
#150 = DIRECTION ( 'NONE',  ( -0.8660254037844400399, 1.060575238724908640E-16, 0.4999999999999976685 ) ) ;
#151 = CIRCLE ( 'NONE', #140, 0.1249500000000000194 ) ;
#152 = DIMENSIONAL_EXPONENTS ( 1.000000000000000000, 0.0000000000000000000, 0.0000000000000000000, 0.0000000000000000000, 0.0000000000000000000, 0.0000000000000000000, 0.0000000000000000000 ) ;
#153 =( NAMED_UNIT ( * ) SI_UNIT ( $, .STERADIAN. ) SOLID_ANGLE_UNIT ( ) );
#154 = EDGE_LOOP ( 'NONE', ( #191, #324, #131, #306 ) ) ;
#155 = CARTESIAN_POINT ( 'NONE',  ( 0.1249500000000000194, 1.530196175534618327E-17, 0.05972688534766642382 ) ) ;
#156 =( GEOMETRIC_REPRESENTATION_CONTEXT ( 3 ) GLOBAL_UNCERTAINTY_ASSIGNED_CONTEXT ( ( #259 ) ) GLOBAL_UNIT_ASSIGNED_CONTEXT ( ( #164, #256, #144 ) ) REPRESENTATION_CONTEXT ( 'NONE', 'WORKASPACE' ) );
#157 = ORIENTED_EDGE ( 'NONE', *, *, #123, .T. ) ;
#158 = PRODUCT_CONTEXT ( 'NONE', #26, 'mechanical' ) ;
#159 = CARTESIAN_POINT ( 'NONE',  ( 0.0000000000000000000, 0.0000000000000000000, 0.0000000000000000000 ) ) ;
#160 = ORIENTED_EDGE ( 'NONE', *, *, #118, .T. ) ;
#161 = APPLICATION_PROTOCOL_DEFINITION ( 'draft international standard', 'automotive_design', 1998, #302 ) ;
#162 = LINE ( 'NONE', #275, #136 ) ;
#163 = ORIENTED_EDGE ( 'NONE', *, *, #207, .F. ) ;
#164 =( CONVERSION_BASED_UNIT ( 'INCH', #199 ) LENGTH_UNIT ( ) NAMED_UNIT ( #273 ) );
#165 = ORIENTED_EDGE ( 'NONE', *, *, #280, .T. ) ;
#166 = EDGE_CURVE ( 'NONE', #301, #103, #310, .T. ) ;
#167 =( NAMED_UNIT ( * ) PLANE_ANGLE_UNIT ( ) SI_UNIT ( $, .RADIAN. ) );
#168 = CARTESIAN_POINT ( 'NONE',  ( 0.1250000000000000555, 1.530808498934192125E-17, 0.7500499999999999945 ) ) ;
#169 = ORIENTED_EDGE ( 'NONE', *, *, #346, .T. ) ;
#170 = AXIS2_PLACEMENT_3D ( 'NONE', #22, #176, #183 ) ;
#171 = LINE ( 'NONE', #195, #147 ) ;
#172 = LINE ( 'NONE', #15, #139 ) ;
#173 = SURFACE_STYLE_USAGE ( .BOTH. , #208 ) ;
#174 = ORIENTED_EDGE ( 'NONE', *, *, #4, .T. ) ;
#175 = ADVANCED_FACE ( 'NONE', ( #206 ), #70, .T. ) ;
#176 = DIRECTION ( 'NONE',  ( 0.0000000000000000000, 0.0000000000000000000, -1.000000000000000000 ) ) ;
#177 = CIRCLE ( 'NONE', #305, 0.1249500000000001304 ) ;
#178 = PRESENTATION_LAYER_ASSIGNMENT (  '', '', ( #115 ) ) ;
#179 = DIRECTION ( 'NONE',  ( 0.0000000000000000000, 0.0000000000000000000, -1.000000000000000000 ) ) ;
#180 = ADVANCED_BREP_SHAPE_REPRESENTATION ( 'Micro_SPD-250-120', ( #3, #212 ), #156 ) ;
#181 = DIRECTION ( 'NONE',  ( 1.000000000000000000, 0.0000000000000000000, 0.0000000000000000000 ) ) ;
#182 = EDGE_CURVE ( 'NONE', #220, #330, #267, .T. ) ;
#183 = DIRECTION ( 'NONE',  ( -1.000000000000000000, 0.0000000000000000000, 0.0000000000000000000 ) ) ;
#184 = PRODUCT ( 'Micro_SPD-250-120', 'Micro_SPD-250-120', '', ( #158 ) ) ;
#185 = CARTESIAN_POINT ( 'NONE',  ( 0.0000000000000000000, 0.0000000000000000000, 0.0000000000000000000 ) ) ;
#186 = CARTESIAN_POINT ( 'NONE',  ( 0.0000000000000000000, 0.0000000000000000000, 2.500000000000000000 ) ) ;
#187 = FACE_OUTER_BOUND ( 'NONE', #290, .T. ) ;
#188 = ORIENTED_EDGE ( 'NONE', *, *, #193, .T. ) ;
#189 = VECTOR ( 'NONE', #342, 39.37007874015748143 ) ;
#190 = FACE_OUTER_BOUND ( 'NONE', #201, .T. ) ;
#191 = ORIENTED_EDGE ( 'NONE', *, *, #21, .F. ) ;
#192 = DIRECTION ( 'NONE',  ( 1.000000000000000000, 0.0000000000000000000, 0.0000000000000000000 ) ) ;
#193 = EDGE_CURVE ( 'NONE', #243, #80, #151, .T. ) ;
#194 = ORIENTED_EDGE ( 'NONE', *, *, #111, .F. ) ;
#195 = CARTESIAN_POINT ( 'NONE',  ( -0.1249500000000000749, 0.0000000000000000000, 0.0000000000000000000 ) ) ;
#196 = CONICAL_SURFACE ( 'NONE', #93, 0.02149999999999999481, 1.047197551196600518 ) ;
#197 = CARTESIAN_POINT ( 'NONE',  ( -0.02149999999999999481, 8.967476186756493416E-18, 0.0000000000000000000 ) ) ;
#198 = CARTESIAN_POINT ( 'NONE',  ( 0.0000000000000000000, 0.0000000000000000000, 0.05972688534766642382 ) ) ;
#199 = LENGTH_MEASURE_WITH_UNIT ( LENGTH_MEASURE( 0.02539999999999999897 ), #107 );
#200 = UNCERTAINTY_MEASURE_WITH_UNIT (LENGTH_MEASURE( 1.000000000000000082E-05 ), #101, 'distance_accuracy_value', 'NONE');
#201 = EDGE_LOOP ( 'NONE', ( #9, #328 ) ) ;
#202 = AXIS2_PLACEMENT_3D ( 'NONE', #250, #325, #73 ) ;
#203 = FACE_OUTER_BOUND ( 'NONE', #154, .T. ) ;
#204 = ADVANCED_FACE ( 'NONE', ( #264 ), #19, .T. ) ;
#205 = UNCERTAINTY_MEASURE_WITH_UNIT (LENGTH_MEASURE( 1.000000000000000082E-05 ), #255, 'distance_accuracy_value', 'NONE');
#206 = FACE_OUTER_BOUND ( 'NONE', #234, .T. ) ;
#207 = EDGE_CURVE ( 'NONE', #220, #243, #92, .T. ) ;
#208 = SURFACE_SIDE_STYLE ('',( #240 ) ) ;
#209 = CARTESIAN_POINT ( 'NONE',  ( 0.02149999999999999481, 0.0000000000000000000, 0.0000000000000000000 ) ) ;
#210 = PRESENTATION_LAYER_ASSIGNMENT (  '', '', ( #28 ) ) ;
#211 = AXIS2_PLACEMENT_3D ( 'NONE', #39, #143, #146 ) ;
#212 = AXIS2_PLACEMENT_3D ( 'NONE', #185, #76, #192 ) ;
#213 = CARTESIAN_POINT ( 'NONE',  ( 0.0000000000000000000, 0.0000000000000000000, 2.500000000000000000 ) ) ;
#214 = CARTESIAN_POINT ( 'NONE',  ( 0.0000000000000000000, 0.0000000000000000000, 2.485000000000000320 ) ) ;
#215 = DIRECTION ( 'NONE',  ( 0.0000000000000000000, 0.0000000000000000000, 1.000000000000000000 ) ) ;
#216 = EDGE_CURVE ( 'NONE', #245, #243, #262, .T. ) ;
#217 = AXIS2_PLACEMENT_3D ( 'NONE', #90, #20, #42 ) ;
#218 =( GEOMETRIC_REPRESENTATION_CONTEXT ( 3 ) GLOBAL_UNCERTAINTY_ASSIGNED_CONTEXT ( ( #200 ) ) GLOBAL_UNIT_ASSIGNED_CONTEXT ( ( #101, #345, #153 ) ) REPRESENTATION_CONTEXT ( 'NONE', 'WORKASPACE' ) );
#219 = CARTESIAN_POINT ( 'NONE',  ( 0.1249500000000001304, 0.0000000000000000000, 0.7500000000000001110 ) ) ;
#220 = VERTEX_POINT ( 'NONE', #219 ) ;
#221 = CARTESIAN_POINT ( 'NONE',  ( -0.1250000000000000555, 0.0000000000000000000, 0.7500499999999999945 ) ) ;
#222 = ORIENTED_EDGE ( 'NONE', *, *, #44, .F. ) ;
#223 = ORIENTED_EDGE ( 'NONE', *, *, #24, .T. ) ;
#224 = CONICAL_SURFACE ( 'NONE', #59, 0.1249500000000001304, 0.7853981633974591592 ) ;
#225 = PRODUCT_DEFINITION_FORMATION_WITH_SPECIFIED_SOURCE ( 'ANY', '', #184, .NOT_KNOWN. ) ;
#226 = VERTEX_POINT ( 'NONE', #247 ) ;
#227 = EDGE_LOOP ( 'NONE', ( #37, #174, #27, #6 ) ) ;
#228 =( NAMED_UNIT ( * ) SI_UNIT ( $, .STERADIAN. ) SOLID_ANGLE_UNIT ( ) );
#229 = MECHANICAL_DESIGN_GEOMETRIC_PRESENTATION_REPRESENTATION (  '', ( #28 ), #304 ) ;
#230 = AXIS2_PLACEMENT_3D ( 'NONE', #296, #318, #317 ) ;
#231 = DIRECTION ( 'NONE',  ( -0.0000000000000000000, -0.0000000000000000000, -1.000000000000000000 ) ) ;
#232 =( LENGTH_UNIT ( ) NAMED_UNIT ( * ) SI_UNIT ( $, .METRE. ) );
#233 = FACE_OUTER_BOUND ( 'NONE', #53, .T. ) ;
#234 = EDGE_LOOP ( 'NONE', ( #282, #100, #32, #87 ) ) ;
#235 = DIRECTION ( 'NONE',  ( 1.000000000000000000, 0.0000000000000000000, 0.0000000000000000000 ) ) ;
#236 = DIRECTION ( 'NONE',  ( 0.0000000000000000000, 0.0000000000000000000, 1.000000000000000000 ) ) ;
#237 = LINE ( 'NONE', #66, #189 ) ;
#238 = CIRCLE ( 'NONE', #110, 0.02149999999999999481 ) ;
#239 = CARTESIAN_POINT ( 'NONE',  ( 0.0000000000000000000, 0.0000000000000000000, 0.0000000000000000000 ) ) ;
#240 = SURFACE_STYLE_FILL_AREA ( #294 ) ;
#241 = CARTESIAN_POINT ( 'NONE',  ( 0.1249500000000001304, 0.0000000000000000000, 0.7500000000000001110 ) ) ;
#242 = DIRECTION ( 'NONE',  ( -0.0000000000000000000, -0.0000000000000000000, -1.000000000000000000 ) ) ;
#243 = VERTEX_POINT ( 'NONE', #155 ) ;
#244 = CARTESIAN_POINT ( 'NONE',  ( 0.0000000000000000000, 0.0000000000000000000, 0.0000000000000000000 ) ) ;
#245 = VERTEX_POINT ( 'NONE', #77 ) ;
#246 = PRODUCT_DEFINITION ( 'UNKNOWN', '', #225, #91 ) ;
#247 = CARTESIAN_POINT ( 'NONE',  ( 0.1100000000000002087, 1.438959988998141454E-17, 2.500000000000000000 ) ) ;
#248 = VERTEX_POINT ( 'NONE', #221 ) ;
#249 = VECTOR ( 'NONE', #150, 39.37007874015748143 ) ;
#250 = CARTESIAN_POINT ( 'NONE',  ( 0.0000000000000000000, 0.0000000000000000000, 0.7500000000000001110 ) ) ;
#251 = ORIENTED_EDGE ( 'NONE', *, *, #31, .T. ) ;
#252 = DIRECTION ( 'NONE',  ( -0.0000000000000000000, -0.0000000000000000000, -1.000000000000000000 ) ) ;
#253 = ORIENTED_EDGE ( 'NONE', *, *, #122, .T. ) ;
#254 = CYLINDRICAL_SURFACE ( 'NONE', #41, 0.1250000000000000555 ) ;
#255 =( CONVERSION_BASED_UNIT ( 'INCH', #257 ) LENGTH_UNIT ( ) NAMED_UNIT ( #152 ) );
#256 =( NAMED_UNIT ( * ) PLANE_ANGLE_UNIT ( ) SI_UNIT ( $, .RADIAN. ) );
#257 = LENGTH_MEASURE_WITH_UNIT ( LENGTH_MEASURE( 0.02539999999999999897 ), #232 );
#258 = CONICAL_SURFACE ( 'NONE', #230, 0.02149999999999999481, 1.047197551196600518 ) ;
#259 = UNCERTAINTY_MEASURE_WITH_UNIT (LENGTH_MEASURE( 1.000000000000000082E-05 ), #164, 'distance_accuracy_value', 'NONE');
#260 = CARTESIAN_POINT ( 'NONE',  ( -0.1100000000000002087, 0.0000000000000000000, 2.500000000000000000 ) ) ;
#261 = DIRECTION ( 'NONE',  ( 0.7071067811865507924, 8.659560562354973534E-17, -0.7071067811865443531 ) ) ;
#262 = LINE ( 'NONE', #209, #298 ) ;
#263 = AXIS2_PLACEMENT_3D ( 'NONE', #159, #52, #1 ) ;
#264 = FACE_OUTER_BOUND ( 'NONE', #276, .T. ) ;
#265 = FACE_OUTER_BOUND ( 'NONE', #284, .T. ) ;
#266 = CONICAL_SURFACE ( 'NONE', #202, 0.1249500000000001304, 0.7853981633974591592 ) ;
#267 = LINE ( 'NONE', #241, #281 ) ;
#268 = SHAPE_DEFINITION_REPRESENTATION ( #36, #180 ) ;
#269 =( LENGTH_UNIT ( ) NAMED_UNIT ( * ) SI_UNIT ( $, .METRE. ) );
#270 = PLANE ( 'NONE',  #263 ) ;
#271 = ADVANCED_FACE ( 'NONE', ( #190 ), #270, .F. ) ;
#272 = ORIENTED_EDGE ( 'NONE', *, *, #141, .F. ) ;
#273 = DIMENSIONAL_EXPONENTS ( 1.000000000000000000, 0.0000000000000000000, 0.0000000000000000000, 0.0000000000000000000, 0.0000000000000000000, 0.0000000000000000000, 0.0000000000000000000 ) ;
#274 = AXIS2_PLACEMENT_3D ( 'NONE', #332, #114, #89 ) ;
#275 = CARTESIAN_POINT ( 'NONE',  ( -0.1100000000000002087, 0.0000000000000000000, 2.500000000000000000 ) ) ;
#276 = EDGE_LOOP ( 'NONE', ( #253, #160 ) ) ;
#277 = FACE_OUTER_BOUND ( 'NONE', #303, .T. ) ;
#278 = ORIENTED_EDGE ( 'NONE', *, *, #81, .F. ) ;
#279 = ORIENTED_EDGE ( 'NONE', *, *, #48, .F. ) ;
#280 = EDGE_CURVE ( 'NONE', #129, #220, #120, .T. ) ;
#281 = VECTOR ( 'NONE', #344, 39.37007874015748854 ) ;
#282 = ORIENTED_EDGE ( 'NONE', *, *, #118, .F. ) ;
#283 = ADVANCED_FACE ( 'NONE', ( #277 ), #224, .T. ) ;
#284 = EDGE_LOOP ( 'NONE', ( #157, #326, #2, #222 ) ) ;
#285 = ORIENTED_EDGE ( 'NONE', *, *, #182, .T. ) ;
#286 = ADVANCED_FACE ( 'NONE', ( #5 ), #266, .T. ) ;
#287 = VECTOR ( 'NONE', #261, 39.37007874015748143 ) ;
#288 = CIRCLE ( 'NONE', #105, 0.1100000000000002087 ) ;
#289 = CARTESIAN_POINT ( 'NONE',  ( 0.0000000000000000000, 0.0000000000000000000, 0.0000000000000000000 ) ) ;
#290 = EDGE_LOOP ( 'NONE', ( #165, #54, #106, #84 ) ) ;
#291 = PRESENTATION_STYLE_ASSIGNMENT (( #173 ) ) ;
#292 = CARTESIAN_POINT ( 'NONE',  ( 0.0000000000000000000, 0.0000000000000000000, 0.05972688534766642382 ) ) ;
#293 = DIRECTION ( 'NONE',  ( 1.000000000000000000, 0.0000000000000000000, 0.0000000000000000000 ) ) ;
#294 = FILL_AREA_STYLE ('',( #113 ) ) ;
#295 = CARTESIAN_POINT ( 'NONE',  ( -0.1250000000000000555, 0.0000000000000000000, 2.485000000000000320 ) ) ;
#296 = CARTESIAN_POINT ( 'NONE',  ( 0.0000000000000000000, 0.0000000000000000000, 0.0000000000000000000 ) ) ;
#297 = EDGE_CURVE ( 'NONE', #34, #103, #162, .T. ) ;
#298 = VECTOR ( 'NONE', #348, 39.37007874015748143 ) ;
#299 = DIRECTION ( 'NONE',  ( -0.0000000000000000000, -0.0000000000000000000, -1.000000000000000000 ) ) ;
#300 = EDGE_CURVE ( 'NONE', #248, #330, #38, .T. ) ;
#301 = VERTEX_POINT ( 'NONE', #307 ) ;
#302 = APPLICATION_CONTEXT ( 'automotive_design' ) ;
#303 = EDGE_LOOP ( 'NONE', ( #30, #194, #285, #251 ) ) ;
#304 =( GEOMETRIC_REPRESENTATION_CONTEXT ( 3 ) GLOBAL_UNCERTAINTY_ASSIGNED_CONTEXT ( ( #205 ) ) GLOBAL_UNIT_ASSIGNED_CONTEXT ( ( #255, #167, #228 ) ) REPRESENTATION_CONTEXT ( 'NONE', 'WORKASPACE' ) );
#305 = AXIS2_PLACEMENT_3D ( 'NONE', #121, #124, #62 ) ;
#306 = ORIENTED_EDGE ( 'NONE', *, *, #166, .F. ) ;
#307 = CARTESIAN_POINT ( 'NONE',  ( 0.1250000000000000555, 1.530808498934192125E-17, 2.485000000000000320 ) ) ;
#308 = ORIENTED_EDGE ( 'NONE', *, *, #31, .F. ) ;
#309 = ADVANCED_FACE ( 'NONE', ( #187 ), #327, .T. ) ;
#310 = CIRCLE ( 'NONE', #88, 0.1250000000000000555 ) ;
#311 = DIRECTION ( 'NONE',  ( -0.0000000000000000000, -0.0000000000000000000, -1.000000000000000000 ) ) ;
#312 = FILL_AREA_STYLE_COLOUR ( '', #126 ) ;
#313 = FILL_AREA_STYLE ('',( #312 ) ) ;
#314 = DIRECTION ( 'NONE',  ( -1.000000000000000000, 0.0000000000000000000, 0.0000000000000000000 ) ) ;
#315 = AXIS2_PLACEMENT_3D ( 'NONE', #239, #18, #95 ) ;
#316 = CARTESIAN_POINT ( 'NONE',  ( 0.1100000000000002087, 1.347111479062090938E-17, 2.500000000000000000 ) ) ;
#317 = DIRECTION ( 'NONE',  ( 1.000000000000000000, 0.0000000000000000000, 0.0000000000000000000 ) ) ;
#318 = DIRECTION ( 'NONE',  ( 0.0000000000000000000, 0.0000000000000000000, 1.000000000000000000 ) ) ;
#319 = CIRCLE ( 'NONE', #217, 0.1250000000000000555 ) ;
#320 = DIRECTION ( 'NONE',  ( 0.0000000000000000000, 0.0000000000000000000, -1.000000000000000000 ) ) ;
#321 = DIRECTION ( 'NONE',  ( -1.000000000000000000, 0.0000000000000000000, 0.0000000000000000000 ) ) ;
#322 = DIRECTION ( 'NONE',  ( -1.000000000000000000, 0.0000000000000000000, 0.0000000000000000000 ) ) ;
#323 = DIRECTION ( 'NONE',  ( -1.000000000000000000, 0.0000000000000000000, 0.0000000000000000000 ) ) ;
#324 = ORIENTED_EDGE ( 'NONE', *, *, #122, .F. ) ;
#325 = DIRECTION ( 'NONE',  ( 0.0000000000000000000, 0.0000000000000000000, 1.000000000000000000 ) ) ;
#326 = ORIENTED_EDGE ( 'NONE', *, *, #137, .T. ) ;
#327 = CYLINDRICAL_SURFACE ( 'NONE', #33, 0.1249500000000000749 ) ;
#328 = ORIENTED_EDGE ( 'NONE', *, *, #48, .T. ) ;
#329 = AXIS2_PLACEMENT_3D ( 'NONE', #125, #242, #323 ) ;
#330 = VERTEX_POINT ( 'NONE', #168 ) ;
#331 = ORIENTED_EDGE ( 'NONE', *, *, #166, .T. ) ;
#332 = CARTESIAN_POINT ( 'NONE',  ( 0.0000000000000000000, 0.0000000000000000000, 0.0000000000000000000 ) ) ;
#333 = AXIS2_PLACEMENT_3D ( 'NONE', #186, #236, #341 ) ;
#334 = ORIENTED_EDGE ( 'NONE', *, *, #216, .T. ) ;
#335 = DIRECTION ( 'NONE',  ( -1.000000000000000000, 0.0000000000000000000, 0.0000000000000000000 ) ) ;
#336 = CARTESIAN_POINT ( 'NONE',  ( -0.1250000000000000555, 0.0000000000000000000, 2.500000000000000000 ) ) ;
#337 = CIRCLE ( 'NONE', #64, 0.1249500000000000194 ) ;
#338 = DIRECTION ( 'NONE',  ( -0.0000000000000000000, -0.0000000000000000000, -1.000000000000000000 ) ) ;
#339 = ADVANCED_FACE ( 'NONE', ( #233 ), #254, .T. ) ;
#340 = CARTESIAN_POINT ( 'NONE',  ( 0.0000000000000000000, 0.0000000000000000000, 2.500000000000000000 ) ) ;
#341 = DIRECTION ( 'NONE',  ( 1.000000000000000000, 0.0000000000000000000, -0.0000000000000000000 ) ) ;
#342 = DIRECTION ( 'NONE',  ( -0.0000000000000000000, -0.0000000000000000000, -1.000000000000000000 ) ) ;
#343 = CARTESIAN_POINT ( 'NONE',  ( 0.0000000000000000000, 0.0000000000000000000, 0.0000000000000000000 ) ) ;
#344 = DIRECTION ( 'NONE',  ( 0.7071067811865551223, 0.0000000000000000000, 0.7071067811865398012 ) ) ;
#345 =( NAMED_UNIT ( * ) PLANE_ANGLE_UNIT ( ) SI_UNIT ( $, .RADIAN. ) );
#346 = EDGE_CURVE ( 'NONE', #129, #80, #171, .T. ) ;
#347 = CIRCLE ( 'NONE', #211, 0.1250000000000000555 ) ;
#348 = DIRECTION ( 'NONE',  ( 0.8660254037844400399, 0.0000000000000000000, 0.4999999999999976685 ) ) ;
#349 = VERTEX_POINT ( 'NONE', #197 ) ;
ENDSEC;
END-ISO-10303-21;
