ISO-10303-21;
HEADER;
FILE_DESCRIPTION (( 'STEP AP214' ),
    '1' );
FILE_NAME ('03375.STEP',
    '2023-06-22T15:13:58',
    ( '' ),
    ( '' ),
    'SwSTEP 2.0',
    'SolidWorks 2023',
    '' );
FILE_SCHEMA (( 'AUTOMOTIVE_DESIGN' ));
ENDSEC;

DATA;
#1 =( CONVERSION_BASED_UNIT ( 'INCH', #233 ) LENGTH_UNIT ( ) NAMED_UNIT ( #178 ) );
#2 = DIRECTION ( 'NONE',  ( 1.000000000000000000, 2.449293598294706229E-17, 0.000000000000000000 ) ) ;
#3 = AXIS2_PLACEMENT_3D ( 'NONE', #199, #35, #196 ) ;
#4 = CYLINDRICAL_SURFACE ( 'NONE', #74, 0.1875000000000000555 ) ;
#5 = CARTESIAN_POINT ( 'NONE',  ( 0.000000000000000000, 0.000000000000000000, 0.000000000000000000 ) ) ;
#6 =( NAMED_UNIT ( * ) SI_UNIT ( $, .STERADIAN. ) SOLID_ANGLE_UNIT ( ) );
#7 = LENGTH_MEASURE_WITH_UNIT ( LENGTH_MEASURE( 0.02539999999999999897 ), #126 );
#8 = ORIENTED_EDGE ( 'NONE', *, *, #203, .T. ) ;
#9 = EDGE_CURVE ( 'NONE', #244, #156, #226, .T. ) ;
#10 = PRESENTATION_LAYER_ASSIGNMENT (  '', '', ( #39 ) ) ;
#11 = AXIS2_PLACEMENT_3D ( 'NONE', #40, #13, #250 ) ;
#12 = CARTESIAN_POINT ( 'NONE',  ( 0.1874999999999999722, 4.000000000000000000, 2.296212748401288034E-17 ) ) ;
#13 = DIRECTION ( 'NONE',  ( -2.449293598294706229E-17, 1.000000000000000000, 0.000000000000000000 ) ) ;
#14 = DIRECTION ( 'NONE',  ( -1.000000000000000000, 0.000000000000000000, 0.000000000000000000 ) ) ;
#15 = CARTESIAN_POINT ( 'NONE',  ( 0.000000000000000000, 0.000000000000000000, 0.000000000000000000 ) ) ;
#16 = DIMENSIONAL_EXPONENTS ( 1.000000000000000000, 0.000000000000000000, 0.000000000000000000, 0.000000000000000000, 0.000000000000000000, 0.000000000000000000, 0.000000000000000000 ) ;
#17 = SHAPE_DEFINITION_REPRESENTATION ( #29, #267 ) ;
#18 = DIRECTION ( 'NONE',  ( -2.449293598294706538E-17, 1.000000000000000000, -0.000000000000000000 ) ) ;
#19 = EDGE_LOOP ( 'NONE', ( #297, #127, #44, #100 ) ) ;
#20 = VECTOR ( 'NONE', #105, 39.37007874015748143 ) ;
#21 = AXIS2_PLACEMENT_3D ( 'NONE', #15, #77, #301 ) ;
#22 = CARTESIAN_POINT ( 'NONE',  ( 0.000000000000000000, 0.000000000000000000, 0.000000000000000000 ) ) ;
#23 = UNCERTAINTY_MEASURE_WITH_UNIT (LENGTH_MEASURE( 1.000000000000000082E-05 ), #192, 'distance_accuracy_value', 'NONE');
#24 = CIRCLE ( 'NONE', #169, 0.1875000000000000278 ) ;
#25 =( LENGTH_UNIT ( ) NAMED_UNIT ( * ) SI_UNIT ( $, .METRE. ) );
#26 = DIRECTION ( 'NONE',  ( -2.449293598294706538E-17, 1.000000000000000000, -0.000000000000000000 ) ) ;
#27 = UNCERTAINTY_MEASURE_WITH_UNIT (LENGTH_MEASURE( 1.000000000000000082E-05 ), #1, 'distance_accuracy_value', 'NONE');
#28 = EDGE_CURVE ( 'NONE', #156, #273, #198, .T. ) ;
#29 = PRODUCT_DEFINITION_SHAPE ( 'NONE', 'NONE',  #264 ) ;
#30 = SURFACE_SIDE_STYLE ('',( #54 ) ) ;
#31 = FILL_AREA_STYLE_COLOUR ( '', #210 ) ;
#32 = PRESENTATION_LAYER_ASSIGNMENT (  '', '', ( #150 ) ) ;
#33 = LINE ( 'NONE', #154, #142 ) ;
#34 = DIRECTION ( 'NONE',  ( 0.000000000000000000, 0.000000000000000000, 1.000000000000000000 ) ) ;
#35 = DIRECTION ( 'NONE',  ( -2.449293598294706538E-17, 1.000000000000000000, -0.000000000000000000 ) ) ;
#36 = ORIENTED_EDGE ( 'NONE', *, *, #135, .F. ) ;
#37 = ORIENTED_EDGE ( 'NONE', *, *, #203, .F. ) ;
#38 = DIRECTION ( 'NONE',  ( -0.000000000000000000, -1.000000000000000000, -0.000000000000000000 ) ) ;
#39 = STYLED_ITEM ( 'NONE', ( #207 ), #72 ) ;
#40 = CARTESIAN_POINT ( 'NONE',  ( 5.624099184981966457E-35, 1.500000000000000222, 0.000000000000000000 ) ) ;
#41 = VERTEX_POINT ( 'NONE', #235 ) ;
#42 = DIRECTION ( 'NONE',  ( -1.000000000000000000, 0.000000000000000000, 0.000000000000000000 ) ) ;
#43 = EDGE_CURVE ( 'NONE', #41, #300, #24, .T. ) ;
#44 = ORIENTED_EDGE ( 'NONE', *, *, #107, .T. ) ;
#45 = DIRECTION ( 'NONE',  ( -2.449293598294706538E-17, 1.000000000000000000, -0.000000000000000000 ) ) ;
#46 = PRESENTATION_LAYER_ASSIGNMENT (  '', '', ( #263 ) ) ;
#47 = FILL_AREA_STYLE_COLOUR ( '', #223 ) ;
#48 =( LENGTH_UNIT ( ) NAMED_UNIT ( * ) SI_UNIT ( $, .METRE. ) );
#49 =( CONVERSION_BASED_UNIT ( 'INCH', #161 ) LENGTH_UNIT ( ) NAMED_UNIT ( #16 ) );
#50 = MECHANICAL_DESIGN_GEOMETRIC_PRESENTATION_REPRESENTATION (  '', ( #218 ), #230 ) ;
#51 = CARTESIAN_POINT ( 'NONE',  ( 0.000000000000000000, 1.500000000000000222, 0.000000000000000000 ) ) ;
#52 = EDGE_CURVE ( 'NONE', #273, #156, #68, .T. ) ;
#53 = DIRECTION ( 'NONE',  ( -0.000000000000000000, -1.000000000000000000, -0.000000000000000000 ) ) ;
#54 = SURFACE_STYLE_FILL_AREA ( #266 ) ;
#55 = PLANE ( 'NONE',  #110 ) ;
#56 = MECHANICAL_DESIGN_GEOMETRIC_PRESENTATION_REPRESENTATION (  '', ( #150 ), #279 ) ;
#57 = LENGTH_MEASURE_WITH_UNIT ( LENGTH_MEASURE( 0.02539999999999999897 ), #296 );
#58 = ORIENTED_EDGE ( 'NONE', *, *, #107, .F. ) ;
#59 = CARTESIAN_POINT ( 'NONE',  ( 0.000000000000000000, 0.000000000000000000, -0.1875000000000000278 ) ) ;
#60 = ORIENTED_EDGE ( 'NONE', *, *, #28, .T. ) ;
#61 = SURFACE_SIDE_STYLE ('',( #106 ) ) ;
#62 = AXIS2_PLACEMENT_3D ( 'NONE', #5, #144, #148 ) ;
#63 = PRESENTATION_LAYER_ASSIGNMENT (  '', '', ( #308 ) ) ;
#64 = EDGE_LOOP ( 'NONE', ( #292, #83, #251, #58 ) ) ;
#65 =( CONVERSION_BASED_UNIT ( 'INCH', #57 ) LENGTH_UNIT ( ) NAMED_UNIT ( #102 ) );
#66 = ORIENTED_EDGE ( 'NONE', *, *, #135, .T. ) ;
#67 = PLANE ( 'NONE',  #71 ) ;
#68 = CIRCLE ( 'NONE', #262, 0.1875000000000000833 ) ;
#69 = PRESENTATION_LAYER_ASSIGNMENT (  '', '', ( #218 ) ) ;
#70 =( NAMED_UNIT ( * ) SI_UNIT ( $, .STERADIAN. ) SOLID_ANGLE_UNIT ( ) );
#71 = AXIS2_PLACEMENT_3D ( 'NONE', #22, #231, #188 ) ;
#72 = ADVANCED_FACE ( 'NONE', ( #116 ), #261, .T. ) ;
#73 =( NAMED_UNIT ( * ) PLANE_ANGLE_UNIT ( ) SI_UNIT ( $, .RADIAN. ) );
#74 = AXIS2_PLACEMENT_3D ( 'NONE', #287, #94, #237 ) ;
#75 = PRESENTATION_LAYER_ASSIGNMENT (  '', '', ( #146 ) ) ;
#76 = VERTEX_POINT ( 'NONE', #171 ) ;
#77 = DIRECTION ( 'NONE',  ( -0.000000000000000000, -1.000000000000000000, -0.000000000000000000 ) ) ;
#78 = EDGE_LOOP ( 'NONE', ( #185, #180 ) ) ;
#79 = DIRECTION ( 'NONE',  ( -2.449293598294706538E-17, 1.000000000000000000, -0.000000000000000000 ) ) ;
#80 = FACE_OUTER_BOUND ( 'NONE', #78, .T. ) ;
#81 = FILL_AREA_STYLE ('',( #242 ) ) ;
#82 = PRODUCT_DEFINITION_FORMATION_WITH_SPECIFIED_SOURCE ( 'ANY', '', #284, .NOT_KNOWN. ) ;
#83 = ORIENTED_EDGE ( 'NONE', *, *, #9, .T. ) ;
#84 = DIRECTION ( 'NONE',  ( -1.000000000000000000, 0.000000000000000000, 0.000000000000000000 ) ) ;
#85 = SURFACE_SIDE_STYLE ('',( #259 ) ) ;
#86 = SURFACE_STYLE_USAGE ( .BOTH. , #159 ) ;
#87 = CARTESIAN_POINT ( 'NONE',  ( -6.123233995736766036E-17, 4.000000000000000000, 0.000000000000000000 ) ) ;
#88 = AXIS2_PLACEMENT_3D ( 'NONE', #229, #34, #174 ) ;
#89 = LENGTH_MEASURE_WITH_UNIT ( LENGTH_MEASURE( 0.02539999999999999897 ), #48 );
#90 = DIRECTION ( 'NONE',  ( -0.000000000000000000, -1.000000000000000000, -0.000000000000000000 ) ) ;
#91 = COLOUR_RGB ( '',1.000000000000000000, 0.000000000000000000, 0.000000000000000000 ) ;
#92 = FACE_OUTER_BOUND ( 'NONE', #276, .T. ) ;
#93 =( LENGTH_UNIT ( ) NAMED_UNIT ( * ) SI_UNIT ( $, .METRE. ) );
#94 = DIRECTION ( 'NONE',  ( -2.449293598294706538E-17, 1.000000000000000000, -0.000000000000000000 ) ) ;
#95 = VECTOR ( 'NONE', #217, 39.37007874015748143 ) ;
#96 =( NAMED_UNIT ( * ) SI_UNIT ( $, .STERADIAN. ) SOLID_ANGLE_UNIT ( ) );
#97 =( NAMED_UNIT ( * ) PLANE_ANGLE_UNIT ( ) SI_UNIT ( $, .RADIAN. ) );
#98 = EDGE_CURVE ( 'NONE', #111, #76, #307, .T. ) ;
#99 = CARTESIAN_POINT ( 'NONE',  ( 0.1875000000000000278, 4.000000000000000000, 2.296212748401288342E-17 ) ) ;
#100 = ORIENTED_EDGE ( 'NONE', *, *, #28, .F. ) ;
#101 = AXIS2_PLACEMENT_3D ( 'NONE', #201, #79, #14 ) ;
#102 = DIMENSIONAL_EXPONENTS ( 1.000000000000000000, 0.000000000000000000, 0.000000000000000000, 0.000000000000000000, 0.000000000000000000, 0.000000000000000000, 0.000000000000000000 ) ;
#103 = CIRCLE ( 'NONE', #294, 0.1875000000000000278 ) ;
#104 =( NAMED_UNIT ( * ) SI_UNIT ( $, .STERADIAN. ) SOLID_ANGLE_UNIT ( ) );
#105 = DIRECTION ( 'NONE',  ( -2.449293598294706229E-17, 1.000000000000000000, -0.000000000000000000 ) ) ;
#106 = SURFACE_STYLE_FILL_AREA ( #81 ) ;
#107 = EDGE_CURVE ( 'NONE', #246, #273, #268, .T. ) ;
#108 = ORIENTED_EDGE ( 'NONE', *, *, #43, .F. ) ;
#109 = CARTESIAN_POINT ( 'NONE',  ( 0.1875000000000000278, 1.499999999999999778, 2.296212748401288342E-17 ) ) ;
#110 = AXIS2_PLACEMENT_3D ( 'NONE', #241, #118, #2 ) ;
#111 = VERTEX_POINT ( 'NONE', #240 ) ;
#112 = CARTESIAN_POINT ( 'NONE',  ( 0.000000000000000000, 1.500000000000000222, -0.1875000000000000278 ) ) ;
#113 =( NAMED_UNIT ( * ) PLANE_ANGLE_UNIT ( ) SI_UNIT ( $, .RADIAN. ) );
#114 =( NAMED_UNIT ( * ) SI_UNIT ( $, .STERADIAN. ) SOLID_ANGLE_UNIT ( ) );
#115 = SURFACE_STYLE_FILL_AREA ( #208 ) ;
#116 = FACE_OUTER_BOUND ( 'NONE', #130, .T. ) ;
#117 =( NAMED_UNIT ( * ) PLANE_ANGLE_UNIT ( ) SI_UNIT ( $, .RADIAN. ) );
#118 = DIRECTION ( 'NONE',  ( 2.449293598294706229E-17, -1.000000000000000000, 0.000000000000000000 ) ) ;
#119 = ADVANCED_FACE ( 'NONE', ( #220 ), #4, .T. ) ;
#120 = CARTESIAN_POINT ( 'NONE',  ( 0.000000000000000000, 0.000000000000000000, 0.000000000000000000 ) ) ;
#121 = CIRCLE ( 'NONE', #257, 0.1875000000000000278 ) ;
#122 = ADVANCED_FACE ( 'NONE', ( #288 ), #147, .T. ) ;
#123 = SURFACE_STYLE_USAGE ( .BOTH. , #30 ) ;
#124 = CIRCLE ( 'NONE', #170, 0.1875000000000000278 ) ;
#125 = ADVANCED_FACE ( 'NONE', ( #92 ), #55, .F. ) ;
#126 =( LENGTH_UNIT ( ) NAMED_UNIT ( * ) SI_UNIT ( $, .METRE. ) );
#127 = ORIENTED_EDGE ( 'NONE', *, *, #282, .T. ) ;
#128 =( GEOMETRIC_REPRESENTATION_CONTEXT ( 3 ) GLOBAL_UNCERTAINTY_ASSIGNED_CONTEXT ( ( #265 ) ) GLOBAL_UNIT_ASSIGNED_CONTEXT ( ( #49, #305, #114 ) ) REPRESENTATION_CONTEXT ( 'NONE', 'WORKASPACE' ) );
#129 = CYLINDRICAL_SURFACE ( 'NONE', #3, 0.1875000000000000555 ) ;
#130 = EDGE_LOOP ( 'NONE', ( #36, #175, #8, #158 ) ) ;
#131 = LINE ( 'NONE', #59, #285 ) ;
#132 = ORIENTED_EDGE ( 'NONE', *, *, #238, .T. ) ;
#133 = DIRECTION ( 'NONE',  ( 0.000000000000000000, 0.000000000000000000, -1.000000000000000000 ) ) ;
#134 = ORIENTED_EDGE ( 'NONE', *, *, #52, .T. ) ;
#135 = EDGE_CURVE ( 'NONE', #41, #76, #33, .T. ) ;
#136 =( LENGTH_UNIT ( ) NAMED_UNIT ( * ) SI_UNIT ( $, .METRE. ) );
#137 = CARTESIAN_POINT ( 'NONE',  ( -0.1875000000000000278, 1.499999999999999778, 0.000000000000000000 ) ) ;
#138 = DIRECTION ( 'NONE',  ( 0.000000000000000000, 0.000000000000000000, -1.000000000000000000 ) ) ;
#139 = FILL_AREA_STYLE_COLOUR ( '', #91 ) ;
#140 = DIRECTION ( 'NONE',  ( -1.000000000000000000, 0.000000000000000000, 0.000000000000000000 ) ) ;
#141 = UNCERTAINTY_MEASURE_WITH_UNIT (LENGTH_MEASURE( 1.000000000000000082E-05 ), #65, 'distance_accuracy_value', 'NONE');
#142 = VECTOR ( 'NONE', #38, 39.37007874015748143 ) ;
#143 =( CONVERSION_BASED_UNIT ( 'INCH', #213 ) LENGTH_UNIT ( ) NAMED_UNIT ( #260 ) );
#144 = DIRECTION ( 'NONE',  ( -0.000000000000000000, -1.000000000000000000, -0.000000000000000000 ) ) ;
#145 = COLOUR_RGB ( '',1.000000000000000000, 0.000000000000000000, 0.000000000000000000 ) ;
#146 = STYLED_ITEM ( 'NONE', ( #245 ), #224 ) ;
#147 = PLANE ( 'NONE',  #271 ) ;
#148 = DIRECTION ( 'NONE',  ( 0.000000000000000000, 0.000000000000000000, -1.000000000000000000 ) ) ;
#149 = ADVANCED_FACE ( 'NONE', ( #80 ), #179, .F. ) ;
#150 = STYLED_ITEM ( 'NONE', ( #290 ), #122 ) ;
#151 = COLOUR_RGB ( '',0.7921568627450980005, 0.8196078431372548767, 0.9333333333333333481 ) ;
#152 = SURFACE_STYLE_USAGE ( .BOTH. , #181 ) ;
#153 = ORIENTED_EDGE ( 'NONE', *, *, #98, .T. ) ;
#154 = CARTESIAN_POINT ( 'NONE',  ( 2.296212748401287726E-17, 0.000000000000000000, 0.1875000000000000278 ) ) ;
#155 = FILL_AREA_STYLE_COLOUR ( '', #151 ) ;
#156 = VERTEX_POINT ( 'NONE', #99 ) ;
#157 =( NAMED_UNIT ( * ) PLANE_ANGLE_UNIT ( ) SI_UNIT ( $, .RADIAN. ) );
#158 = ORIENTED_EDGE ( 'NONE', *, *, #216, .F. ) ;
#159 = SURFACE_SIDE_STYLE ('',( #304 ) ) ;
#160 = ADVANCED_FACE ( 'NONE', ( #202 ), #129, .T. ) ;
#161 = LENGTH_MEASURE_WITH_UNIT ( LENGTH_MEASURE( 0.02539999999999999897 ), #25 );
#162 = FACE_OUTER_BOUND ( 'NONE', #253, .T. ) ;
#163 = FILL_AREA_STYLE ('',( #165 ) ) ;
#164 =( NAMED_UNIT ( * ) SI_UNIT ( $, .STERADIAN. ) SOLID_ANGLE_UNIT ( ) );
#165 = FILL_AREA_STYLE_COLOUR ( '', #145 ) ;
#166 = DIRECTION ( 'NONE',  ( 0.000000000000000000, 0.000000000000000000, -1.000000000000000000 ) ) ;
#167 = MECHANICAL_DESIGN_GEOMETRIC_PRESENTATION_REPRESENTATION (  '', ( #39 ), #128 ) ;
#168 = DIRECTION ( 'NONE',  ( 0.000000000000000000, 1.000000000000000000, 0.000000000000000000 ) ) ;
#169 = AXIS2_PLACEMENT_3D ( 'NONE', #51, #236, #138 ) ;
#170 = AXIS2_PLACEMENT_3D ( 'NONE', #252, #45, #42 ) ;
#171 = CARTESIAN_POINT ( 'NONE',  ( 2.296212748401287726E-17, 0.000000000000000000, 0.1875000000000000278 ) ) ;
#172 = DIRECTION ( 'NONE',  ( 0.000000000000000000, -0.000000000000000000, 1.000000000000000000 ) ) ;
#173 = DIRECTION ( 'NONE',  ( -0.000000000000000000, -1.000000000000000000, -0.000000000000000000 ) ) ;
#174 = DIRECTION ( 'NONE',  ( 1.000000000000000000, 0.000000000000000000, 0.000000000000000000 ) ) ;
#175 = ORIENTED_EDGE ( 'NONE', *, *, #43, .T. ) ;
#176 =( GEOMETRIC_REPRESENTATION_CONTEXT ( 3 ) GLOBAL_UNCERTAINTY_ASSIGNED_CONTEXT ( ( #232 ) ) GLOBAL_UNIT_ASSIGNED_CONTEXT ( ( #187, #117, #164 ) ) REPRESENTATION_CONTEXT ( 'NONE', 'WORKASPACE' ) );
#177 = ORIENTED_EDGE ( 'NONE', *, *, #238, .F. ) ;
#178 = DIMENSIONAL_EXPONENTS ( 1.000000000000000000, 0.000000000000000000, 0.000000000000000000, 0.000000000000000000, 0.000000000000000000, 0.000000000000000000, 0.000000000000000000 ) ;
#179 = PLANE ( 'NONE',  #11 ) ;
#180 = ORIENTED_EDGE ( 'NONE', *, *, #282, .F. ) ;
#181 = SURFACE_SIDE_STYLE ('',( #269 ) ) ;
#182 = COLOUR_RGB ( '',0.7921568627450980005, 0.8196078431372548767, 0.9333333333333333481 ) ;
#183 = AXIS2_PLACEMENT_3D ( 'NONE', #189, #90, #166 ) ;
#184 = SURFACE_STYLE_USAGE ( .BOTH. , #61 ) ;
#185 = ORIENTED_EDGE ( 'NONE', *, *, #243, .F. ) ;
#186 = SURFACE_STYLE_USAGE ( .BOTH. , #85 ) ;
#187 =( CONVERSION_BASED_UNIT ( 'INCH', #89 ) LENGTH_UNIT ( ) NAMED_UNIT ( #195 ) );
#188 = DIRECTION ( 'NONE',  ( 0.000000000000000000, 0.000000000000000000, -1.000000000000000000 ) ) ;
#189 = CARTESIAN_POINT ( 'NONE',  ( 0.000000000000000000, 0.000000000000000000, 0.000000000000000000 ) ) ;
#190 = AXIS2_PLACEMENT_3D ( 'NONE', #120, #53, #289 ) ;
#191 = MECHANICAL_DESIGN_GEOMETRIC_PRESENTATION_REPRESENTATION (  '', ( #146 ), #193 ) ;
#192 =( CONVERSION_BASED_UNIT ( 'INCH', #214 ) LENGTH_UNIT ( ) NAMED_UNIT ( #255 ) );
#193 =( GEOMETRIC_REPRESENTATION_CONTEXT ( 3 ) GLOBAL_UNCERTAINTY_ASSIGNED_CONTEXT ( ( #254 ) ) GLOBAL_UNIT_ASSIGNED_CONTEXT ( ( #197, #293, #104 ) ) REPRESENTATION_CONTEXT ( 'NONE', 'WORKASPACE' ) );
#194 = CARTESIAN_POINT ( 'NONE',  ( 0.000000000000000000, 1.500000000000000222, 0.000000000000000000 ) ) ;
#195 = DIMENSIONAL_EXPONENTS ( 1.000000000000000000, 0.000000000000000000, 0.000000000000000000, 0.000000000000000000, 0.000000000000000000, 0.000000000000000000, 0.000000000000000000 ) ;
#196 = DIRECTION ( 'NONE',  ( -1.000000000000000000, 0.000000000000000000, 0.000000000000000000 ) ) ;
#197 =( CONVERSION_BASED_UNIT ( 'INCH', #7 ) LENGTH_UNIT ( ) NAMED_UNIT ( #278 ) );
#198 = CIRCLE ( 'NONE', #101, 0.1875000000000000833 ) ;
#199 = CARTESIAN_POINT ( 'NONE',  ( -6.123233995736766036E-17, 4.000000000000000000, 0.000000000000000000 ) ) ;
#200 = APPLICATION_PROTOCOL_DEFINITION ( 'draft international standard', 'automotive_design', 1998, #215 ) ;
#201 = CARTESIAN_POINT ( 'NONE',  ( -6.123233995736766036E-17, 4.000000000000000000, 0.000000000000000000 ) ) ;
#202 = FACE_OUTER_BOUND ( 'NONE', #64, .T. ) ;
#203 = EDGE_CURVE ( 'NONE', #300, #111, #131, .T. ) ;
#204 =( GEOMETRIC_REPRESENTATION_CONTEXT ( 3 ) GLOBAL_UNCERTAINTY_ASSIGNED_CONTEXT ( ( #27 ) ) GLOBAL_UNIT_ASSIGNED_CONTEXT ( ( #1, #113, #70 ) ) REPRESENTATION_CONTEXT ( 'NONE', 'WORKASPACE' ) );
#205 = SURFACE_STYLE_USAGE ( .BOTH. , #211 ) ;
#206 = FILL_AREA_STYLE ('',( #47 ) ) ;
#207 = PRESENTATION_STYLE_ASSIGNMENT (( #186 ) ) ;
#208 = FILL_AREA_STYLE ('',( #139 ) ) ;
#209 = PRODUCT_DEFINITION_CONTEXT ( 'detailed design', #215, 'design' ) ;
#210 = COLOUR_RGB ( '',1.000000000000000000, 0.000000000000000000, 0.000000000000000000 ) ;
#211 = SURFACE_SIDE_STYLE ('',( #115 ) ) ;
#212 = CIRCLE ( 'NONE', #21, 0.1875000000000000278 ) ;
#213 = LENGTH_MEASURE_WITH_UNIT ( LENGTH_MEASURE( 0.02539999999999999897 ), #286 );
#214 = LENGTH_MEASURE_WITH_UNIT ( LENGTH_MEASURE( 0.02539999999999999897 ), #93 );
#215 = APPLICATION_CONTEXT ( 'automotive_design' ) ;
#216 = EDGE_CURVE ( 'NONE', #76, #111, #212, .T. ) ;
#217 = DIRECTION ( 'NONE',  ( -2.449293598294706229E-17, 1.000000000000000000, -0.000000000000000000 ) ) ;
#218 = STYLED_ITEM ( 'NONE', ( #247 ), #221 ) ;
#219 = PRODUCT_RELATED_PRODUCT_CATEGORY ( 'part', '', ( #284 ) ) ;
#220 = FACE_OUTER_BOUND ( 'NONE', #19, .T. ) ;
#221 = MANIFOLD_SOLID_BREP ( 'Revolve - Cutting Edge', #222 ) ;
#222 = CLOSED_SHELL ( 'NONE', ( #303, #122, #72, #291 ) ) ;
#223 = COLOUR_RGB ( '',1.000000000000000000, 0.000000000000000000, 0.000000000000000000 ) ;
#224 = MANIFOLD_SOLID_BREP ( 'Revolve - Tool Body (Straight Shanked)', #270 ) ;
#225 = CARTESIAN_POINT ( 'NONE',  ( 0.000000000000000000, 1.500000000000000222, 0.000000000000000000 ) ) ;
#226 = LINE ( 'NONE', #12, #20 ) ;
#227 =( GEOMETRIC_REPRESENTATION_CONTEXT ( 3 ) GLOBAL_UNCERTAINTY_ASSIGNED_CONTEXT ( ( #281 ) ) GLOBAL_UNIT_ASSIGNED_CONTEXT ( ( #143, #97, #275 ) ) REPRESENTATION_CONTEXT ( 'NONE', 'WORKASPACE' ) );
#228 = DIRECTION ( 'NONE',  ( -0.000000000000000000, -1.000000000000000000, -0.000000000000000000 ) ) ;
#229 = CARTESIAN_POINT ( 'NONE',  ( 0.000000000000000000, 0.000000000000000000, 0.000000000000000000 ) ) ;
#230 =( GEOMETRIC_REPRESENTATION_CONTEXT ( 3 ) GLOBAL_UNCERTAINTY_ASSIGNED_CONTEXT ( ( #141 ) ) GLOBAL_UNIT_ASSIGNED_CONTEXT ( ( #65, #157, #96 ) ) REPRESENTATION_CONTEXT ( 'NONE', 'WORKASPACE' ) );
#231 = DIRECTION ( 'NONE',  ( 0.000000000000000000, -1.000000000000000000, -0.000000000000000000 ) ) ;
#232 = UNCERTAINTY_MEASURE_WITH_UNIT (LENGTH_MEASURE( 1.000000000000000082E-05 ), #187, 'distance_accuracy_value', 'NONE');
#233 = LENGTH_MEASURE_WITH_UNIT ( LENGTH_MEASURE( 0.02539999999999999897 ), #136 );
#234 = MECHANICAL_DESIGN_GEOMETRIC_PRESENTATION_REPRESENTATION (  '', ( #263 ), #204 ) ;
#235 = CARTESIAN_POINT ( 'NONE',  ( 2.296212748401287726E-17, 1.500000000000000222, 0.1875000000000000278 ) ) ;
#236 = DIRECTION ( 'NONE',  ( -0.000000000000000000, -1.000000000000000000, -0.000000000000000000 ) ) ;
#237 = DIRECTION ( 'NONE',  ( -1.000000000000000000, 0.000000000000000000, 0.000000000000000000 ) ) ;
#238 = EDGE_CURVE ( 'NONE', #300, #41, #121, .T. ) ;
#239 = CARTESIAN_POINT ( 'NONE',  ( -0.1875000000000001110, 4.000000000000000000, 0.000000000000000000 ) ) ;
#240 = CARTESIAN_POINT ( 'NONE',  ( 0.000000000000000000, 0.000000000000000000, -0.1875000000000000278 ) ) ;
#241 = CARTESIAN_POINT ( 'NONE',  ( 0.1875000000000000278, 4.000000000000000000, 0.000000000000000000 ) ) ;
#242 = FILL_AREA_STYLE_COLOUR ( '', #182 ) ;
#243 = EDGE_CURVE ( 'NONE', #246, #244, #103, .T. ) ;
#244 = VERTEX_POINT ( 'NONE', #109 ) ;
#245 = PRESENTATION_STYLE_ASSIGNMENT (( #152 ) ) ;
#246 = VERTEX_POINT ( 'NONE', #137 ) ;
#247 = PRESENTATION_STYLE_ASSIGNMENT (( #184 ) ) ;
#248 = EDGE_LOOP ( 'NONE', ( #153, #274 ) ) ;
#249 = MECHANICAL_DESIGN_GEOMETRIC_PRESENTATION_REPRESENTATION (  '', ( #308 ), #176 ) ;
#250 = DIRECTION ( 'NONE',  ( -1.000000000000000000, -2.449293598294706229E-17, 0.000000000000000000 ) ) ;
#251 = ORIENTED_EDGE ( 'NONE', *, *, #52, .F. ) ;
#252 = CARTESIAN_POINT ( 'NONE',  ( 7.582401355855259480E-33, 1.499999999999999778, 0.000000000000000000 ) ) ;
#253 = EDGE_LOOP ( 'NONE', ( #132, #66, #295, #37 ) ) ;
#254 = UNCERTAINTY_MEASURE_WITH_UNIT (LENGTH_MEASURE( 1.000000000000000082E-05 ), #197, 'distance_accuracy_value', 'NONE');
#255 = DIMENSIONAL_EXPONENTS ( 1.000000000000000000, 0.000000000000000000, 0.000000000000000000, 0.000000000000000000, 0.000000000000000000, 0.000000000000000000, 0.000000000000000000 ) ;
#256 = FACE_OUTER_BOUND ( 'NONE', #248, .T. ) ;
#257 = AXIS2_PLACEMENT_3D ( 'NONE', #225, #173, #133 ) ;
#258 = CYLINDRICAL_SURFACE ( 'NONE', #183, 0.1875000000000000278 ) ;
#259 = SURFACE_STYLE_FILL_AREA ( #163 ) ;
#260 = DIMENSIONAL_EXPONENTS ( 1.000000000000000000, 0.000000000000000000, 0.000000000000000000, 0.000000000000000000, 0.000000000000000000, 0.000000000000000000, 0.000000000000000000 ) ;
#261 = CYLINDRICAL_SURFACE ( 'NONE', #190, 0.1875000000000000278 ) ;
#262 = AXIS2_PLACEMENT_3D ( 'NONE', #87, #26, #140 ) ;
#263 = STYLED_ITEM ( 'NONE', ( #283 ), #303 ) ;
#264 = PRODUCT_DEFINITION ( 'UNKNOWN', '', #82, #209 ) ;
#265 = UNCERTAINTY_MEASURE_WITH_UNIT (LENGTH_MEASURE( 1.000000000000000082E-05 ), #49, 'distance_accuracy_value', 'NONE');
#266 = FILL_AREA_STYLE ('',( #31 ) ) ;
#267 = ADVANCED_BREP_SHAPE_REPRESENTATION ( '03375', ( #221, #224, #88 ), #227 ) ;
#268 = LINE ( 'NONE', #239, #95 ) ;
#269 = SURFACE_STYLE_FILL_AREA ( #298 ) ;
#270 = CLOSED_SHELL ( 'NONE', ( #160, #149, #119, #125 ) ) ;
#271 = AXIS2_PLACEMENT_3D ( 'NONE', #194, #168, #172 ) ;
#272 = PRODUCT_CONTEXT ( 'NONE', #277, 'mechanical' ) ;
#273 = VERTEX_POINT ( 'NONE', #306 ) ;
#274 = ORIENTED_EDGE ( 'NONE', *, *, #216, .T. ) ;
#275 =( NAMED_UNIT ( * ) SI_UNIT ( $, .STERADIAN. ) SOLID_ANGLE_UNIT ( ) );
#276 = EDGE_LOOP ( 'NONE', ( #134, #60 ) ) ;
#277 = APPLICATION_CONTEXT ( 'automotive_design' ) ;
#278 = DIMENSIONAL_EXPONENTS ( 1.000000000000000000, 0.000000000000000000, 0.000000000000000000, 0.000000000000000000, 0.000000000000000000, 0.000000000000000000, 0.000000000000000000 ) ;
#279 =( GEOMETRIC_REPRESENTATION_CONTEXT ( 3 ) GLOBAL_UNCERTAINTY_ASSIGNED_CONTEXT ( ( #23 ) ) GLOBAL_UNIT_ASSIGNED_CONTEXT ( ( #192, #73, #6 ) ) REPRESENTATION_CONTEXT ( 'NONE', 'WORKASPACE' ) );
#280 = EDGE_LOOP ( 'NONE', ( #177, #108 ) ) ;
#281 = UNCERTAINTY_MEASURE_WITH_UNIT (LENGTH_MEASURE( 1.000000000000000082E-05 ), #143, 'distance_accuracy_value', 'NONE');
#282 = EDGE_CURVE ( 'NONE', #244, #246, #124, .T. ) ;
#283 = PRESENTATION_STYLE_ASSIGNMENT (( #86 ) ) ;
#284 = PRODUCT ( '03375', '03375', '', ( #272 ) ) ;
#285 = VECTOR ( 'NONE', #228, 39.37007874015748143 ) ;
#286 =( LENGTH_UNIT ( ) NAMED_UNIT ( * ) SI_UNIT ( $, .METRE. ) );
#287 = CARTESIAN_POINT ( 'NONE',  ( -6.123233995736766036E-17, 4.000000000000000000, 0.000000000000000000 ) ) ;
#288 = FACE_OUTER_BOUND ( 'NONE', #280, .T. ) ;
#289 = DIRECTION ( 'NONE',  ( 0.000000000000000000, 0.000000000000000000, -1.000000000000000000 ) ) ;
#290 = PRESENTATION_STYLE_ASSIGNMENT (( #123 ) ) ;
#291 = ADVANCED_FACE ( 'NONE', ( #256 ), #67, .T. ) ;
#292 = ORIENTED_EDGE ( 'NONE', *, *, #243, .T. ) ;
#293 =( NAMED_UNIT ( * ) PLANE_ANGLE_UNIT ( ) SI_UNIT ( $, .RADIAN. ) );
#294 = AXIS2_PLACEMENT_3D ( 'NONE', #302, #18, #84 ) ;
#295 = ORIENTED_EDGE ( 'NONE', *, *, #98, .F. ) ;
#296 =( LENGTH_UNIT ( ) NAMED_UNIT ( * ) SI_UNIT ( $, .METRE. ) );
#297 = ORIENTED_EDGE ( 'NONE', *, *, #9, .F. ) ;
#298 = FILL_AREA_STYLE ('',( #155 ) ) ;
#299 = APPLICATION_PROTOCOL_DEFINITION ( 'draft international standard', 'automotive_design', 1998, #277 ) ;
#300 = VERTEX_POINT ( 'NONE', #112 ) ;
#301 = DIRECTION ( 'NONE',  ( 0.000000000000000000, 0.000000000000000000, -1.000000000000000000 ) ) ;
#302 = CARTESIAN_POINT ( 'NONE',  ( 7.582401355855259480E-33, 1.499999999999999778, 0.000000000000000000 ) ) ;
#303 = ADVANCED_FACE ( 'NONE', ( #162 ), #258, .T. ) ;
#304 = SURFACE_STYLE_FILL_AREA ( #206 ) ;
#305 =( NAMED_UNIT ( * ) PLANE_ANGLE_UNIT ( ) SI_UNIT ( $, .RADIAN. ) );
#306 = CARTESIAN_POINT ( 'NONE',  ( -0.1875000000000001388, 4.000000000000000000, 0.000000000000000000 ) ) ;
#307 = CIRCLE ( 'NONE', #62, 0.1875000000000000278 ) ;
#308 = STYLED_ITEM ( 'NONE', ( #309 ), #291 ) ;
#309 = PRESENTATION_STYLE_ASSIGNMENT (( #205 ) ) ;
ENDSEC;
END-ISO-10303-21;
