ISO-10303-21;
HEADER;
FILE_DESCRIPTION (( 'STEP AP214' ),
    '1' );
FILE_NAME ('Micro_AEMM-100-3.STEP',
    '2022-03-15T14:30:03',
    ( '' ),
    ( '' ),
    'SwSTEP 2.0',
    'SolidWorks 2022',
    '' );
FILE_SCHEMA (( 'AUTOMOTIVE_DESIGN' ));
ENDSEC;

DATA;
#1 = CARTESIAN_POINT ( 'NONE',  ( 1.206728250503579029E-16, 0.000000000000000000, 0.9853683946618325695 ) ) ;
#2 = DIRECTION ( 'NONE',  ( -1.224646799147353207E-16, -0.000000000000000000, -1.000000000000000000 ) ) ;
#3 = ORIENTED_EDGE ( 'NONE', *, *, #63, .T. ) ;
#4 = FACE_OUTER_BOUND ( 'NONE', #146, .T. ) ;
#5 = FILL_AREA_STYLE ('',( #113 ) ) ;
#6 = ORIENTED_EDGE ( 'NONE', *, *, #63, .F. ) ;
#7 = VERTEX_POINT ( 'NONE', #172 ) ;
#8 = DIRECTION ( 'NONE',  ( 1.000000000000000000, 0.000000000000000000, 0.000000000000000000 ) ) ;
#9 = ORIENTED_EDGE ( 'NONE', *, *, #215, .T. ) ;
#10 = AXIS2_PLACEMENT_3D ( 'NONE', #14, #154, #8 ) ;
#11 = FACE_OUTER_BOUND ( 'NONE', #242, .T. ) ;
#12 = EDGE_CURVE ( 'NONE', #42, #47, #180, .T. ) ;
#13 = CARTESIAN_POINT ( 'NONE',  ( -0.1966536494999999996, 0.000000000000000000, 4.816625248016410340E-17 ) ) ;
#14 = CARTESIAN_POINT ( 'NONE',  ( 0.000000000000000000, 0.000000000000000000, 2.819646000000000097 ) ) ;
#15 =( NAMED_UNIT ( * ) PLANE_ANGLE_UNIT ( ) SI_UNIT ( $, .RADIAN. ) );
#16 = ADVANCED_FACE ( 'NONE', ( #45 ), #233, .T. ) ;
#17 = DIRECTION ( 'NONE',  ( 1.000000000000000000, 0.000000000000000000, 0.000000000000000000 ) ) ;
#18 = EDGE_CURVE ( 'NONE', #156, #205, #280, .T. ) ;
#19 = ADVANCED_FACE ( 'NONE', ( #188 ), #201, .T. ) ;
#20 = EDGE_LOOP ( 'NONE', ( #282, #77 ) ) ;
#21 = CIRCLE ( 'NONE', #76, 0.1966536494999999996 ) ;
#22 = CARTESIAN_POINT ( 'NONE',  ( 0.1966536495000001383, 0.000000000000000000, 0.9842519999999999047 ) ) ;
#23 = LINE ( 'NONE', #68, #229 ) ;
#24 = ORIENTED_EDGE ( 'NONE', *, *, #12, .T. ) ;
#25 = ORIENTED_EDGE ( 'NONE', *, *, #88, .F. ) ;
#26 = VECTOR ( 'NONE', #293, 39.37007874015747433 ) ;
#27 = ORIENTED_EDGE ( 'NONE', *, *, #298, .F. ) ;
#28 = LENGTH_MEASURE_WITH_UNIT ( LENGTH_MEASURE( 0.02539999999999999897 ), #147 );
#29 =( NAMED_UNIT ( * ) SI_UNIT ( $, .STERADIAN. ) SOLID_ANGLE_UNIT ( ) );
#30 = ORIENTED_EDGE ( 'NONE', *, *, #44, .F. ) ;
#31 = AXIS2_PLACEMENT_3D ( 'NONE', #274, #51, #225 ) ;
#32 = LINE ( 'NONE', #224, #36 ) ;
#33 = CARTESIAN_POINT ( 'NONE',  ( 0.000000000000000000, 0.000000000000000000, 2.834646000000000665 ) ) ;
#34 = PRODUCT_DEFINITION_CONTEXT ( 'detailed design', #116, 'design' ) ;
#35 = CARTESIAN_POINT ( 'NONE',  ( 0.1966536495000001383, 0.000000000000000000, 0.9842519999999999047 ) ) ;
#36 = VECTOR ( 'NONE', #182, 39.37007874015748854 ) ;
#37 = DIRECTION ( 'NONE',  ( -1.224646799147353207E-16, -0.000000000000000000, -1.000000000000000000 ) ) ;
#38 = CIRCLE ( 'NONE', #212, 0.1968504999999999838 ) ;
#39 = DIRECTION ( 'NONE',  ( -1.000000000000000000, 0.000000000000000000, 1.224646799147353207E-16 ) ) ;
#40 = SURFACE_SIDE_STYLE ('',( #238 ) ) ;
#41 = CARTESIAN_POINT ( 'NONE',  ( 0.000000000000000000, 0.000000000000000000, 0.000000000000000000 ) ) ;
#42 = VERTEX_POINT ( 'NONE', #70 ) ;
#43 = CARTESIAN_POINT ( 'NONE',  ( 1.206728250503579029E-16, 0.000000000000000000, 0.9853683946618325695 ) ) ;
#44 = EDGE_CURVE ( 'NONE', #7, #222, #38, .T. ) ;
#45 = FACE_OUTER_BOUND ( 'NONE', #89, .T. ) ;
#46 = VECTOR ( 'NONE', #80, 39.37007874015748143 ) ;
#47 = VERTEX_POINT ( 'NONE', #232 ) ;
#48 = FILL_AREA_STYLE_COLOUR ( '', #61 ) ;
#49 = SURFACE_SIDE_STYLE ('',( #125 ) ) ;
#50 = CIRCLE ( 'NONE', #181, 0.1818505000000002481 ) ;
#51 = DIRECTION ( 'NONE',  ( -0.000000000000000000, -0.000000000000000000, -1.000000000000000000 ) ) ;
#52 = DIRECTION ( 'NONE',  ( -1.224646799147353207E-16, -0.000000000000000000, -1.000000000000000000 ) ) ;
#53 = DIRECTION ( 'NONE',  ( 0.000000000000000000, 0.000000000000000000, 1.000000000000000000 ) ) ;
#54 = CARTESIAN_POINT ( 'NONE',  ( -0.1968504999999999838, 0.000000000000000000, 2.834646000000000665 ) ) ;
#55 = PRODUCT_RELATED_PRODUCT_CATEGORY ( 'part', '', ( #204 ) ) ;
#56 = ADVANCED_FACE ( 'NONE', ( #214 ), #207, .F. ) ;
#57 = LINE ( 'NONE', #104, #162 ) ;
#58 = STYLED_ITEM ( 'NONE', ( #295 ), #114 ) ;
#59 = ADVANCED_BREP_SHAPE_REPRESENTATION ( 'Micro_AEMM-100-3', ( #114, #95 ), #196 ) ;
#60 = CARTESIAN_POINT ( 'NONE',  ( 0.1818505000000002481, 2.318874837419510283E-17, 2.834646000000000665 ) ) ;
#61 = COLOUR_RGB ( '',0.7921568627450980005, 0.8196078431372548767, 0.9333333333333333481 ) ;
#62 = EDGE_LOOP ( 'NONE', ( #98, #177, #283, #231 ) ) ;
#63 = EDGE_CURVE ( 'NONE', #47, #7, #284, .T. ) ;
#64 = ORIENTED_EDGE ( 'NONE', *, *, #153, .F. ) ;
#65 = DIRECTION ( 'NONE',  ( 0.000000000000000000, 0.000000000000000000, -1.000000000000000000 ) ) ;
#66 = CARTESIAN_POINT ( 'NONE',  ( 0.1968504999999999838, 2.410723347355560646E-17, 2.834646000000000665 ) ) ;
#67 = LINE ( 'NONE', #54, #119 ) ;
#68 = CARTESIAN_POINT ( 'NONE',  ( -0.1818505000000002481, 0.000000000000000000, 2.834646000000000665 ) ) ;
#69 =( GEOMETRIC_REPRESENTATION_CONTEXT ( 3 ) GLOBAL_UNCERTAINTY_ASSIGNED_CONTEXT ( ( #126 ) ) GLOBAL_UNIT_ASSIGNED_CONTEXT ( ( #267, #127, #29 ) ) REPRESENTATION_CONTEXT ( 'NONE', 'WORKASPACE' ) );
#70 = CARTESIAN_POINT ( 'NONE',  ( -0.1968504999999999838, 0.000000000000000000, 2.819646000000000097 ) ) ;
#71 = ORIENTED_EDGE ( 'NONE', *, *, #88, .T. ) ;
#72 = EDGE_CURVE ( 'NONE', #191, #288, #87, .T. ) ;
#73 = ORIENTED_EDGE ( 'NONE', *, *, #230, .F. ) ;
#74 = ORIENTED_EDGE ( 'NONE', *, *, #215, .F. ) ;
#75 = FILL_AREA_STYLE ('',( #48 ) ) ;
#76 = AXIS2_PLACEMENT_3D ( 'NONE', #240, #265, #217 ) ;
#77 = ORIENTED_EDGE ( 'NONE', *, *, #298, .T. ) ;
#78 = ADVANCED_FACE ( 'NONE', ( #4 ), #92, .T. ) ;
#79 = PRODUCT_CONTEXT ( 'NONE', #107, 'mechanical' ) ;
#80 = DIRECTION ( 'NONE',  ( 0.1736481776669313304, 0.000000000000000000, 0.9848077530122077983 ) ) ;
#81 = DIRECTION ( 'NONE',  ( 0.000000000000000000, 0.000000000000000000, 1.000000000000000000 ) ) ;
#82 = CARTESIAN_POINT ( 'NONE',  ( 0.000000000000000000, 0.000000000000000000, 2.834646000000000665 ) ) ;
#83 = CIRCLE ( 'NONE', #10, 0.1968504999999999838 ) ;
#84 = UNCERTAINTY_MEASURE_WITH_UNIT (LENGTH_MEASURE( 1.000000000000000082E-05 ), #122, 'distance_accuracy_value', 'NONE');
#85 = PLANE ( 'NONE',  #187 ) ;
#86 = DIRECTION ( 'NONE',  ( -1.000000000000000000, 0.000000000000000000, 1.224646799147353207E-16 ) ) ;
#87 = CIRCLE ( 'NONE', #133, 0.1966536494999999996 ) ;
#88 = EDGE_CURVE ( 'NONE', #96, #42, #23, .T. ) ;
#89 = EDGE_LOOP ( 'NONE', ( #120, #106, #97, #73 ) ) ;
#90 = AXIS2_PLACEMENT_3D ( 'NONE', #287, #165, #118 ) ;
#91 = VECTOR ( 'NONE', #100, 39.37007874015748143 ) ;
#92 = CYLINDRICAL_SURFACE ( 'NONE', #184, 0.1966536494999999996 ) ;
#93 = EDGE_CURVE ( 'NONE', #47, #42, #83, .T. ) ;
#94 = CARTESIAN_POINT ( 'NONE',  ( 1.205361061354380629E-16, 0.000000000000000000, 0.9842519999999999047 ) ) ;
#95 = AXIS2_PLACEMENT_3D ( 'NONE', #279, #53, #157 ) ;
#96 = VERTEX_POINT ( 'NONE', #221 ) ;
#97 = ORIENTED_EDGE ( 'NONE', *, *, #223, .T. ) ;
#98 = ORIENTED_EDGE ( 'NONE', *, *, #226, .F. ) ;
#99 = EDGE_CURVE ( 'NONE', #156, #191, #123, .T. ) ;
#100 = DIRECTION ( 'NONE',  ( -1.224646799147353207E-16, -0.000000000000000000, -1.000000000000000000 ) ) ;
#101 = AXIS2_PLACEMENT_3D ( 'NONE', #94, #144, #218 ) ;
#102 = STYLED_ITEM ( 'NONE', ( #190 ), #59 ) ;
#103 = ORIENTED_EDGE ( 'NONE', *, *, #99, .F. ) ;
#104 = CARTESIAN_POINT ( 'NONE',  ( 0.1966536494999999996, 2.408312624008205170E-17, -2.408312624008205170E-17 ) ) ;
#105 = CYLINDRICAL_SURFACE ( 'NONE', #251, 0.1966536494999999996 ) ;
#106 = ORIENTED_EDGE ( 'NONE', *, *, #226, .T. ) ;
#107 = APPLICATION_CONTEXT ( 'automotive_design' ) ;
#108 = DIRECTION ( 'NONE',  ( 1.000000000000000000, 0.000000000000000000, 0.000000000000000000 ) ) ;
#109 =( NAMED_UNIT ( * ) SI_UNIT ( $, .STERADIAN. ) SOLID_ANGLE_UNIT ( ) );
#110 = DIRECTION ( 'NONE',  ( -1.000000000000000000, 0.000000000000000000, 0.000000000000000000 ) ) ;
#111 = AXIS2_PLACEMENT_3D ( 'NONE', #43, #198, #17 ) ;
#112 = EDGE_LOOP ( 'NONE', ( #6, #142, #117, #30 ) ) ;
#113 = FILL_AREA_STYLE_COLOUR ( '', #234 ) ;
#114 = MANIFOLD_SOLID_BREP ( 'Cut-Revolve1', #159 ) ;
#115 = DIRECTION ( 'NONE',  ( 1.000000000000000000, 0.000000000000000000, 0.000000000000000000 ) ) ;
#116 = APPLICATION_CONTEXT ( 'automotive_design' ) ;
#117 = ORIENTED_EDGE ( 'NONE', *, *, #208, .T. ) ;
#118 = DIRECTION ( 'NONE',  ( -1.000000000000000000, 0.000000000000000000, 0.000000000000000000 ) ) ;
#119 = VECTOR ( 'NONE', #250, 39.37007874015748143 ) ;
#120 = ORIENTED_EDGE ( 'NONE', *, *, #18, .F. ) ;
#121 = ORIENTED_EDGE ( 'NONE', *, *, #93, .F. ) ;
#122 =( CONVERSION_BASED_UNIT ( 'INCH', #28 ) LENGTH_UNIT ( ) NAMED_UNIT ( #213 ) );
#123 = LINE ( 'NONE', #179, #91 ) ;
#124 = ORIENTED_EDGE ( 'NONE', *, *, #12, .F. ) ;
#125 = SURFACE_STYLE_FILL_AREA ( #75 ) ;
#126 = UNCERTAINTY_MEASURE_WITH_UNIT (LENGTH_MEASURE( 1.000000000000000082E-05 ), #267, 'distance_accuracy_value', 'NONE');
#127 =( NAMED_UNIT ( * ) PLANE_ANGLE_UNIT ( ) SI_UNIT ( $, .RADIAN. ) );
#128 = ADVANCED_FACE ( 'NONE', ( #248 ), #105, .T. ) ;
#129 = DIRECTION ( 'NONE',  ( 1.000000000000000000, 0.000000000000000000, -0.000000000000000000 ) ) ;
#130 = CYLINDRICAL_SURFACE ( 'NONE', #131, 0.1968504999999999838 ) ;
#131 = AXIS2_PLACEMENT_3D ( 'NONE', #278, #158, #110 ) ;
#132 = CARTESIAN_POINT ( 'NONE',  ( 0.1966536494999999996, 2.408312624008205170E-17, 0.000000000000000000 ) ) ;
#133 = AXIS2_PLACEMENT_3D ( 'NONE', #257, #2, #39 ) ;
#134 = FACE_OUTER_BOUND ( 'NONE', #176, .T. ) ;
#135 = ORIENTED_EDGE ( 'NONE', *, *, #168, .F. ) ;
#136 = DIRECTION ( 'NONE',  ( 0.000000000000000000, 0.000000000000000000, -1.000000000000000000 ) ) ;
#137 = DIRECTION ( 'NONE',  ( -1.224646799147353207E-16, -0.000000000000000000, -1.000000000000000000 ) ) ;
#138 = SURFACE_STYLE_USAGE ( .BOTH. , #40 ) ;
#139 = EDGE_CURVE ( 'NONE', #96, #194, #241, .T. ) ;
#140 = DIRECTION ( 'NONE',  ( 0.000000000000000000, 0.000000000000000000, 1.000000000000000000 ) ) ;
#141 = CARTESIAN_POINT ( 'NONE',  ( 0.000000000000000000, 0.000000000000000000, 2.819646000000000097 ) ) ;
#142 = ORIENTED_EDGE ( 'NONE', *, *, #93, .T. ) ;
#143 = DIRECTION ( 'NONE',  ( 1.000000000000000000, 0.000000000000000000, 0.000000000000000000 ) ) ;
#144 = DIRECTION ( 'NONE',  ( 1.224646799147353207E-16, 0.000000000000000000, 1.000000000000000000 ) ) ;
#145 = CONICAL_SURFACE ( 'NONE', #206, 0.1966536494999999996, 0.1745329251994338360 ) ;
#146 = EDGE_LOOP ( 'NONE', ( #74, #292, #272, #27 ) ) ;
#147 =( LENGTH_UNIT ( ) NAMED_UNIT ( * ) SI_UNIT ( $, .METRE. ) );
#148 = ADVANCED_FACE ( 'NONE', ( #245 ), #85, .T. ) ;
#149 = ORIENTED_EDGE ( 'NONE', *, *, #72, .F. ) ;
#150 = SURFACE_STYLE_USAGE ( .BOTH. , #49 ) ;
#151 = DIRECTION ( 'NONE',  ( 1.000000000000000000, 0.000000000000000000, 0.000000000000000000 ) ) ;
#152 = MECHANICAL_DESIGN_GEOMETRIC_PRESENTATION_REPRESENTATION (  '', ( #58 ), #69 ) ;
#153 = EDGE_CURVE ( 'NONE', #194, #96, #50, .T. ) ;
#154 = DIRECTION ( 'NONE',  ( 0.000000000000000000, 0.000000000000000000, -1.000000000000000000 ) ) ;
#155 = UNCERTAINTY_MEASURE_WITH_UNIT (LENGTH_MEASURE( 1.000000000000000082E-05 ), #189, 'distance_accuracy_value', 'NONE');
#156 = VERTEX_POINT ( 'NONE', #193 ) ;
#157 = DIRECTION ( 'NONE',  ( 1.000000000000000000, 0.000000000000000000, 0.000000000000000000 ) ) ;
#158 = DIRECTION ( 'NONE',  ( -0.000000000000000000, -0.000000000000000000, -1.000000000000000000 ) ) ;
#159 = CLOSED_SHELL ( 'NONE', ( #128, #16, #200, #183, #249, #148, #19, #264, #78, #56 ) ) ;
#160 = CARTESIAN_POINT ( 'NONE',  ( -0.1966536494999998608, 2.408312624008205170E-17, 0.9842519999999999047 ) ) ;
#161 = AXIS2_PLACEMENT_3D ( 'NONE', #33, #294, #108 ) ;
#162 = VECTOR ( 'NONE', #37, 39.37007874015748143 ) ;
#163 = CARTESIAN_POINT ( 'NONE',  ( 0.000000000000000000, 0.000000000000000000, 2.834646000000000665 ) ) ;
#164 = ORIENTED_EDGE ( 'NONE', *, *, #139, .T. ) ;
#165 = DIRECTION ( 'NONE',  ( -1.224646799147353207E-16, -0.000000000000000000, -1.000000000000000000 ) ) ;
#166 = DIRECTION ( 'NONE',  ( -1.000000000000000000, 0.000000000000000000, 0.000000000000000000 ) ) ;
#167 =( NAMED_UNIT ( * ) SI_UNIT ( $, .STERADIAN. ) SOLID_ANGLE_UNIT ( ) );
#168 = EDGE_CURVE ( 'NONE', #194, #47, #32, .T. ) ;
#169 = DIRECTION ( 'NONE',  ( -0.7071067811865354713, 0.000000000000000000, -0.7071067811865594521 ) ) ;
#170 = DIRECTION ( 'NONE',  ( -1.224646799147353207E-16, -0.000000000000000000, -1.000000000000000000 ) ) ;
#171 = ORIENTED_EDGE ( 'NONE', *, *, #223, .F. ) ;
#172 = CARTESIAN_POINT ( 'NONE',  ( 0.1968505000000001226, 2.410723347355561878E-17, 0.9853683946618325695 ) ) ;
#173 = EDGE_LOOP ( 'NONE', ( #290, #9, #149, #103 ) ) ;
#174 = FACE_OUTER_BOUND ( 'NONE', #112, .T. ) ;
#175 = VECTOR ( 'NONE', #210, 39.37007874015748143 ) ;
#176 = EDGE_LOOP ( 'NONE', ( #64, #239, #124, #25 ) ) ;
#177 = ORIENTED_EDGE ( 'NONE', *, *, #276, .F. ) ;
#178 = LENGTH_MEASURE_WITH_UNIT ( LENGTH_MEASURE( 0.02539999999999999897 ), #243 );
#179 = CARTESIAN_POINT ( 'NONE',  ( -0.1966536494999999996, 0.000000000000000000, 2.408312624008205170E-17 ) ) ;
#180 = CIRCLE ( 'NONE', #195, 0.1968504999999999838 ) ;
#181 = AXIS2_PLACEMENT_3D ( 'NONE', #277, #273, #151 ) ;
#182 = DIRECTION ( 'NONE',  ( 0.7071067811865354713, 8.659560562354783714E-17, -0.7071067811865594521 ) ) ;
#183 = ADVANCED_FACE ( 'NONE', ( #11 ), #289, .T. ) ;
#184 = AXIS2_PLACEMENT_3D ( 'NONE', #41, #137, #236 ) ;
#185 = PRODUCT_DEFINITION ( 'UNKNOWN', '', #291, #34 ) ;
#186 = PRESENTATION_LAYER_ASSIGNMENT (  '', '', ( #58 ) ) ;
#187 = AXIS2_PLACEMENT_3D ( 'NONE', #82, #81, #129 ) ;
#188 = FACE_OUTER_BOUND ( 'NONE', #244, .T. ) ;
#189 =( CONVERSION_BASED_UNIT ( 'INCH', #211 ) LENGTH_UNIT ( ) NAMED_UNIT ( #262 ) );
#190 = PRESENTATION_STYLE_ASSIGNMENT (( #138 ) ) ;
#191 = VERTEX_POINT ( 'NONE', #13 ) ;
#192 = CARTESIAN_POINT ( 'NONE',  ( 2.949332346337811403E-33, 0.000000000000000000, 2.408312624008205170E-17 ) ) ;
#193 = CARTESIAN_POINT ( 'NONE',  ( -0.1966536494999998608, 2.409517985681882600E-17, 0.9842519999999999047 ) ) ;
#194 = VERTEX_POINT ( 'NONE', #60 ) ;
#195 = AXIS2_PLACEMENT_3D ( 'NONE', #141, #65, #237 ) ;
#196 =( GEOMETRIC_REPRESENTATION_CONTEXT ( 3 ) GLOBAL_UNCERTAINTY_ASSIGNED_CONTEXT ( ( #84 ) ) GLOBAL_UNIT_ASSIGNED_CONTEXT ( ( #122, #268, #167 ) ) REPRESENTATION_CONTEXT ( 'NONE', 'WORKASPACE' ) );
#197 = ORIENTED_EDGE ( 'NONE', *, *, #208, .F. ) ;
#198 = DIRECTION ( 'NONE',  ( -1.224646799147353207E-16, -0.000000000000000000, -1.000000000000000000 ) ) ;
#199 = CARTESIAN_POINT ( 'NONE',  ( 0.000000000000000000, 0.000000000000000000, 0.000000000000000000 ) ) ;
#200 = ADVANCED_FACE ( 'NONE', ( #134 ), #296, .T. ) ;
#201 = CONICAL_SURFACE ( 'NONE', #227, 0.1818505000000002481, 0.7853981633974312926 ) ;
#202 = FACE_OUTER_BOUND ( 'NONE', #62, .T. ) ;
#203 = CIRCLE ( 'NONE', #111, 0.1968504999999999838 ) ;
#204 = PRODUCT ( 'Micro_AEMM-100-3', 'Micro_AEMM-100-3', '', ( #79 ) ) ;
#205 = VERTEX_POINT ( 'NONE', #22 ) ;
#206 = AXIS2_PLACEMENT_3D ( 'NONE', #228, #297, #143 ) ;
#207 = PLANE ( 'NONE',  #299 ) ;
#208 = EDGE_CURVE ( 'NONE', #42, #222, #67, .T. ) ;
#209 = CARTESIAN_POINT ( 'NONE',  ( 0.000000000000000000, 0.000000000000000000, 2.834646000000000665 ) ) ;
#210 = DIRECTION ( 'NONE',  ( -0.000000000000000000, -0.000000000000000000, -1.000000000000000000 ) ) ;
#211 = LENGTH_MEASURE_WITH_UNIT ( LENGTH_MEASURE( 0.02539999999999999897 ), #261 );
#212 = AXIS2_PLACEMENT_3D ( 'NONE', #1, #170, #115 ) ;
#213 = DIMENSIONAL_EXPONENTS ( 1.000000000000000000, 0.000000000000000000, 0.000000000000000000, 0.000000000000000000, 0.000000000000000000, 0.000000000000000000, 0.000000000000000000 ) ;
#214 = FACE_OUTER_BOUND ( 'NONE', #20, .T. ) ;
#215 = EDGE_CURVE ( 'NONE', #205, #288, #57, .T. ) ;
#216 = ORIENTED_EDGE ( 'NONE', *, *, #153, .T. ) ;
#217 = DIRECTION ( 'NONE',  ( -1.000000000000000000, 0.000000000000000000, 0.000000000000000000 ) ) ;
#218 = DIRECTION ( 'NONE',  ( 1.000000000000000000, 0.000000000000000000, 0.000000000000000000 ) ) ;
#219 = EDGE_LOOP ( 'NONE', ( #164, #216 ) ) ;
#220 = DIRECTION ( 'NONE',  ( -1.224646799147353207E-16, -0.000000000000000000, -1.000000000000000000 ) ) ;
#221 = CARTESIAN_POINT ( 'NONE',  ( -0.1818505000000002481, 0.000000000000000000, 2.834646000000000665 ) ) ;
#222 = VERTEX_POINT ( 'NONE', #263 ) ;
#223 = EDGE_CURVE ( 'NONE', #222, #7, #203, .T. ) ;
#224 = CARTESIAN_POINT ( 'NONE',  ( 0.1818505000000002481, 2.227026327483460228E-17, 2.834646000000000665 ) ) ;
#225 = DIRECTION ( 'NONE',  ( -1.000000000000000000, 0.000000000000000000, 0.000000000000000000 ) ) ;
#226 = EDGE_CURVE ( 'NONE', #156, #222, #270, .T. ) ;
#227 = AXIS2_PLACEMENT_3D ( 'NONE', #209, #256, #166 ) ;
#228 = CARTESIAN_POINT ( 'NONE',  ( 1.205361061354380629E-16, 0.000000000000000000, 0.9842519999999999047 ) ) ;
#229 = VECTOR ( 'NONE', #169, 39.37007874015748854 ) ;
#230 = EDGE_CURVE ( 'NONE', #205, #7, #253, .T. ) ;
#231 = ORIENTED_EDGE ( 'NONE', *, *, #44, .T. ) ;
#232 = CARTESIAN_POINT ( 'NONE',  ( 0.1968504999999999838, 2.410723347355560646E-17, 2.819646000000000097 ) ) ;
#233 = CONICAL_SURFACE ( 'NONE', #101, 0.1966536494999999996, 0.1745329251994338360 ) ;
#234 = COLOUR_RGB ( '',0.7921568627450980005, 0.8196078431372548767, 0.9333333333333333481 ) ;
#235 = DIRECTION ( 'NONE',  ( -1.000000000000000000, 0.000000000000000000, 0.000000000000000000 ) ) ;
#236 = DIRECTION ( 'NONE',  ( -1.000000000000000000, 0.000000000000000000, 1.224646799147353207E-16 ) ) ;
#237 = DIRECTION ( 'NONE',  ( 1.000000000000000000, 0.000000000000000000, 0.000000000000000000 ) ) ;
#238 = SURFACE_STYLE_FILL_AREA ( #5 ) ;
#239 = ORIENTED_EDGE ( 'NONE', *, *, #168, .T. ) ;
#240 = CARTESIAN_POINT ( 'NONE',  ( 1.205361061354380629E-16, 0.000000000000000000, 0.9842519999999999047 ) ) ;
#241 = CIRCLE ( 'NONE', #161, 0.1818505000000002481 ) ;
#242 = EDGE_LOOP ( 'NONE', ( #24, #3, #171, #197 ) ) ;
#243 =( LENGTH_UNIT ( ) NAMED_UNIT ( * ) SI_UNIT ( $, .METRE. ) );
#244 = EDGE_LOOP ( 'NONE', ( #135, #269, #71, #121 ) ) ;
#245 = FACE_OUTER_BOUND ( 'NONE', #219, .T. ) ;
#246 = DIRECTION ( 'NONE',  ( -1.000000000000000000, 0.000000000000000000, 1.224646799147353207E-16 ) ) ;
#247 = SHAPE_DEFINITION_REPRESENTATION ( #254, #59 ) ;
#248 = FACE_OUTER_BOUND ( 'NONE', #173, .T. ) ;
#249 = ADVANCED_FACE ( 'NONE', ( #174 ), #130, .T. ) ;
#250 = DIRECTION ( 'NONE',  ( -0.000000000000000000, -0.000000000000000000, -1.000000000000000000 ) ) ;
#251 = AXIS2_PLACEMENT_3D ( 'NONE', #199, #52, #246 ) ;
#252 = AXIS2_PLACEMENT_3D ( 'NONE', #192, #220, #86 ) ;
#253 = LINE ( 'NONE', #35, #46 ) ;
#254 = PRODUCT_DEFINITION_SHAPE ( 'NONE', 'NONE',  #185 ) ;
#255 = AXIS2_PLACEMENT_3D ( 'NONE', #163, #136, #235 ) ;
#256 = DIRECTION ( 'NONE',  ( 0.000000000000000000, 0.000000000000000000, -1.000000000000000000 ) ) ;
#257 = CARTESIAN_POINT ( 'NONE',  ( 2.949332346337811403E-33, 0.000000000000000000, 2.408312624008205170E-17 ) ) ;
#258 = APPLICATION_PROTOCOL_DEFINITION ( 'draft international standard', 'automotive_design', 1998, #107 ) ;
#259 = MECHANICAL_DESIGN_GEOMETRIC_PRESENTATION_REPRESENTATION (  '', ( #102 ), #286 ) ;
#260 = DIRECTION ( 'NONE',  ( 1.000000000000000000, 0.000000000000000000, -0.000000000000000000 ) ) ;
#261 =( LENGTH_UNIT ( ) NAMED_UNIT ( * ) SI_UNIT ( $, .METRE. ) );
#262 = DIMENSIONAL_EXPONENTS ( 1.000000000000000000, 0.000000000000000000, 0.000000000000000000, 0.000000000000000000, 0.000000000000000000, 0.000000000000000000, 0.000000000000000000 ) ;
#263 = CARTESIAN_POINT ( 'NONE',  ( -0.1968504999999998450, 0.000000000000000000, 0.9853683946618325695 ) ) ;
#264 = ADVANCED_FACE ( 'NONE', ( #202 ), #145, .T. ) ;
#265 = DIRECTION ( 'NONE',  ( -1.224646799147353207E-16, -0.000000000000000000, -1.000000000000000000 ) ) ;
#266 = DIMENSIONAL_EXPONENTS ( 1.000000000000000000, 0.000000000000000000, 0.000000000000000000, 0.000000000000000000, 0.000000000000000000, 0.000000000000000000, 0.000000000000000000 ) ;
#267 =( CONVERSION_BASED_UNIT ( 'INCH', #178 ) LENGTH_UNIT ( ) NAMED_UNIT ( #266 ) );
#268 =( NAMED_UNIT ( * ) PLANE_ANGLE_UNIT ( ) SI_UNIT ( $, .RADIAN. ) );
#269 = ORIENTED_EDGE ( 'NONE', *, *, #139, .F. ) ;
#270 = LINE ( 'NONE', #160, #26 ) ;
#271 = APPLICATION_PROTOCOL_DEFINITION ( 'draft international standard', 'automotive_design', 1998, #116 ) ;
#272 = ORIENTED_EDGE ( 'NONE', *, *, #99, .T. ) ;
#273 = DIRECTION ( 'NONE',  ( 0.000000000000000000, 0.000000000000000000, 1.000000000000000000 ) ) ;
#274 = CARTESIAN_POINT ( 'NONE',  ( 0.000000000000000000, 0.000000000000000000, 2.834646000000000665 ) ) ;
#275 = CIRCLE ( 'NONE', #252, 0.1966536494999999996 ) ;
#276 = EDGE_CURVE ( 'NONE', #205, #156, #21, .T. ) ;
#277 = CARTESIAN_POINT ( 'NONE',  ( 0.000000000000000000, 0.000000000000000000, 2.834646000000000665 ) ) ;
#278 = CARTESIAN_POINT ( 'NONE',  ( 0.000000000000000000, 0.000000000000000000, 2.834646000000000665 ) ) ;
#279 = CARTESIAN_POINT ( 'NONE',  ( 0.000000000000000000, 0.000000000000000000, 0.000000000000000000 ) ) ;
#280 = CIRCLE ( 'NONE', #90, 0.1966536494999999996 ) ;
#281 = PRESENTATION_LAYER_ASSIGNMENT (  '', '', ( #102 ) ) ;
#282 = ORIENTED_EDGE ( 'NONE', *, *, #72, .T. ) ;
#283 = ORIENTED_EDGE ( 'NONE', *, *, #230, .T. ) ;
#284 = LINE ( 'NONE', #66, #175 ) ;
#285 = CARTESIAN_POINT ( 'NONE',  ( 0.000000000000000000, 0.000000000000000000, 0.000000000000000000 ) ) ;
#286 =( GEOMETRIC_REPRESENTATION_CONTEXT ( 3 ) GLOBAL_UNCERTAINTY_ASSIGNED_CONTEXT ( ( #155 ) ) GLOBAL_UNIT_ASSIGNED_CONTEXT ( ( #189, #15, #109 ) ) REPRESENTATION_CONTEXT ( 'NONE', 'WORKASPACE' ) );
#287 = CARTESIAN_POINT ( 'NONE',  ( 1.205361061354380629E-16, 0.000000000000000000, 0.9842519999999999047 ) ) ;
#288 = VERTEX_POINT ( 'NONE', #132 ) ;
#289 = CYLINDRICAL_SURFACE ( 'NONE', #31, 0.1968504999999999838 ) ;
#290 = ORIENTED_EDGE ( 'NONE', *, *, #18, .T. ) ;
#291 = PRODUCT_DEFINITION_FORMATION_WITH_SPECIFIED_SOURCE ( 'ANY', '', #204, .NOT_KNOWN. ) ;
#292 = ORIENTED_EDGE ( 'NONE', *, *, #276, .T. ) ;
#293 = DIRECTION ( 'NONE',  ( -0.1736481776669311639, 2.126576849575782392E-17, 0.9848077530122080203 ) ) ;
#294 = DIRECTION ( 'NONE',  ( 0.000000000000000000, 0.000000000000000000, 1.000000000000000000 ) ) ;
#295 = PRESENTATION_STYLE_ASSIGNMENT (( #150 ) ) ;
#296 = CONICAL_SURFACE ( 'NONE', #255, 0.1818505000000002481, 0.7853981633974312926 ) ;
#297 = DIRECTION ( 'NONE',  ( 1.224646799147353207E-16, 0.000000000000000000, 1.000000000000000000 ) ) ;
#298 = EDGE_CURVE ( 'NONE', #288, #191, #275, .T. ) ;
#299 = AXIS2_PLACEMENT_3D ( 'NONE', #285, #140, #260 ) ;
ENDSEC;
END-ISO-10303-21;
