ISO-10303-21;
HEADER;
FILE_DESCRIPTION (( 'STEP AP214' ),
    '1' );
FILE_NAME ('59591.STEP',
    '2023-07-24T15:13:27',
    ( '' ),
    ( '' ),
    'SwSTEP 2.0',
    'SolidWorks 2023',
    '' );
FILE_SCHEMA (( 'AUTOMOTIVE_DESIGN' ));
ENDSEC;

DATA;
#1 = DIRECTION ( 'NONE',  ( -1.000000000000000000, 0.000000000000000000, 0.000000000000000000 ) ) ;
#2 =( NAMED_UNIT ( * ) PLANE_ANGLE_UNIT ( ) SI_UNIT ( $, .RADIAN. ) );
#3 = FILL_AREA_STYLE_COLOUR ( '', #293 ) ;
#4 = PRODUCT ( '59591', '59591', '', ( #46 ) ) ;
#5 = DIRECTION ( 'NONE',  ( -0.000000000000000000, -1.000000000000000000, -0.000000000000000000 ) ) ;
#6 = EDGE_LOOP ( 'NONE', ( #175, #202, #336, #273 ) ) ;
#7 = PRESENTATION_STYLE_ASSIGNMENT (( #36 ) ) ;
#8 = DIRECTION ( 'NONE',  ( -0.000000000000000000, -1.000000000000000000, -0.000000000000000000 ) ) ;
#9 = AXIS2_PLACEMENT_3D ( 'NONE', #35, #8, #93 ) ;
#10 = MECHANICAL_DESIGN_GEOMETRIC_PRESENTATION_REPRESENTATION (  '', ( #367 ), #184 ) ;
#11 =( LENGTH_UNIT ( ) NAMED_UNIT ( * ) SI_UNIT ( .MILLI., .METRE. ) );
#12 = CARTESIAN_POINT ( 'NONE',  ( 1.224646799147353454E-15, 0.000000000000000000, 10.00000000000000178 ) ) ;
#13 = UNCERTAINTY_MEASURE_WITH_UNIT (LENGTH_MEASURE( 1.000000000000000082E-05 ), #291, 'distance_accuracy_value', 'NONE');
#14 = ORIENTED_EDGE ( 'NONE', *, *, #268, .T. ) ;
#15 = SURFACE_SIDE_STYLE ('',( #238 ) ) ;
#16 = CARTESIAN_POINT ( 'NONE',  ( 9.999999999999996447, 89.00000000000000000, 1.224646799147353059E-15 ) ) ;
#17 = DIRECTION ( 'NONE',  ( -0.000000000000000000, -1.000000000000000000, -0.000000000000000000 ) ) ;
#18 = CARTESIAN_POINT ( 'NONE',  ( 0.000000000000000000, 0.000000000000000000, 0.000000000000000000 ) ) ;
#19 = SURFACE_STYLE_FILL_AREA ( #217 ) ;
#20 = DIRECTION ( 'NONE',  ( 0.000000000000000000, 0.000000000000000000, 1.000000000000000000 ) ) ;
#21 = CIRCLE ( 'NONE', #230, 1.000000000000000888 ) ;
#22 = MECHANICAL_DESIGN_GEOMETRIC_PRESENTATION_REPRESENTATION (  '', ( #313 ), #150 ) ;
#23 = ORIENTED_EDGE ( 'NONE', *, *, #29, .F. ) ;
#24 =( NAMED_UNIT ( * ) PLANE_ANGLE_UNIT ( ) SI_UNIT ( $, .RADIAN. ) );
#25 = EDGE_CURVE ( 'NONE', #327, #66, #40, .T. ) ;
#26 = VERTEX_POINT ( 'NONE', #39 ) ;
#27 = UNCERTAINTY_MEASURE_WITH_UNIT (LENGTH_MEASURE( 1.000000000000000082E-05 ), #365, 'distance_accuracy_value', 'NONE');
#28 = COLOUR_RGB ( '',1.000000000000000000, 0.000000000000000000, 0.000000000000000000 ) ;
#29 = EDGE_CURVE ( 'NONE', #105, #199, #49, .T. ) ;
#30 = FACE_OUTER_BOUND ( 'NONE', #297, .T. ) ;
#31 = CARTESIAN_POINT ( 'NONE',  ( -1.714505518806293849E-15, 89.00000000000000000, 0.000000000000000000 ) ) ;
#32 = MECHANICAL_DESIGN_GEOMETRIC_PRESENTATION_REPRESENTATION (  '', ( #305 ), #261 ) ;
#33 = DIRECTION ( 'NONE',  ( -1.576935716305902603E-16, 1.000000000000000000, -0.000000000000000000 ) ) ;
#34 = CARTESIAN_POINT ( 'NONE',  ( 0.000000000000000000, 1.000000000000000000, -9.000000000000001776 ) ) ;
#35 = CARTESIAN_POINT ( 'NONE',  ( 0.000000000000000000, 1.000000000000000000, 0.000000000000000000 ) ) ;
#36 = SURFACE_STYLE_USAGE ( .BOTH. , #92 ) ;
#37 =( NAMED_UNIT ( * ) PLANE_ANGLE_UNIT ( ) SI_UNIT ( $, .RADIAN. ) );
#38 =( NAMED_UNIT ( * ) SI_UNIT ( $, .STERADIAN. ) SOLID_ANGLE_UNIT ( ) );
#39 = CARTESIAN_POINT ( 'NONE',  ( 0.000000000000000000, 30.00000000000000000, -10.00000000000000000 ) ) ;
#40 = CIRCLE ( 'NONE', #43, 9.000000000000001776 ) ;
#41 = COLOUR_RGB ( '',1.000000000000000000, 0.000000000000000000, 0.000000000000000000 ) ;
#42 = SURFACE_STYLE_FILL_AREA ( #329 ) ;
#43 = AXIS2_PLACEMENT_3D ( 'NONE', #303, #146, #271 ) ;
#44 =( LENGTH_UNIT ( ) NAMED_UNIT ( * ) SI_UNIT ( .MILLI., .METRE. ) );
#45 = PRODUCT_DEFINITION_FORMATION_WITH_SPECIFIED_SOURCE ( 'ANY', '', #4, .NOT_KNOWN. ) ;
#46 = PRODUCT_CONTEXT ( 'NONE', #253, 'mechanical' ) ;
#47 = PRESENTATION_STYLE_ASSIGNMENT (( #248 ) ) ;
#48 = CARTESIAN_POINT ( 'NONE',  ( 0.000000000000000000, 0.000000000000000000, 0.000000000000000000 ) ) ;
#49 = CIRCLE ( 'NONE', #9, 10.00000000000000178 ) ;
#50 = SURFACE_SIDE_STYLE ('',( #76 ) ) ;
#51 = EDGE_CURVE ( 'NONE', #259, #105, #208, .T. ) ;
#52 = SURFACE_SIDE_STYLE ('',( #167 ) ) ;
#53 = ORIENTED_EDGE ( 'NONE', *, *, #358, .T. ) ;
#54 = PRESENTATION_LAYER_ASSIGNMENT (  '', '', ( #364 ) ) ;
#55 = DIRECTION ( 'NONE',  ( 0.000000000000000000, 0.000000000000000000, -1.000000000000000000 ) ) ;
#56 = SURFACE_STYLE_USAGE ( .BOTH. , #326 ) ;
#57 = UNCERTAINTY_MEASURE_WITH_UNIT (LENGTH_MEASURE( 1.000000000000000082E-05 ), #80, 'distance_accuracy_value', 'NONE');
#58 = CARTESIAN_POINT ( 'NONE',  ( -1.714505518806293652E-15, 89.00000000000000000, 0.000000000000000000 ) ) ;
#59 = CARTESIAN_POINT ( 'NONE',  ( -1.714505518806293849E-15, 89.00000000000000000, 0.000000000000000000 ) ) ;
#60 = ORIENTED_EDGE ( 'NONE', *, *, #168, .F. ) ;
#61 = ORIENTED_EDGE ( 'NONE', *, *, #237, .T. ) ;
#62 = EDGE_LOOP ( 'NONE', ( #181, #269, #314, #349 ) ) ;
#63 =( NAMED_UNIT ( * ) PLANE_ANGLE_UNIT ( ) SI_UNIT ( $, .RADIAN. ) );
#64 = EDGE_LOOP ( 'NONE', ( #14, #341 ) ) ;
#65 = DIRECTION ( 'NONE',  ( -1.224646799147353454E-16, 0.000000000000000000, -1.000000000000000000 ) ) ;
#66 = VERTEX_POINT ( 'NONE', #244 ) ;
#67 = AXIS2_PLACEMENT_3D ( 'NONE', #31, #140, #1 ) ;
#68 = ADVANCED_FACE ( 'NONE', ( #210 ), #170, .T. ) ;
#69 = AXIS2_PLACEMENT_3D ( 'NONE', #204, #298, #65 ) ;
#70 = DIRECTION ( 'NONE',  ( -0.000000000000000000, -1.000000000000000000, -0.000000000000000000 ) ) ;
#71 = DIRECTION ( 'NONE',  ( 0.000000000000000000, -1.000000000000000000, -0.000000000000000000 ) ) ;
#72 = SURFACE_STYLE_FILL_AREA ( #159 ) ;
#73 = COLOUR_RGB ( '',1.000000000000000000, 0.000000000000000000, 0.000000000000000000 ) ;
#74 = COLOUR_RGB ( '',1.000000000000000000, 0.000000000000000000, 0.000000000000000000 ) ;
#75 = FACE_OUTER_BOUND ( 'NONE', #64, .T. ) ;
#76 = SURFACE_STYLE_FILL_AREA ( #160 ) ;
#77 = CIRCLE ( 'NONE', #69, 1.000000000000000888 ) ;
#78 = ADVANCED_FACE ( 'NONE', ( #152 ), #307, .T. ) ;
#79 = SURFACE_STYLE_USAGE ( .BOTH. , #50 ) ;
#80 =( LENGTH_UNIT ( ) NAMED_UNIT ( * ) SI_UNIT ( .MILLI., .METRE. ) );
#81 = CLOSED_SHELL ( 'NONE', ( #186, #180, #165, #295, #247, #68 ) ) ;
#82 = MECHANICAL_DESIGN_GEOMETRIC_PRESENTATION_REPRESENTATION (  '', ( #263 ), #136 ) ;
#83 = DIRECTION ( 'NONE',  ( -1.000000000000000000, 0.000000000000000000, 0.000000000000000000 ) ) ;
#84 = PRESENTATION_LAYER_ASSIGNMENT (  '', '', ( #367 ) ) ;
#85 = DIRECTION ( 'NONE',  ( 0.000000000000000000, 0.000000000000000000, -1.000000000000000000 ) ) ;
#86 = ORIENTED_EDGE ( 'NONE', *, *, #268, .F. ) ;
#87 = UNCERTAINTY_MEASURE_WITH_UNIT (LENGTH_MEASURE( 1.000000000000000082E-05 ), #44, 'distance_accuracy_value', 'NONE');
#88 = FILL_AREA_STYLE ('',( #137 ) ) ;
#89 = DIRECTION ( 'NONE',  ( 0.000000000000000000, 0.000000000000000000, -1.000000000000000000 ) ) ;
#90 = ORIENTED_EDGE ( 'NONE', *, *, #154, .T. ) ;
#91 = CARTESIAN_POINT ( 'NONE',  ( 10.00000000000000000, 89.00000000000000000, 1.224646799147353256E-15 ) ) ;
#92 = SURFACE_SIDE_STYLE ('',( #299 ) ) ;
#93 = DIRECTION ( 'NONE',  ( 0.000000000000000000, 0.000000000000000000, -1.000000000000000000 ) ) ;
#94 = ADVANCED_FACE ( 'NONE', ( #145 ), #296, .F. ) ;
#95 = DIRECTION ( 'NONE',  ( 0.000000000000000000, 0.000000000000000000, -1.000000000000000000 ) ) ;
#96 = ORIENTED_EDGE ( 'NONE', *, *, #132, .T. ) ;
#97 = CARTESIAN_POINT ( 'NONE',  ( 0.000000000000000000, 0.000000000000000000, -10.00000000000000178 ) ) ;
#98 = MECHANICAL_DESIGN_GEOMETRIC_PRESENTATION_REPRESENTATION (  '', ( #220 ), #321 ) ;
#99 = VECTOR ( 'NONE', #70, 1000.000000000000000 ) ;
#100 = DIRECTION ( 'NONE',  ( -1.000000000000000000, -1.576935716305902603E-16, 0.000000000000000000 ) ) ;
#101 = EDGE_CURVE ( 'NONE', #199, #105, #125, .T. ) ;
#102 = FILL_AREA_STYLE_COLOUR ( '', #74 ) ;
#103 = VECTOR ( 'NONE', #252, 1000.000000000000000 ) ;
#104 = AXIS2_PLACEMENT_3D ( 'NONE', #345, #5, #89 ) ;
#105 = VERTEX_POINT ( 'NONE', #209 ) ;
#106 = PRODUCT_DEFINITION_CONTEXT ( 'detailed design', #211, 'design' ) ;
#107 = DIRECTION ( 'NONE',  ( -1.576935716305902603E-16, 1.000000000000000000, -0.000000000000000000 ) ) ;
#108 = ORIENTED_EDGE ( 'NONE', *, *, #274, .F. ) ;
#109 = FILL_AREA_STYLE_COLOUR ( '', #281 ) ;
#110 = AXIS2_PLACEMENT_3D ( 'NONE', #112, #267, #233 ) ;
#111 = DIRECTION ( 'NONE',  ( -1.000000000000000000, 0.000000000000000000, 0.000000000000000000 ) ) ;
#112 = CARTESIAN_POINT ( 'NONE',  ( -1.714505518806293652E-15, 89.00000000000000000, 0.000000000000000000 ) ) ;
#113 = EDGE_CURVE ( 'NONE', #199, #66, #21, .T. ) ;
#114 = ORIENTED_EDGE ( 'NONE', *, *, #213, .T. ) ;
#115 = DIRECTION ( 'NONE',  ( -1.000000000000000000, 0.000000000000000000, 0.000000000000000000 ) ) ;
#116 = DIRECTION ( 'NONE',  ( 0.000000000000000000, 1.000000000000000000, 0.000000000000000000 ) ) ;
#117 = ORIENTED_EDGE ( 'NONE', *, *, #274, .T. ) ;
#118 = EDGE_LOOP ( 'NONE', ( #133, #90, #114, #23 ) ) ;
#119 = DIRECTION ( 'NONE',  ( -1.000000000000000000, 0.000000000000000000, 0.000000000000000000 ) ) ;
#120 = DIRECTION ( 'NONE',  ( -0.000000000000000000, -1.000000000000000000, -0.000000000000000000 ) ) ;
#121 = LINE ( 'NONE', #126, #232 ) ;
#122 = FILL_AREA_STYLE_COLOUR ( '', #73 ) ;
#123 = PRESENTATION_STYLE_ASSIGNMENT (( #276 ) ) ;
#124 = PRESENTATION_STYLE_ASSIGNMENT (( #188 ) ) ;
#125 = CIRCLE ( 'NONE', #335, 10.00000000000000178 ) ;
#126 = CARTESIAN_POINT ( 'NONE',  ( -10.00000000000000000, 89.00000000000000000, 0.000000000000000000 ) ) ;
#127 =( NAMED_UNIT ( * ) PLANE_ANGLE_UNIT ( ) SI_UNIT ( $, .RADIAN. ) );
#128 = ADVANCED_FACE ( 'NONE', ( #265 ), #290, .T. ) ;
#129 = APPLICATION_PROTOCOL_DEFINITION ( 'draft international standard', 'automotive_design', 1998, #253 ) ;
#130 = CARTESIAN_POINT ( 'NONE',  ( 0.000000000000000000, 30.00000000000000000, 0.000000000000000000 ) ) ;
#131 = LINE ( 'NONE', #97, #99 ) ;
#132 = EDGE_CURVE ( 'NONE', #228, #344, #283, .T. ) ;
#133 = ORIENTED_EDGE ( 'NONE', *, *, #51, .F. ) ;
#134 = VERTEX_POINT ( 'NONE', #143 ) ;
#135 = AXIS2_PLACEMENT_3D ( 'NONE', #48, #282, #55 ) ;
#136 =( GEOMETRIC_REPRESENTATION_CONTEXT ( 3 ) GLOBAL_UNCERTAINTY_ASSIGNED_CONTEXT ( ( #337 ) ) GLOBAL_UNIT_ASSIGNED_CONTEXT ( ( #353, #223, #310 ) ) REPRESENTATION_CONTEXT ( 'NONE', 'WORKASPACE' ) );
#137 = FILL_AREA_STYLE_COLOUR ( '', #41 ) ;
#138 = STYLED_ITEM ( 'NONE', ( #7 ), #157 ) ;
#139 = TOROIDAL_SURFACE ( 'NONE', #227, 9.000000000000001776, 1.000000000000000444 ) ;
#140 = DIRECTION ( 'NONE',  ( -1.576935716305902603E-16, 1.000000000000000000, -0.000000000000000000 ) ) ;
#141 = FACE_OUTER_BOUND ( 'NONE', #234, .T. ) ;
#142 =( NAMED_UNIT ( * ) SI_UNIT ( $, .STERADIAN. ) SOLID_ANGLE_UNIT ( ) );
#143 = CARTESIAN_POINT ( 'NONE',  ( 10.00000000000000000, 30.00000000000000000, 1.224646799147353256E-15 ) ) ;
#144 = ORIENTED_EDGE ( 'NONE', *, *, #113, .T. ) ;
#145 = FACE_OUTER_BOUND ( 'NONE', #206, .T. ) ;
#146 = DIRECTION ( 'NONE',  ( -0.000000000000000000, -1.000000000000000000, -0.000000000000000000 ) ) ;
#147 =( LENGTH_UNIT ( ) NAMED_UNIT ( * ) SI_UNIT ( .MILLI., .METRE. ) );
#148 =( NAMED_UNIT ( * ) PLANE_ANGLE_UNIT ( ) SI_UNIT ( $, .RADIAN. ) );
#149 = ORIENTED_EDGE ( 'NONE', *, *, #197, .F. ) ;
#150 =( GEOMETRIC_REPRESENTATION_CONTEXT ( 3 ) GLOBAL_UNCERTAINTY_ASSIGNED_CONTEXT ( ( #27 ) ) GLOBAL_UNIT_ASSIGNED_CONTEXT ( ( #365, #24, #262 ) ) REPRESENTATION_CONTEXT ( 'NONE', 'WORKASPACE' ) );
#151 = CARTESIAN_POINT ( 'NONE',  ( -9.999999999999985789, 30.00000000000000000, 0.000000000000000000 ) ) ;
#152 = FACE_OUTER_BOUND ( 'NONE', #6, .T. ) ;
#153 = SURFACE_SIDE_STYLE ('',( #42 ) ) ;
#154 = EDGE_CURVE ( 'NONE', #259, #26, #279, .T. ) ;
#155 = AXIS2_PLACEMENT_3D ( 'NONE', #362, #20, #218 ) ;
#156 =( NAMED_UNIT ( * ) PLANE_ANGLE_UNIT ( ) SI_UNIT ( $, .RADIAN. ) );
#157 = MANIFOLD_SOLID_BREP ( 'Revolve - Cutting Edge', #81 ) ;
#158 = SHAPE_DEFINITION_REPRESENTATION ( #257, #289 ) ;
#159 = FILL_AREA_STYLE ('',( #102 ) ) ;
#160 = FILL_AREA_STYLE ('',( #334 ) ) ;
#161 = AXIS2_PLACEMENT_3D ( 'NONE', #18, #17, #254 ) ;
#162 = DIRECTION ( 'NONE',  ( -1.000000000000000000, 0.000000000000000000, 0.000000000000000000 ) ) ;
#163 = ORIENTED_EDGE ( 'NONE', *, *, #29, .T. ) ;
#164 = UNCERTAINTY_MEASURE_WITH_UNIT (LENGTH_MEASURE( 1.000000000000000082E-05 ), #147, 'distance_accuracy_value', 'NONE');
#165 = ADVANCED_FACE ( 'NONE', ( #75 ), #205, .T. ) ;
#166 = AXIS2_PLACEMENT_3D ( 'NONE', #58, #107, #83 ) ;
#167 = SURFACE_STYLE_FILL_AREA ( #315 ) ;
#168 = EDGE_CURVE ( 'NONE', #236, #134, #354, .T. ) ;
#169 = CARTESIAN_POINT ( 'NONE',  ( 0.000000000000000000, 1.000000000000000000, 0.000000000000000000 ) ) ;
#170 = PLANE ( 'NONE',  #203 ) ;
#171 = PRESENTATION_LAYER_ASSIGNMENT (  '', '', ( #220 ) ) ;
#172 = PRESENTATION_STYLE_ASSIGNMENT (( #352 ) ) ;
#173 = SURFACE_STYLE_FILL_AREA ( #88 ) ;
#174 =( GEOMETRIC_REPRESENTATION_CONTEXT ( 3 ) GLOBAL_UNCERTAINTY_ASSIGNED_CONTEXT ( ( #260 ) ) GLOBAL_UNIT_ASSIGNED_CONTEXT ( ( #11, #37, #242 ) ) REPRESENTATION_CONTEXT ( 'NONE', 'WORKASPACE' ) );
#175 = ORIENTED_EDGE ( 'NONE', *, *, #168, .T. ) ;
#176 = DIRECTION ( 'NONE',  ( -0.000000000000000000, -1.000000000000000000, -0.000000000000000000 ) ) ;
#177 = FILL_AREA_STYLE ('',( #324 ) ) ;
#178 = EDGE_LOOP ( 'NONE', ( #351, #163, #144, #224 ) ) ;
#179 = DIRECTION ( 'NONE',  ( 1.000000000000000000, 1.576935716305902603E-16, 0.000000000000000000 ) ) ;
#180 = ADVANCED_FACE ( 'NONE', ( #30 ), #139, .T. ) ;
#181 = ORIENTED_EDGE ( 'NONE', *, *, #197, .T. ) ;
#182 = AXIS2_PLACEMENT_3D ( 'NONE', #243, #240, #179 ) ;
#183 = ORIENTED_EDGE ( 'NONE', *, *, #154, .F. ) ;
#184 =( GEOMETRIC_REPRESENTATION_CONTEXT ( 3 ) GLOBAL_UNCERTAINTY_ASSIGNED_CONTEXT ( ( #57 ) ) GLOBAL_UNIT_ASSIGNED_CONTEXT ( ( #80, #148, #142 ) ) REPRESENTATION_CONTEXT ( 'NONE', 'WORKASPACE' ) );
#185 = CYLINDRICAL_SURFACE ( 'NONE', #135, 10.00000000000000178 ) ;
#186 = ADVANCED_FACE ( 'NONE', ( #277 ), #361, .T. ) ;
#187 = DIRECTION ( 'NONE',  ( 0.000000000000000000, 0.000000000000000000, -1.000000000000000000 ) ) ;
#188 = SURFACE_STYLE_USAGE ( .BOTH. , #249 ) ;
#189 =( GEOMETRIC_REPRESENTATION_CONTEXT ( 3 ) GLOBAL_UNCERTAINTY_ASSIGNED_CONTEXT ( ( #245 ) ) GLOBAL_UNIT_ASSIGNED_CONTEXT ( ( #312, #127, #360 ) ) REPRESENTATION_CONTEXT ( 'NONE', 'WORKASPACE' ) );
#190 = MECHANICAL_DESIGN_GEOMETRIC_PRESENTATION_REPRESENTATION (  '', ( #272 ), #195 ) ;
#191 = SURFACE_SIDE_STYLE ('',( #19 ) ) ;
#192 = CLOSED_SHELL ( 'NONE', ( #78, #319, #128, #94 ) ) ;
#193 = PRESENTATION_LAYER_ASSIGNMENT (  '', '', ( #305 ) ) ;
#194 = CIRCLE ( 'NONE', #356, 9.999999999999992895 ) ;
#195 =( GEOMETRIC_REPRESENTATION_CONTEXT ( 3 ) GLOBAL_UNCERTAINTY_ASSIGNED_CONTEXT ( ( #286 ) ) GLOBAL_UNIT_ASSIGNED_CONTEXT ( ( #294, #322, #330 ) ) REPRESENTATION_CONTEXT ( 'NONE', 'WORKASPACE' ) );
#196 = EDGE_LOOP ( 'NONE', ( #149, #183 ) ) ;
#197 = EDGE_CURVE ( 'NONE', #26, #259, #284, .T. ) ;
#198 = AXIS2_PLACEMENT_3D ( 'NONE', #280, #225, #162 ) ;
#199 = VERTEX_POINT ( 'NONE', #332 ) ;
#200 = DIRECTION ( 'NONE',  ( -0.000000000000000000, -1.000000000000000000, -0.000000000000000000 ) ) ;
#201 = DIRECTION ( 'NONE',  ( 0.000000000000000000, -0.000000000000000000, 1.000000000000000000 ) ) ;
#202 = ORIENTED_EDGE ( 'NONE', *, *, #226, .T. ) ;
#203 = AXIS2_PLACEMENT_3D ( 'NONE', #270, #116, #201 ) ;
#204 = CARTESIAN_POINT ( 'NONE',  ( 1.102182119232617911E-15, 1.000000000000000000, 9.000000000000001776 ) ) ;
#205 = PLANE ( 'NONE',  #363 ) ;
#206 = EDGE_LOOP ( 'NONE', ( #96, #117 ) ) ;
#207 = CARTESIAN_POINT ( 'NONE',  ( 0.000000000000000000, 1.000000000000000000, 0.000000000000000000 ) ) ;
#208 = LINE ( 'NONE', #12, #304 ) ;
#209 = CARTESIAN_POINT ( 'NONE',  ( 1.224646799147353256E-15, 1.000000000000000000, 10.00000000000000178 ) ) ;
#210 = FACE_OUTER_BOUND ( 'NONE', #196, .T. ) ;
#211 = APPLICATION_CONTEXT ( 'automotive_design' ) ;
#212 = MECHANICAL_DESIGN_GEOMETRIC_PRESENTATION_REPRESENTATION (  '', ( #138 ), #189 ) ;
#213 = EDGE_CURVE ( 'NONE', #26, #199, #131, .T. ) ;
#214 = CARTESIAN_POINT ( 'NONE',  ( 1.163414459189985682E-15, 0.000000000000000000, 9.000000000000001776 ) ) ;
#215 = CARTESIAN_POINT ( 'NONE',  ( 0.000000000000000000, 0.000000000000000000, 0.000000000000000000 ) ) ;
#216 =( NAMED_UNIT ( * ) SI_UNIT ( $, .STERADIAN. ) SOLID_ANGLE_UNIT ( ) );
#217 = FILL_AREA_STYLE ('',( #122 ) ) ;
#218 = DIRECTION ( 'NONE',  ( 1.000000000000000000, 0.000000000000000000, 0.000000000000000000 ) ) ;
#219 = DIRECTION ( 'NONE',  ( -0.000000000000000000, -1.000000000000000000, -0.000000000000000000 ) ) ;
#220 = STYLED_ITEM ( 'NONE', ( #123 ), #68 ) ;
#221 = PRESENTATION_LAYER_ASSIGNMENT (  '', '', ( #138 ) ) ;
#222 = DIRECTION ( 'NONE',  ( 0.000000000000000000, 0.000000000000000000, -1.000000000000000000 ) ) ;
#223 =( NAMED_UNIT ( * ) PLANE_ANGLE_UNIT ( ) SI_UNIT ( $, .RADIAN. ) );
#224 = ORIENTED_EDGE ( 'NONE', *, *, #25, .F. ) ;
#225 = DIRECTION ( 'NONE',  ( -1.576935716305902603E-16, 1.000000000000000000, -0.000000000000000000 ) ) ;
#226 = EDGE_CURVE ( 'NONE', #134, #344, #256, .T. ) ;
#227 = AXIS2_PLACEMENT_3D ( 'NONE', #207, #200, #222 ) ;
#228 = VERTEX_POINT ( 'NONE', #275 ) ;
#229 = PRODUCT_RELATED_PRODUCT_CATEGORY ( 'part', '', ( #4 ) ) ;
#230 = AXIS2_PLACEMENT_3D ( 'NONE', #34, #111, #348 ) ;
#231 = CARTESIAN_POINT ( 'NONE',  ( 1.224646799147353256E-15, 30.00000000000000000, 10.00000000000000000 ) ) ;
#232 = VECTOR ( 'NONE', #246, 1000.000000000000000 ) ;
#233 = DIRECTION ( 'NONE',  ( -1.000000000000000000, 0.000000000000000000, 0.000000000000000000 ) ) ;
#234 = EDGE_LOOP ( 'NONE', ( #60, #288 ) ) ;
#235 = DIRECTION ( 'NONE',  ( -1.576935716305902603E-16, 1.000000000000000000, 0.000000000000000000 ) ) ;
#236 = VERTEX_POINT ( 'NONE', #151 ) ;
#237 = EDGE_CURVE ( 'NONE', #236, #228, #121, .T. ) ;
#238 = SURFACE_STYLE_FILL_AREA ( #301 ) ;
#239 = AXIS2_PLACEMENT_3D ( 'NONE', #309, #235, #100 ) ;
#240 = DIRECTION ( 'NONE',  ( 1.576935716305902603E-16, -1.000000000000000000, 0.000000000000000000 ) ) ;
#241 = ORIENTED_EDGE ( 'NONE', *, *, #101, .T. ) ;
#242 =( NAMED_UNIT ( * ) SI_UNIT ( $, .STERADIAN. ) SOLID_ANGLE_UNIT ( ) );
#243 = CARTESIAN_POINT ( 'NONE',  ( 10.00000000000000000, 89.00000000000000000, 0.000000000000000000 ) ) ;
#244 = CARTESIAN_POINT ( 'NONE',  ( 0.000000000000000000, 0.000000000000000000, -9.000000000000001776 ) ) ;
#245 = UNCERTAINTY_MEASURE_WITH_UNIT (LENGTH_MEASURE( 1.000000000000000082E-05 ), #312, 'distance_accuracy_value', 'NONE');
#246 = DIRECTION ( 'NONE',  ( -1.576935716305902603E-16, 1.000000000000000000, -0.000000000000000000 ) ) ;
#247 = ADVANCED_FACE ( 'NONE', ( #359 ), #185, .T. ) ;
#248 = SURFACE_STYLE_USAGE ( .BOTH. , #191 ) ;
#249 = SURFACE_SIDE_STYLE ('',( #72 ) ) ;
#250 = CARTESIAN_POINT ( 'NONE',  ( 0.000000000000000000, 1.000000000000000000, 0.000000000000000000 ) ) ;
#251 = AXIS2_PLACEMENT_3D ( 'NONE', #339, #342, #85 ) ;
#252 = DIRECTION ( 'NONE',  ( -1.576935716305902603E-16, 1.000000000000000000, -0.000000000000000000 ) ) ;
#253 = APPLICATION_CONTEXT ( 'automotive_design' ) ;
#254 = DIRECTION ( 'NONE',  ( 0.000000000000000000, 0.000000000000000000, -1.000000000000000000 ) ) ;
#255 = APPLICATION_PROTOCOL_DEFINITION ( 'draft international standard', 'automotive_design', 1998, #211 ) ;
#256 = LINE ( 'NONE', #16, #103 ) ;
#257 = PRODUCT_DEFINITION_SHAPE ( 'NONE', 'NONE',  #369 ) ;
#258 = CIRCLE ( 'NONE', #166, 10.00000000000000178 ) ;
#259 = VERTEX_POINT ( 'NONE', #231 ) ;
#260 = UNCERTAINTY_MEASURE_WITH_UNIT (LENGTH_MEASURE( 1.000000000000000082E-05 ), #11, 'distance_accuracy_value', 'NONE');
#261 =( GEOMETRIC_REPRESENTATION_CONTEXT ( 3 ) GLOBAL_UNCERTAINTY_ASSIGNED_CONTEXT ( ( #164 ) ) GLOBAL_UNIT_ASSIGNED_CONTEXT ( ( #147, #63, #38 ) ) REPRESENTATION_CONTEXT ( 'NONE', 'WORKASPACE' ) );
#262 =( NAMED_UNIT ( * ) SI_UNIT ( $, .STERADIAN. ) SOLID_ANGLE_UNIT ( ) );
#263 = STYLED_ITEM ( 'NONE', ( #47 ), #165 ) ;
#264 = MECHANICAL_DESIGN_GEOMETRIC_PRESENTATION_REPRESENTATION (  '', ( #364 ), #331 ) ;
#265 = FACE_OUTER_BOUND ( 'NONE', #308, .T. ) ;
#266 = FACE_OUTER_BOUND ( 'NONE', #178, .T. ) ;
#267 = DIRECTION ( 'NONE',  ( -1.576935716305902603E-16, 1.000000000000000000, -0.000000000000000000 ) ) ;
#268 = EDGE_CURVE ( 'NONE', #66, #327, #357, .T. ) ;
#269 = ORIENTED_EDGE ( 'NONE', *, *, #51, .T. ) ;
#270 = CARTESIAN_POINT ( 'NONE',  ( 0.000000000000000000, 30.00000000000000000, 0.000000000000000000 ) ) ;
#271 = DIRECTION ( 'NONE',  ( 0.000000000000000000, 0.000000000000000000, -1.000000000000000000 ) ) ;
#272 = STYLED_ITEM ( 'NONE', ( #172 ), #295 ) ;
#273 = ORIENTED_EDGE ( 'NONE', *, *, #237, .F. ) ;
#274 = EDGE_CURVE ( 'NONE', #344, #228, #258, .T. ) ;
#275 = CARTESIAN_POINT ( 'NONE',  ( -10.00000000000000355, 89.00000000000000000, 0.000000000000000000 ) ) ;
#276 = SURFACE_STYLE_USAGE ( .BOTH. , #153 ) ;
#277 = FACE_OUTER_BOUND ( 'NONE', #62, .T. ) ;
#278 = DIRECTION ( 'NONE',  ( 0.000000000000000000, 0.000000000000000000, -1.000000000000000000 ) ) ;
#279 = CIRCLE ( 'NONE', #104, 10.00000000000000000 ) ;
#280 = CARTESIAN_POINT ( 'NONE',  ( 7.589415207398531038E-15, 30.00000000000000000, 0.000000000000000000 ) ) ;
#281 = COLOUR_RGB ( '',0.7921568627450980005, 0.8196078431372548767, 0.9333333333333333481 ) ;
#282 = DIRECTION ( 'NONE',  ( -0.000000000000000000, -1.000000000000000000, -0.000000000000000000 ) ) ;
#283 = CIRCLE ( 'NONE', #110, 10.00000000000000178 ) ;
#284 = CIRCLE ( 'NONE', #347, 10.00000000000000000 ) ;
#285 = MANIFOLD_SOLID_BREP ( 'Revolve - Tool Body (Straight Shanked)', #192 ) ;
#286 = UNCERTAINTY_MEASURE_WITH_UNIT (LENGTH_MEASURE( 1.000000000000000082E-05 ), #294, 'distance_accuracy_value', 'NONE');
#287 = TOROIDAL_SURFACE ( 'NONE', #317, 9.000000000000001776, 1.000000000000000444 ) ;
#288 = ORIENTED_EDGE ( 'NONE', *, *, #343, .F. ) ;
#289 = ADVANCED_BREP_SHAPE_REPRESENTATION ( '59591', ( #157, #285, #155 ), #174 ) ;
#290 = CYLINDRICAL_SURFACE ( 'NONE', #67, 9.999999999999998224 ) ;
#291 =( LENGTH_UNIT ( ) NAMED_UNIT ( * ) SI_UNIT ( .MILLI., .METRE. ) );
#292 = AXIS2_PLACEMENT_3D ( 'NONE', #59, #302, #119 ) ;
#293 = COLOUR_RGB ( '',1.000000000000000000, 0.000000000000000000, 0.000000000000000000 ) ;
#294 =( LENGTH_UNIT ( ) NAMED_UNIT ( * ) SI_UNIT ( .MILLI., .METRE. ) );
#295 = ADVANCED_FACE ( 'NONE', ( #266 ), #287, .T. ) ;
#296 = PLANE ( 'NONE',  #182 ) ;
#297 = EDGE_LOOP ( 'NONE', ( #241, #53, #86, #325 ) ) ;
#298 = DIRECTION ( 'NONE',  ( 1.000000000000000000, 0.000000000000000000, -1.224646799147353207E-16 ) ) ;
#299 = SURFACE_STYLE_FILL_AREA ( #177 ) ;
#300 = ORIENTED_EDGE ( 'NONE', *, *, #226, .F. ) ;
#301 = FILL_AREA_STYLE ('',( #3 ) ) ;
#302 = DIRECTION ( 'NONE',  ( -1.576935716305902603E-16, 1.000000000000000000, -0.000000000000000000 ) ) ;
#303 = CARTESIAN_POINT ( 'NONE',  ( 0.000000000000000000, 0.000000000000000000, 0.000000000000000000 ) ) ;
#304 = VECTOR ( 'NONE', #120, 1000.000000000000000 ) ;
#305 = STYLED_ITEM ( 'NONE', ( #323 ), #180 ) ;
#306 = PRESENTATION_LAYER_ASSIGNMENT (  '', '', ( #313 ) ) ;
#307 = CYLINDRICAL_SURFACE ( 'NONE', #292, 9.999999999999998224 ) ;
#308 = EDGE_LOOP ( 'NONE', ( #300, #318, #61, #108 ) ) ;
#309 = CARTESIAN_POINT ( 'NONE',  ( 7.589415207398531038E-15, 30.00000000000000000, 0.000000000000000000 ) ) ;
#310 =( NAMED_UNIT ( * ) SI_UNIT ( $, .STERADIAN. ) SOLID_ANGLE_UNIT ( ) );
#311 = COLOUR_RGB ( '',0.7921568627450980005, 0.8196078431372548767, 0.9333333333333333481 ) ;
#312 =( LENGTH_UNIT ( ) NAMED_UNIT ( * ) SI_UNIT ( .MILLI., .METRE. ) );
#313 = STYLED_ITEM ( 'NONE', ( #368 ), #247 ) ;
#314 = ORIENTED_EDGE ( 'NONE', *, *, #101, .F. ) ;
#315 = FILL_AREA_STYLE ('',( #109 ) ) ;
#316 = PRESENTATION_LAYER_ASSIGNMENT (  '', '', ( #263 ) ) ;
#317 = AXIS2_PLACEMENT_3D ( 'NONE', #250, #176, #355 ) ;
#318 = ORIENTED_EDGE ( 'NONE', *, *, #343, .T. ) ;
#319 = ADVANCED_FACE ( 'NONE', ( #141 ), #328, .F. ) ;
#320 =( NAMED_UNIT ( * ) SI_UNIT ( $, .STERADIAN. ) SOLID_ANGLE_UNIT ( ) );
#321 =( GEOMETRIC_REPRESENTATION_CONTEXT ( 3 ) GLOBAL_UNCERTAINTY_ASSIGNED_CONTEXT ( ( #13 ) ) GLOBAL_UNIT_ASSIGNED_CONTEXT ( ( #291, #2, #320 ) ) REPRESENTATION_CONTEXT ( 'NONE', 'WORKASPACE' ) );
#322 =( NAMED_UNIT ( * ) PLANE_ANGLE_UNIT ( ) SI_UNIT ( $, .RADIAN. ) );
#323 = PRESENTATION_STYLE_ASSIGNMENT (( #56 ) ) ;
#324 = FILL_AREA_STYLE_COLOUR ( '', #311 ) ;
#325 = ORIENTED_EDGE ( 'NONE', *, *, #113, .F. ) ;
#326 = SURFACE_SIDE_STYLE ('',( #173 ) ) ;
#327 = VERTEX_POINT ( 'NONE', #214 ) ;
#328 = PLANE ( 'NONE',  #239 ) ;
#329 = FILL_AREA_STYLE ('',( #346 ) ) ;
#330 =( NAMED_UNIT ( * ) SI_UNIT ( $, .STERADIAN. ) SOLID_ANGLE_UNIT ( ) );
#331 =( GEOMETRIC_REPRESENTATION_CONTEXT ( 3 ) GLOBAL_UNCERTAINTY_ASSIGNED_CONTEXT ( ( #87 ) ) GLOBAL_UNIT_ASSIGNED_CONTEXT ( ( #44, #156, #216 ) ) REPRESENTATION_CONTEXT ( 'NONE', 'WORKASPACE' ) );
#332 = CARTESIAN_POINT ( 'NONE',  ( 0.000000000000000000, 1.000000000000000000, -10.00000000000000178 ) ) ;
#333 = CARTESIAN_POINT ( 'NONE',  ( 7.589415207398531038E-15, 30.00000000000000000, 0.000000000000000000 ) ) ;
#334 = FILL_AREA_STYLE_COLOUR ( '', #28 ) ;
#335 = AXIS2_PLACEMENT_3D ( 'NONE', #169, #350, #95 ) ;
#336 = ORIENTED_EDGE ( 'NONE', *, *, #132, .F. ) ;
#337 = UNCERTAINTY_MEASURE_WITH_UNIT (LENGTH_MEASURE( 1.000000000000000082E-05 ), #353, 'distance_accuracy_value', 'NONE');
#338 = SURFACE_STYLE_USAGE ( .BOTH. , #52 ) ;
#339 = CARTESIAN_POINT ( 'NONE',  ( 0.000000000000000000, 0.000000000000000000, 0.000000000000000000 ) ) ;
#340 = COLOUR_RGB ( '',1.000000000000000000, 0.000000000000000000, 0.000000000000000000 ) ;
#341 = ORIENTED_EDGE ( 'NONE', *, *, #25, .T. ) ;
#342 = DIRECTION ( 'NONE',  ( -0.000000000000000000, -1.000000000000000000, -0.000000000000000000 ) ) ;
#343 = EDGE_CURVE ( 'NONE', #134, #236, #194, .T. ) ;
#344 = VERTEX_POINT ( 'NONE', #91 ) ;
#345 = CARTESIAN_POINT ( 'NONE',  ( 0.000000000000000000, 30.00000000000000000, 0.000000000000000000 ) ) ;
#346 = FILL_AREA_STYLE_COLOUR ( '', #340 ) ;
#347 = AXIS2_PLACEMENT_3D ( 'NONE', #130, #219, #278 ) ;
#348 = DIRECTION ( 'NONE',  ( 0.000000000000000000, 0.000000000000000000, 1.000000000000000000 ) ) ;
#349 = ORIENTED_EDGE ( 'NONE', *, *, #213, .F. ) ;
#350 = DIRECTION ( 'NONE',  ( -0.000000000000000000, -1.000000000000000000, -0.000000000000000000 ) ) ;
#351 = ORIENTED_EDGE ( 'NONE', *, *, #358, .F. ) ;
#352 = SURFACE_STYLE_USAGE ( .BOTH. , #15 ) ;
#353 =( LENGTH_UNIT ( ) NAMED_UNIT ( * ) SI_UNIT ( .MILLI., .METRE. ) );
#354 = CIRCLE ( 'NONE', #198, 9.999999999999992895 ) ;
#355 = DIRECTION ( 'NONE',  ( 0.000000000000000000, 0.000000000000000000, -1.000000000000000000 ) ) ;
#356 = AXIS2_PLACEMENT_3D ( 'NONE', #333, #33, #115 ) ;
#357 = CIRCLE ( 'NONE', #251, 9.000000000000001776 ) ;
#358 = EDGE_CURVE ( 'NONE', #105, #327, #77, .T. ) ;
#359 = FACE_OUTER_BOUND ( 'NONE', #118, .T. ) ;
#360 =( NAMED_UNIT ( * ) SI_UNIT ( $, .STERADIAN. ) SOLID_ANGLE_UNIT ( ) );
#361 = CYLINDRICAL_SURFACE ( 'NONE', #161, 10.00000000000000178 ) ;
#362 = CARTESIAN_POINT ( 'NONE',  ( 0.000000000000000000, 0.000000000000000000, 0.000000000000000000 ) ) ;
#363 = AXIS2_PLACEMENT_3D ( 'NONE', #215, #71, #187 ) ;
#364 = STYLED_ITEM ( 'NONE', ( #124 ), #186 ) ;
#365 =( LENGTH_UNIT ( ) NAMED_UNIT ( * ) SI_UNIT ( .MILLI., .METRE. ) );
#366 = PRESENTATION_STYLE_ASSIGNMENT (( #338 ) ) ;
#367 = STYLED_ITEM ( 'NONE', ( #366 ), #285 ) ;
#368 = PRESENTATION_STYLE_ASSIGNMENT (( #79 ) ) ;
#369 = PRODUCT_DEFINITION ( 'UNKNOWN', '', #45, #106 ) ;
#370 = PRESENTATION_LAYER_ASSIGNMENT (  '', '', ( #272 ) ) ;
ENDSEC;
END-ISO-10303-21;
