ISO-10303-21;
HEADER;
FILE_DESCRIPTION (( 'STEP AP214' ),
    '1' );
FILE_NAME ('59809.STEP',
    '2023-07-12T13:05:41',
    ( '' ),
    ( '' ),
    'SwSTEP 2.0',
    'SolidWorks 2023',
    '' );
FILE_SCHEMA (( 'AUTOMOTIVE_DESIGN' ));
ENDSEC;

DATA;
#1 = ADVANCED_BREP_SHAPE_REPRESENTATION ( '59809', ( #78, #184, #85 ), #263 ) ;
#2 = VERTEX_POINT ( 'NONE', #27 ) ;
#3 = UNCERTAINTY_MEASURE_WITH_UNIT (LENGTH_MEASURE( 1.000000000000000082E-05 ), #179, 'distance_accuracy_value', 'NONE');
#4 = DIRECTION ( 'NONE',  ( 0.000000000000000000, 0.000000000000000000, 1.000000000000000000 ) ) ;
#5 = ORIENTED_EDGE ( 'NONE', *, *, #248, .F. ) ;
#6 =( NAMED_UNIT ( * ) SI_UNIT ( $, .STERADIAN. ) SOLID_ANGLE_UNIT ( ) );
#7 = DIRECTION ( 'NONE',  ( 9.716504519357739567E-17, -1.000000000000000000, 0.000000000000000000 ) ) ;
#8 = ORIENTED_EDGE ( 'NONE', *, *, #104, .F. ) ;
#9 = AXIS2_PLACEMENT_3D ( 'NONE', #54, #225, #56 ) ;
#10 = DIRECTION ( 'NONE',  ( -1.000000000000000000, 0.000000000000000000, 0.000000000000000000 ) ) ;
#11 = PLANE ( 'NONE',  #206 ) ;
#12 = FILL_AREA_STYLE ('',( #33 ) ) ;
#13 = PRESENTATION_LAYER_ASSIGNMENT (  '', '', ( #146 ) ) ;
#14 =( LENGTH_UNIT ( ) NAMED_UNIT ( * ) SI_UNIT ( $, .METRE. ) );
#15 = SURFACE_STYLE_USAGE ( .BOTH. , #125 ) ;
#16 = AXIS2_PLACEMENT_3D ( 'NONE', #205, #169, #72 ) ;
#17 = VECTOR ( 'NONE', #233, 39.37007874015748143 ) ;
#18 = EDGE_CURVE ( 'NONE', #75, #144, #83, .T. ) ;
#19 = FACE_OUTER_BOUND ( 'NONE', #26, .T. ) ;
#20 = STYLED_ITEM ( 'NONE', ( #31 ), #122 ) ;
#21 =( NAMED_UNIT ( * ) SI_UNIT ( $, .STERADIAN. ) SOLID_ANGLE_UNIT ( ) );
#22 = PRODUCT ( '59809', '59809', '', ( #185 ) ) ;
#23 = EDGE_LOOP ( 'NONE', ( #131, #65, #124, #5 ) ) ;
#24 =( NAMED_UNIT ( * ) PLANE_ANGLE_UNIT ( ) SI_UNIT ( $, .RADIAN. ) );
#25 = LENGTH_MEASURE_WITH_UNIT ( LENGTH_MEASURE( 0.02539999999999999897 ), #293 );
#26 = EDGE_LOOP ( 'NONE', ( #8, #30, #147, #215 ) ) ;
#27 = CARTESIAN_POINT ( 'NONE',  ( 0.1250000000000000278, 2.500000000000000000, 1.530808498934190276E-17 ) ) ;
#28 = PRESENTATION_LAYER_ASSIGNMENT (  '', '', ( #211 ) ) ;
#29 =( NAMED_UNIT ( * ) PLANE_ANGLE_UNIT ( ) SI_UNIT ( $, .RADIAN. ) );
#30 = ORIENTED_EDGE ( 'NONE', *, *, #103, .F. ) ;
#31 = PRESENTATION_STYLE_ASSIGNMENT (( #224 ) ) ;
#32 = AXIS2_PLACEMENT_3D ( 'NONE', #53, #289, #10 ) ;
#33 = FILL_AREA_STYLE_COLOUR ( '', #209 ) ;
#34 = ADVANCED_FACE ( 'NONE', ( #157 ), #60, .T. ) ;
#35 = FACE_OUTER_BOUND ( 'NONE', #199, .T. ) ;
#36 = UNCERTAINTY_MEASURE_WITH_UNIT (LENGTH_MEASURE( 1.000000000000000082E-05 ), #102, 'distance_accuracy_value', 'NONE');
#37 =( GEOMETRIC_REPRESENTATION_CONTEXT ( 3 ) GLOBAL_UNCERTAINTY_ASSIGNED_CONTEXT ( ( #36 ) ) GLOBAL_UNIT_ASSIGNED_CONTEXT ( ( #102, #296, #21 ) ) REPRESENTATION_CONTEXT ( 'NONE', 'WORKASPACE' ) );
#38 = FACE_OUTER_BOUND ( 'NONE', #73, .T. ) ;
#39 = ADVANCED_FACE ( 'NONE', ( #35 ), #266, .T. ) ;
#40 = CARTESIAN_POINT ( 'NONE',  ( 0.000000000000000000, 0.000000000000000000, 0.02999999999999999889 ) ) ;
#41 = CARTESIAN_POINT ( 'NONE',  ( 0.000000000000000000, 0.000000000000000000, 0.000000000000000000 ) ) ;
#42 =( NAMED_UNIT ( * ) SI_UNIT ( $, .STERADIAN. ) SOLID_ANGLE_UNIT ( ) );
#43 = SURFACE_STYLE_USAGE ( .BOTH. , #93 ) ;
#44 = VERTEX_POINT ( 'NONE', #243 ) ;
#45 = CARTESIAN_POINT ( 'NONE',  ( 6.123233995736772199E-17, 2.500000000000000000, 0.000000000000000000 ) ) ;
#46 = ORIENTED_EDGE ( 'NONE', *, *, #86, .T. ) ;
#47 = CIRCLE ( 'NONE', #226, 0.1249999999999996947 ) ;
#48 = CLOSED_SHELL ( 'NONE', ( #39, #141, #227, #284 ) ) ;
#49 = CARTESIAN_POINT ( 'NONE',  ( 1.530808498934191201E-17, 0.07971446496184131369, -0.1249999999999999861 ) ) ;
#50 =( CONVERSION_BASED_UNIT ( 'INCH', #145 ) LENGTH_UNIT ( ) NAMED_UNIT ( #190 ) );
#51 = LENGTH_MEASURE_WITH_UNIT ( LENGTH_MEASURE( 0.02539999999999999897 ), #294 );
#52 = ADVANCED_FACE ( 'NONE', ( #38 ), #11, .T. ) ;
#53 = CARTESIAN_POINT ( 'NONE',  ( 6.123233995736772199E-17, 2.500000000000000000, 0.000000000000000000 ) ) ;
#54 = CARTESIAN_POINT ( 'NONE',  ( 6.123233995736772199E-17, 2.500000000000000000, 0.000000000000000000 ) ) ;
#55 = DIRECTION ( 'NONE',  ( 9.381338752702743107E-17, 0.6427876096865380307, -0.7660444431189791237 ) ) ;
#56 = DIRECTION ( 'NONE',  ( -1.000000000000000000, 0.000000000000000000, 0.000000000000000000 ) ) ;
#57 =( CONVERSION_BASED_UNIT ( 'INCH', #176 ) LENGTH_UNIT ( ) NAMED_UNIT ( #110 ) );
#58 =( NAMED_UNIT ( * ) SI_UNIT ( $, .STERADIAN. ) SOLID_ANGLE_UNIT ( ) );
#59 = DIRECTION ( 'NONE',  ( -9.716504519357739567E-17, 1.000000000000000000, -0.000000000000000000 ) ) ;
#60 = CONICAL_SURFACE ( 'NONE', #232, 0.02999999999999999889, 0.8726646259971664321 ) ;
#61 = AXIS2_PLACEMENT_3D ( 'NONE', #95, #153, #117 ) ;
#62 =( CONVERSION_BASED_UNIT ( 'INCH', #251 ) LENGTH_UNIT ( ) NAMED_UNIT ( #249 ) );
#63 = FILL_AREA_STYLE_COLOUR ( '', #277 ) ;
#64 = FILL_AREA_STYLE ('',( #63 ) ) ;
#65 = ORIENTED_EDGE ( 'NONE', *, *, #271, .T. ) ;
#66 = AXIS2_PLACEMENT_3D ( 'NONE', #288, #267, #167 ) ;
#67 = UNCERTAINTY_MEASURE_WITH_UNIT (LENGTH_MEASURE( 1.000000000000000082E-05 ), #50, 'distance_accuracy_value', 'NONE');
#68 = DIRECTION ( 'NONE',  ( -1.000000000000000000, -1.365923996832135060E-16, 0.000000000000000000 ) ) ;
#69 = ORIENTED_EDGE ( 'NONE', *, *, #203, .F. ) ;
#70 = PRODUCT_DEFINITION_FORMATION_WITH_SPECIFIED_SOURCE ( 'ANY', '', #22, .NOT_KNOWN. ) ;
#71 = EDGE_CURVE ( 'NONE', #144, #2, #200, .T. ) ;
#72 = DIRECTION ( 'NONE',  ( -1.000000000000000000, -1.365923996832135060E-16, 0.000000000000000000 ) ) ;
#73 = EDGE_LOOP ( 'NONE', ( #142, #168 ) ) ;
#74 = SURFACE_STYLE_FILL_AREA ( #257 ) ;
#75 = VERTEX_POINT ( 'NONE', #172 ) ;
#76 = MECHANICAL_DESIGN_GEOMETRIC_PRESENTATION_REPRESENTATION (  '', ( #128 ), #247 ) ;
#77 = LINE ( 'NONE', #177, #221 ) ;
#78 = MANIFOLD_SOLID_BREP ( 'Revolve - Cutting Edge', #130 ) ;
#79 = FILL_AREA_STYLE_COLOUR ( '', #106 ) ;
#80 = PRESENTATION_STYLE_ASSIGNMENT (( #151 ) ) ;
#81 = FILL_AREA_STYLE_COLOUR ( '', #158 ) ;
#82 = AXIS2_PLACEMENT_3D ( 'NONE', #88, #306, #231 ) ;
#83 = LINE ( 'NONE', #269, #261 ) ;
#84 = UNCERTAINTY_MEASURE_WITH_UNIT (LENGTH_MEASURE( 1.000000000000000082E-05 ), #108, 'distance_accuracy_value', 'NONE');
#85 = AXIS2_PLACEMENT_3D ( 'NONE', #302, #207, #129 ) ;
#86 = EDGE_CURVE ( 'NONE', #217, #183, #98, .T. ) ;
#87 =( NAMED_UNIT ( * ) SI_UNIT ( $, .STERADIAN. ) SOLID_ANGLE_UNIT ( ) );
#88 = CARTESIAN_POINT ( 'NONE',  ( 0.000000000000000000, 0.07971446496184131369, 0.000000000000000000 ) ) ;
#89 =( LENGTH_UNIT ( ) NAMED_UNIT ( * ) SI_UNIT ( $, .METRE. ) );
#90 =( GEOMETRIC_REPRESENTATION_CONTEXT ( 3 ) GLOBAL_UNCERTAINTY_ASSIGNED_CONTEXT ( ( #164 ) ) GLOBAL_UNIT_ASSIGNED_CONTEXT ( ( #214, #91, #42 ) ) REPRESENTATION_CONTEXT ( 'NONE', 'WORKASPACE' ) );
#91 =( NAMED_UNIT ( * ) PLANE_ANGLE_UNIT ( ) SI_UNIT ( $, .RADIAN. ) );
#92 = DIRECTION ( 'NONE',  ( 0.000000000000000000, 0.000000000000000000, -1.000000000000000000 ) ) ;
#93 = SURFACE_SIDE_STYLE ('',( #279 ) ) ;
#94 = ORIENTED_EDGE ( 'NONE', *, *, #248, .T. ) ;
#95 = CARTESIAN_POINT ( 'NONE',  ( 0.000000000000000000, 0.07971446496184131369, 0.000000000000000000 ) ) ;
#96 = ORIENTED_EDGE ( 'NONE', *, *, #135, .T. ) ;
#97 = ORIENTED_EDGE ( 'NONE', *, *, #103, .T. ) ;
#98 = CIRCLE ( 'NONE', #113, 0.02999999999999999889 ) ;
#99 = CARTESIAN_POINT ( 'NONE',  ( 0.1249999999999999861, 0.07971446496184123043, 1.530808498934190276E-17 ) ) ;
#100 = SURFACE_STYLE_USAGE ( .BOTH. , #152 ) ;
#101 =( LENGTH_UNIT ( ) NAMED_UNIT ( * ) SI_UNIT ( $, .METRE. ) );
#102 =( CONVERSION_BASED_UNIT ( 'INCH', #51 ) LENGTH_UNIT ( ) NAMED_UNIT ( #159 ) );
#103 = EDGE_CURVE ( 'NONE', #183, #217, #292, .T. ) ;
#104 = EDGE_CURVE ( 'NONE', #217, #287, #77, .T. ) ;
#105 =( NAMED_UNIT ( * ) PLANE_ANGLE_UNIT ( ) SI_UNIT ( $, .RADIAN. ) );
#106 = COLOUR_RGB ( '',1.000000000000000000, 0.000000000000000000, 0.000000000000000000 ) ;
#107 = APPLICATION_PROTOCOL_DEFINITION ( 'draft international standard', 'automotive_design', 1998, #173 ) ;
#108 =( CONVERSION_BASED_UNIT ( 'INCH', #244 ) LENGTH_UNIT ( ) NAMED_UNIT ( #303 ) );
#109 = CIRCLE ( 'NONE', #61, 0.1250000000000000000 ) ;
#110 = DIMENSIONAL_EXPONENTS ( 1.000000000000000000, 0.000000000000000000, 0.000000000000000000, 0.000000000000000000, 0.000000000000000000, 0.000000000000000000, 0.000000000000000000 ) ;
#111 = DIRECTION ( 'NONE',  ( -9.716504519357739567E-17, 1.000000000000000000, 0.000000000000000000 ) ) ;
#112 = CARTESIAN_POINT ( 'NONE',  ( 2.963994933507120740E-16, 0.07971446496184131369, 0.000000000000000000 ) ) ;
#113 = AXIS2_PLACEMENT_3D ( 'NONE', #204, #220, #242 ) ;
#114 = FACE_OUTER_BOUND ( 'NONE', #282, .T. ) ;
#115 = DIRECTION ( 'NONE',  ( 0.000000000000000000, 1.000000000000000000, 0.000000000000000000 ) ) ;
#116 = EDGE_CURVE ( 'NONE', #44, #287, #109, .T. ) ;
#117 = DIRECTION ( 'NONE',  ( 0.000000000000000000, 0.000000000000000000, -1.000000000000000000 ) ) ;
#118 = PRESENTATION_LAYER_ASSIGNMENT (  '', '', ( #250 ) ) ;
#119 = DIRECTION ( 'NONE',  ( -0.000000000000000000, -1.000000000000000000, -0.000000000000000000 ) ) ;
#120 = DIRECTION ( 'NONE',  ( 0.000000000000000000, 0.6427876096865380307, 0.7660444431189791237 ) ) ;
#121 = ORIENTED_EDGE ( 'NONE', *, *, #104, .T. ) ;
#122 = ADVANCED_FACE ( 'NONE', ( #235 ), #299, .T. ) ;
#123 = DIRECTION ( 'NONE',  ( -9.716504519357740799E-17, 1.000000000000000000, -0.000000000000000000 ) ) ;
#124 = ORIENTED_EDGE ( 'NONE', *, *, #18, .T. ) ;
#125 = SURFACE_SIDE_STYLE ('',( #241 ) ) ;
#126 = SHAPE_DEFINITION_REPRESENTATION ( #286, #1 ) ;
#127 = DIRECTION ( 'NONE',  ( 0.000000000000000000, 0.000000000000000000, 1.000000000000000000 ) ) ;
#128 = STYLED_ITEM ( 'NONE', ( #230 ), #184 ) ;
#129 = DIRECTION ( 'NONE',  ( 1.000000000000000000, 0.000000000000000000, 0.000000000000000000 ) ) ;
#130 = CLOSED_SHELL ( 'NONE', ( #34, #52, #163, #122 ) ) ;
#131 = ORIENTED_EDGE ( 'NONE', *, *, #135, .F. ) ;
#132 = AXIS2_PLACEMENT_3D ( 'NONE', #41, #115, #4 ) ;
#133 = SURFACE_STYLE_USAGE ( .BOTH. , #276 ) ;
#134 = DIMENSIONAL_EXPONENTS ( 1.000000000000000000, 0.000000000000000000, 0.000000000000000000, 0.000000000000000000, 0.000000000000000000, 0.000000000000000000, 0.000000000000000000 ) ;
#135 = EDGE_CURVE ( 'NONE', #193, #2, #210, .T. ) ;
#136 =( NAMED_UNIT ( * ) PLANE_ANGLE_UNIT ( ) SI_UNIT ( $, .RADIAN. ) );
#137 = APPLICATION_CONTEXT ( 'automotive_design' ) ;
#138 = CARTESIAN_POINT ( 'NONE',  ( 0.000000000000000000, 0.000000000000000000, 0.000000000000000000 ) ) ;
#139 = AXIS2_PLACEMENT_3D ( 'NONE', #138, #285, #92 ) ;
#140 = ORIENTED_EDGE ( 'NONE', *, *, #271, .F. ) ;
#141 = ADVANCED_FACE ( 'NONE', ( #114 ), #189, .F. ) ;
#142 = ORIENTED_EDGE ( 'NONE', *, *, #116, .F. ) ;
#143 = LINE ( 'NONE', #258, #295 ) ;
#144 = VERTEX_POINT ( 'NONE', #281 ) ;
#145 = LENGTH_MEASURE_WITH_UNIT ( LENGTH_MEASURE( 0.02539999999999999897 ), #297 );
#146 = STYLED_ITEM ( 'NONE', ( #213 ), #163 ) ;
#147 = ORIENTED_EDGE ( 'NONE', *, *, #203, .T. ) ;
#148 = SURFACE_SIDE_STYLE ('',( #74 ) ) ;
#149 = FACE_OUTER_BOUND ( 'NONE', #23, .T. ) ;
#150 = PRESENTATION_STYLE_ASSIGNMENT (( #15 ) ) ;
#151 = SURFACE_STYLE_USAGE ( .BOTH. , #148 ) ;
#152 = SURFACE_SIDE_STYLE ('',( #264 ) ) ;
#153 = DIRECTION ( 'NONE',  ( -0.000000000000000000, -1.000000000000000000, -0.000000000000000000 ) ) ;
#154 = FILL_AREA_STYLE ('',( #81 ) ) ;
#155 = APPLICATION_PROTOCOL_DEFINITION ( 'draft international standard', 'automotive_design', 1998, #137 ) ;
#156 = PRODUCT_DEFINITION_CONTEXT ( 'detailed design', #137, 'design' ) ;
#157 = FACE_OUTER_BOUND ( 'NONE', #197, .T. ) ;
#158 = COLOUR_RGB ( '',1.000000000000000000, 0.000000000000000000, 0.000000000000000000 ) ;
#159 = DIMENSIONAL_EXPONENTS ( 1.000000000000000000, 0.000000000000000000, 0.000000000000000000, 0.000000000000000000, 0.000000000000000000, 0.000000000000000000, 0.000000000000000000 ) ;
#160 = COLOUR_RGB ( '',0.7921568627450980005, 0.8196078431372548767, 0.9333333333333333481 ) ;
#161 =( GEOMETRIC_REPRESENTATION_CONTEXT ( 3 ) GLOBAL_UNCERTAINTY_ASSIGNED_CONTEXT ( ( #298 ) ) GLOBAL_UNIT_ASSIGNED_CONTEXT ( ( #57, #180, #87 ) ) REPRESENTATION_CONTEXT ( 'NONE', 'WORKASPACE' ) );
#162 = CARTESIAN_POINT ( 'NONE',  ( 2.963994933507121233E-16, 0.07971446496184120267, 0.000000000000000000 ) ) ;
#163 = ADVANCED_FACE ( 'NONE', ( #19 ), #228, .T. ) ;
#164 = UNCERTAINTY_MEASURE_WITH_UNIT (LENGTH_MEASURE( 1.000000000000000082E-05 ), #214, 'distance_accuracy_value', 'NONE');
#165 = FILL_AREA_STYLE_COLOUR ( '', #259 ) ;
#166 = EDGE_LOOP ( 'NONE', ( #170, #94 ) ) ;
#167 = DIRECTION ( 'NONE',  ( -1.000000000000000000, 0.000000000000000000, 0.000000000000000000 ) ) ;
#168 = ORIENTED_EDGE ( 'NONE', *, *, #171, .F. ) ;
#169 = DIRECTION ( 'NONE',  ( -9.716504519357740799E-17, 1.000000000000000000, -0.000000000000000000 ) ) ;
#170 = ORIENTED_EDGE ( 'NONE', *, *, #71, .T. ) ;
#171 = EDGE_CURVE ( 'NONE', #287, #44, #188, .T. ) ;
#172 = CARTESIAN_POINT ( 'NONE',  ( -0.1249999999999994033, 0.07971446496184118879, 0.000000000000000000 ) ) ;
#173 = APPLICATION_CONTEXT ( 'automotive_design' ) ;
#174 = FILL_AREA_STYLE ('',( #79 ) ) ;
#175 = DIRECTION ( 'NONE',  ( -1.000000000000000000, 0.000000000000000000, 0.000000000000000000 ) ) ;
#176 = LENGTH_MEASURE_WITH_UNIT ( LENGTH_MEASURE( 0.02539999999999999897 ), #14 );
#177 = CARTESIAN_POINT ( 'NONE',  ( 3.673940397442059190E-18, 0.000000000000000000, -0.02999999999999999889 ) ) ;
#178 = EDGE_CURVE ( 'NONE', #75, #193, #47, .T. ) ;
#179 =( CONVERSION_BASED_UNIT ( 'INCH', #25 ) LENGTH_UNIT ( ) NAMED_UNIT ( #275 ) );
#180 =( NAMED_UNIT ( * ) PLANE_ANGLE_UNIT ( ) SI_UNIT ( $, .RADIAN. ) );
#181 = MECHANICAL_DESIGN_GEOMETRIC_PRESENTATION_REPRESENTATION (  '', ( #20 ), #90 ) ;
#182 = SURFACE_STYLE_FILL_AREA ( #154 ) ;
#183 = VERTEX_POINT ( 'NONE', #40 ) ;
#184 = MANIFOLD_SOLID_BREP ( 'Revolve - Tool Body (Tipped Off)', #48 ) ;
#185 = PRODUCT_CONTEXT ( 'NONE', #173, 'mechanical' ) ;
#186 = AXIS2_PLACEMENT_3D ( 'NONE', #112, #111, #308 ) ;
#187 = SURFACE_STYLE_FILL_AREA ( #256 ) ;
#188 = CIRCLE ( 'NONE', #82, 0.1250000000000000000 ) ;
#189 = PLANE ( 'NONE',  #186 ) ;
#190 = DIMENSIONAL_EXPONENTS ( 1.000000000000000000, 0.000000000000000000, 0.000000000000000000, 0.000000000000000000, 0.000000000000000000, 0.000000000000000000, 0.000000000000000000 ) ;
#191 = DIRECTION ( 'NONE',  ( 0.000000000000000000, 1.000000000000000000, 0.000000000000000000 ) ) ;
#192 = LENGTH_MEASURE_WITH_UNIT ( LENGTH_MEASURE( 0.02539999999999999897 ), #101 );
#193 = VERTEX_POINT ( 'NONE', #99 ) ;
#194 = DIRECTION ( 'NONE',  ( -9.716504519357740799E-17, 1.000000000000000000, -0.000000000000000000 ) ) ;
#195 =( GEOMETRIC_REPRESENTATION_CONTEXT ( 3 ) GLOBAL_UNCERTAINTY_ASSIGNED_CONTEXT ( ( #67 ) ) GLOBAL_UNIT_ASSIGNED_CONTEXT ( ( #50, #24, #6 ) ) REPRESENTATION_CONTEXT ( 'NONE', 'WORKASPACE' ) );
#196 = CIRCLE ( 'NONE', #32, 0.1249999999999999584 ) ;
#197 = EDGE_LOOP ( 'NONE', ( #208, #121, #301, #69 ) ) ;
#198 = DIRECTION ( 'NONE',  ( 1.000000000000000000, 9.716504519357739567E-17, 0.000000000000000000 ) ) ;
#199 = EDGE_LOOP ( 'NONE', ( #254, #96, #290, #246 ) ) ;
#200 = CIRCLE ( 'NONE', #66, 0.1249999999999999584 ) ;
#201 = DIRECTION ( 'NONE',  ( 0.000000000000000000, 0.000000000000000000, -1.000000000000000000 ) ) ;
#202 = CYLINDRICAL_SURFACE ( 'NONE', #229, 0.1249999999999998335 ) ;
#203 = EDGE_CURVE ( 'NONE', #183, #44, #143, .T. ) ;
#204 = CARTESIAN_POINT ( 'NONE',  ( 0.000000000000000000, 0.000000000000000000, 0.000000000000000000 ) ) ;
#205 = CARTESIAN_POINT ( 'NONE',  ( 2.963994933507121233E-16, 0.07971446496184120267, 0.000000000000000000 ) ) ;
#206 = AXIS2_PLACEMENT_3D ( 'NONE', #212, #191, #309 ) ;
#207 = DIRECTION ( 'NONE',  ( 0.000000000000000000, 0.000000000000000000, 1.000000000000000000 ) ) ;
#208 = ORIENTED_EDGE ( 'NONE', *, *, #86, .F. ) ;
#209 = COLOUR_RGB ( '',1.000000000000000000, 0.000000000000000000, 0.000000000000000000 ) ;
#210 = LINE ( 'NONE', #253, #17 ) ;
#211 = STYLED_ITEM ( 'NONE', ( #80 ), #78 ) ;
#212 = CARTESIAN_POINT ( 'NONE',  ( 0.000000000000000000, 0.07971446496184131369, 0.000000000000000000 ) ) ;
#213 = PRESENTATION_STYLE_ASSIGNMENT (( #43 ) ) ;
#214 =( CONVERSION_BASED_UNIT ( 'INCH', #192 ) LENGTH_UNIT ( ) NAMED_UNIT ( #134 ) );
#215 = ORIENTED_EDGE ( 'NONE', *, *, #116, .T. ) ;
#216 = MECHANICAL_DESIGN_GEOMETRIC_PRESENTATION_REPRESENTATION (  '', ( #146 ), #283 ) ;
#217 = VERTEX_POINT ( 'NONE', #262 ) ;
#218 = FILL_AREA_STYLE_COLOUR ( '', #160 ) ;
#219 = CARTESIAN_POINT ( 'NONE',  ( 0.1250000000000000278, 2.500000000000000000, 0.000000000000000000 ) ) ;
#220 = DIRECTION ( 'NONE',  ( -0.000000000000000000, -1.000000000000000000, -0.000000000000000000 ) ) ;
#221 = VECTOR ( 'NONE', #55, 39.37007874015748143 ) ;
#222 = ORIENTED_EDGE ( 'NONE', *, *, #178, .F. ) ;
#223 = PRESENTATION_LAYER_ASSIGNMENT (  '', '', ( #128 ) ) ;
#224 = SURFACE_STYLE_USAGE ( .BOTH. , #270 ) ;
#225 = DIRECTION ( 'NONE',  ( -9.716504519357740799E-17, 1.000000000000000000, -0.000000000000000000 ) ) ;
#226 = AXIS2_PLACEMENT_3D ( 'NONE', #162, #194, #68 ) ;
#227 = ADVANCED_FACE ( 'NONE', ( #149 ), #202, .T. ) ;
#228 = CONICAL_SURFACE ( 'NONE', #132, 0.02999999999999999889, 0.8726646259971664321 ) ;
#229 = AXIS2_PLACEMENT_3D ( 'NONE', #45, #123, #175 ) ;
#230 = PRESENTATION_STYLE_ASSIGNMENT (( #133 ) ) ;
#231 = DIRECTION ( 'NONE',  ( 0.000000000000000000, 0.000000000000000000, -1.000000000000000000 ) ) ;
#232 = AXIS2_PLACEMENT_3D ( 'NONE', #272, #273, #127 ) ;
#233 = DIRECTION ( 'NONE',  ( -9.716504519357739567E-17, 1.000000000000000000, -0.000000000000000000 ) ) ;
#234 = EDGE_LOOP ( 'NONE', ( #97, #46 ) ) ;
#235 = FACE_OUTER_BOUND ( 'NONE', #234, .T. ) ;
#236 = FACE_OUTER_BOUND ( 'NONE', #166, .T. ) ;
#237 = PRODUCT_RELATED_PRODUCT_CATEGORY ( 'part', '', ( #22 ) ) ;
#238 = CIRCLE ( 'NONE', #16, 0.1249999999999996947 ) ;
#239 =( NAMED_UNIT ( * ) SI_UNIT ( $, .STERADIAN. ) SOLID_ANGLE_UNIT ( ) );
#240 = AXIS2_PLACEMENT_3D ( 'NONE', #291, #119, #201 ) ;
#241 = SURFACE_STYLE_FILL_AREA ( #12 ) ;
#242 = DIRECTION ( 'NONE',  ( 0.000000000000000000, 0.000000000000000000, -1.000000000000000000 ) ) ;
#243 = CARTESIAN_POINT ( 'NONE',  ( 0.000000000000000000, 0.07971446496184131369, 0.1249999999999999861 ) ) ;
#244 = LENGTH_MEASURE_WITH_UNIT ( LENGTH_MEASURE( 0.02539999999999999897 ), #305 );
#245 = PRESENTATION_STYLE_ASSIGNMENT (( #100 ) ) ;
#246 = ORIENTED_EDGE ( 'NONE', *, *, #18, .F. ) ;
#247 =( GEOMETRIC_REPRESENTATION_CONTEXT ( 3 ) GLOBAL_UNCERTAINTY_ASSIGNED_CONTEXT ( ( #3 ) ) GLOBAL_UNIT_ASSIGNED_CONTEXT ( ( #179, #29, #239 ) ) REPRESENTATION_CONTEXT ( 'NONE', 'WORKASPACE' ) );
#248 = EDGE_CURVE ( 'NONE', #2, #144, #196, .T. ) ;
#249 = DIMENSIONAL_EXPONENTS ( 1.000000000000000000, 0.000000000000000000, 0.000000000000000000, 0.000000000000000000, 0.000000000000000000, 0.000000000000000000, 0.000000000000000000 ) ;
#250 = STYLED_ITEM ( 'NONE', ( #150 ), #52 ) ;
#251 = LENGTH_MEASURE_WITH_UNIT ( LENGTH_MEASURE( 0.02539999999999999897 ), #89 );
#252 =( NAMED_UNIT ( * ) SI_UNIT ( $, .STERADIAN. ) SOLID_ANGLE_UNIT ( ) );
#253 = CARTESIAN_POINT ( 'NONE',  ( 0.1249999999999999029, 2.500000000000000000, 1.530808498934189352E-17 ) ) ;
#254 = ORIENTED_EDGE ( 'NONE', *, *, #178, .T. ) ;
#255 = AXIS2_PLACEMENT_3D ( 'NONE', #219, #7, #198 ) ;
#256 = FILL_AREA_STYLE ('',( #165 ) ) ;
#257 = FILL_AREA_STYLE ('',( #218 ) ) ;
#258 = CARTESIAN_POINT ( 'NONE',  ( 0.000000000000000000, 0.000000000000000000, 0.02999999999999999889 ) ) ;
#259 = COLOUR_RGB ( '',0.7921568627450980005, 0.8196078431372548767, 0.9333333333333333481 ) ;
#260 = PLANE ( 'NONE',  #255 ) ;
#261 = VECTOR ( 'NONE', #59, 39.37007874015748143 ) ;
#262 = CARTESIAN_POINT ( 'NONE',  ( 9.491012693391986370E-18, 0.000000000000000000, -0.02999999999999999889 ) ) ;
#263 =( GEOMETRIC_REPRESENTATION_CONTEXT ( 3 ) GLOBAL_UNCERTAINTY_ASSIGNED_CONTEXT ( ( #84 ) ) GLOBAL_UNIT_ASSIGNED_CONTEXT ( ( #108, #105, #58 ) ) REPRESENTATION_CONTEXT ( 'NONE', 'WORKASPACE' ) );
#264 = SURFACE_STYLE_FILL_AREA ( #174 ) ;
#265 = PRODUCT_DEFINITION ( 'UNKNOWN', '', #70, #156 ) ;
#266 = CYLINDRICAL_SURFACE ( 'NONE', #9, 0.1249999999999998335 ) ;
#267 = DIRECTION ( 'NONE',  ( -9.716504519357740799E-17, 1.000000000000000000, -0.000000000000000000 ) ) ;
#268 = MECHANICAL_DESIGN_GEOMETRIC_PRESENTATION_REPRESENTATION (  '', ( #278 ), #161 ) ;
#269 = CARTESIAN_POINT ( 'NONE',  ( -0.1249999999999997641, 2.500000000000000000, 0.000000000000000000 ) ) ;
#270 = SURFACE_SIDE_STYLE ('',( #182 ) ) ;
#271 = EDGE_CURVE ( 'NONE', #193, #75, #238, .T. ) ;
#272 = CARTESIAN_POINT ( 'NONE',  ( 0.000000000000000000, 0.000000000000000000, 0.000000000000000000 ) ) ;
#273 = DIRECTION ( 'NONE',  ( 0.000000000000000000, 1.000000000000000000, 0.000000000000000000 ) ) ;
#274 = PRESENTATION_LAYER_ASSIGNMENT (  '', '', ( #20 ) ) ;
#275 = DIMENSIONAL_EXPONENTS ( 1.000000000000000000, 0.000000000000000000, 0.000000000000000000, 0.000000000000000000, 0.000000000000000000, 0.000000000000000000, 0.000000000000000000 ) ;
#276 = SURFACE_SIDE_STYLE ('',( #187 ) ) ;
#277 = COLOUR_RGB ( '',1.000000000000000000, 0.000000000000000000, 0.000000000000000000 ) ;
#278 = STYLED_ITEM ( 'NONE', ( #245 ), #34 ) ;
#279 = SURFACE_STYLE_FILL_AREA ( #64 ) ;
#280 = UNCERTAINTY_MEASURE_WITH_UNIT (LENGTH_MEASURE( 1.000000000000000082E-05 ), #62, 'distance_accuracy_value', 'NONE');
#281 = CARTESIAN_POINT ( 'NONE',  ( -0.1249999999999999029, 2.500000000000000000, 0.000000000000000000 ) ) ;
#282 = EDGE_LOOP ( 'NONE', ( #222, #140 ) ) ;
#283 =( GEOMETRIC_REPRESENTATION_CONTEXT ( 3 ) GLOBAL_UNCERTAINTY_ASSIGNED_CONTEXT ( ( #280 ) ) GLOBAL_UNIT_ASSIGNED_CONTEXT ( ( #62, #136, #252 ) ) REPRESENTATION_CONTEXT ( 'NONE', 'WORKASPACE' ) );
#284 = ADVANCED_FACE ( 'NONE', ( #236 ), #260, .F. ) ;
#285 = DIRECTION ( 'NONE',  ( 0.000000000000000000, -1.000000000000000000, -0.000000000000000000 ) ) ;
#286 = PRODUCT_DEFINITION_SHAPE ( 'NONE', 'NONE',  #265 ) ;
#287 = VERTEX_POINT ( 'NONE', #49 ) ;
#288 = CARTESIAN_POINT ( 'NONE',  ( 6.123233995736772199E-17, 2.500000000000000000, 0.000000000000000000 ) ) ;
#289 = DIRECTION ( 'NONE',  ( -9.716504519357740799E-17, 1.000000000000000000, -0.000000000000000000 ) ) ;
#290 = ORIENTED_EDGE ( 'NONE', *, *, #71, .F. ) ;
#291 = CARTESIAN_POINT ( 'NONE',  ( 0.000000000000000000, 0.000000000000000000, 0.000000000000000000 ) ) ;
#292 = CIRCLE ( 'NONE', #240, 0.02999999999999999889 ) ;
#293 =( LENGTH_UNIT ( ) NAMED_UNIT ( * ) SI_UNIT ( $, .METRE. ) );
#294 =( LENGTH_UNIT ( ) NAMED_UNIT ( * ) SI_UNIT ( $, .METRE. ) );
#295 = VECTOR ( 'NONE', #120, 39.37007874015748143 ) ;
#296 =( NAMED_UNIT ( * ) PLANE_ANGLE_UNIT ( ) SI_UNIT ( $, .RADIAN. ) );
#297 =( LENGTH_UNIT ( ) NAMED_UNIT ( * ) SI_UNIT ( $, .METRE. ) );
#298 = UNCERTAINTY_MEASURE_WITH_UNIT (LENGTH_MEASURE( 1.000000000000000082E-05 ), #57, 'distance_accuracy_value', 'NONE');
#299 = PLANE ( 'NONE',  #139 ) ;
#300 = MECHANICAL_DESIGN_GEOMETRIC_PRESENTATION_REPRESENTATION (  '', ( #250 ), #37 ) ;
#301 = ORIENTED_EDGE ( 'NONE', *, *, #171, .T. ) ;
#302 = CARTESIAN_POINT ( 'NONE',  ( 0.000000000000000000, 0.000000000000000000, 0.000000000000000000 ) ) ;
#303 = DIMENSIONAL_EXPONENTS ( 1.000000000000000000, 0.000000000000000000, 0.000000000000000000, 0.000000000000000000, 0.000000000000000000, 0.000000000000000000, 0.000000000000000000 ) ;
#304 = MECHANICAL_DESIGN_GEOMETRIC_PRESENTATION_REPRESENTATION (  '', ( #211 ), #195 ) ;
#305 =( LENGTH_UNIT ( ) NAMED_UNIT ( * ) SI_UNIT ( $, .METRE. ) );
#306 = DIRECTION ( 'NONE',  ( -0.000000000000000000, -1.000000000000000000, -0.000000000000000000 ) ) ;
#307 = PRESENTATION_LAYER_ASSIGNMENT (  '', '', ( #278 ) ) ;
#308 = DIRECTION ( 'NONE',  ( -1.000000000000000000, -9.716504519357739567E-17, 0.000000000000000000 ) ) ;
#309 = DIRECTION ( 'NONE',  ( 0.000000000000000000, -0.000000000000000000, 1.000000000000000000 ) ) ;
ENDSEC;
END-ISO-10303-21;
