ISO-10303-21;
HEADER;
FILE_DESCRIPTION (( 'STEP AP214' ),
    '1' );
FILE_NAME ('48585.STEP',
    '2023-06-22T21:49:26',
    ( '' ),
    ( '' ),
    'SwSTEP 2.0',
    'SolidWorks 2023',
    '' );
FILE_SCHEMA (( 'AUTOMOTIVE_DESIGN' ));
ENDSEC;

DATA;
#1 = CARTESIAN_POINT ( 'NONE',  ( -0.3749999999999997780, 3.000000000000000444, 0.000000000000000000 ) ) ;
#2 = LENGTH_MEASURE_WITH_UNIT ( LENGTH_MEASURE( 0.02539999999999999897 ), #74 );
#3 = PRESENTATION_LAYER_ASSIGNMENT (  '', '', ( #122 ) ) ;
#4 =( NAMED_UNIT ( * ) PLANE_ANGLE_UNIT ( ) SI_UNIT ( $, .RADIAN. ) );
#5 = VERTEX_POINT ( 'NONE', #159 ) ;
#6 = AXIS2_PLACEMENT_3D ( 'NONE', #107, #252, #206 ) ;
#7 = EDGE_LOOP ( 'NONE', ( #94, #168 ) ) ;
#8 =( GEOMETRIC_REPRESENTATION_CONTEXT ( 3 ) GLOBAL_UNCERTAINTY_ASSIGNED_CONTEXT ( ( #114 ) ) GLOBAL_UNIT_ASSIGNED_CONTEXT ( ( #279, #303, #88 ) ) REPRESENTATION_CONTEXT ( 'NONE', 'WORKASPACE' ) );
#9 = FILL_AREA_STYLE_COLOUR ( '', #92 ) ;
#10 = EDGE_CURVE ( 'NONE', #152, #282, #154, .T. ) ;
#11 =( CONVERSION_BASED_UNIT ( 'INCH', #254 ) LENGTH_UNIT ( ) NAMED_UNIT ( #205 ) );
#12 = PRESENTATION_LAYER_ASSIGNMENT (  '', '', ( #161 ) ) ;
#13 = DIRECTION ( 'NONE',  ( -1.000000000000000000, 0.000000000000000000, 0.000000000000000000 ) ) ;
#14 = FILL_AREA_STYLE_COLOUR ( '', #26 ) ;
#15 = PLANE ( 'NONE',  #253 ) ;
#16 = ORIENTED_EDGE ( 'NONE', *, *, #68, .F. ) ;
#17 = LINE ( 'NONE', #117, #100 ) ;
#18 =( NAMED_UNIT ( * ) SI_UNIT ( $, .STERADIAN. ) SOLID_ANGLE_UNIT ( ) );
#19 = AXIS2_PLACEMENT_3D ( 'NONE', #209, #83, #184 ) ;
#20 = SURFACE_STYLE_USAGE ( .BOTH. , #126 ) ;
#21 = ORIENTED_EDGE ( 'NONE', *, *, #284, .T. ) ;
#22 =( NAMED_UNIT ( * ) PLANE_ANGLE_UNIT ( ) SI_UNIT ( $, .RADIAN. ) );
#23 = FILL_AREA_STYLE_COLOUR ( '', #238 ) ;
#24 = ORIENTED_EDGE ( 'NONE', *, *, #185, .T. ) ;
#25 = VECTOR ( 'NONE', #219, 39.37007874015748143 ) ;
#26 = COLOUR_RGB ( '',0.7921568627450980005, 0.8196078431372548767, 0.9333333333333333481 ) ;
#27 = CARTESIAN_POINT ( 'NONE',  ( 0.000000000000000000, 0.000000000000000000, 0.000000000000000000 ) ) ;
#28 = SURFACE_STYLE_FILL_AREA ( #183 ) ;
#29 = CARTESIAN_POINT ( 'NONE',  ( 0.000000000000000000, 0.000000000000000000, 0.000000000000000000 ) ) ;
#30 =( CONVERSION_BASED_UNIT ( 'INCH', #269 ) LENGTH_UNIT ( ) NAMED_UNIT ( #158 ) );
#31 = ORIENTED_EDGE ( 'NONE', *, *, #198, .T. ) ;
#32 = EDGE_CURVE ( 'NONE', #69, #196, #227, .T. ) ;
#33 = CARTESIAN_POINT ( 'NONE',  ( 0.000000000000000000, 0.000000000000000000, 0.000000000000000000 ) ) ;
#34 = APPLICATION_CONTEXT ( 'automotive_design' ) ;
#35 = FILL_AREA_STYLE ('',( #292 ) ) ;
#36 = SURFACE_STYLE_FILL_AREA ( #63 ) ;
#37 = SURFACE_SIDE_STYLE ('',( #121 ) ) ;
#38 = SURFACE_STYLE_USAGE ( .BOTH. , #190 ) ;
#39 = FACE_OUTER_BOUND ( 'NONE', #162, .T. ) ;
#40 = ORIENTED_EDGE ( 'NONE', *, *, #136, .T. ) ;
#41 = CARTESIAN_POINT ( 'NONE',  ( 0.000000000000000000, 0.000000000000000000, -0.3750000000000000555 ) ) ;
#42 = DIRECTION ( 'NONE',  ( -1.000000000000000000, 6.123233995736763571E-17, 0.000000000000000000 ) ) ;
#43 =( NAMED_UNIT ( * ) PLANE_ANGLE_UNIT ( ) SI_UNIT ( $, .RADIAN. ) );
#44 = CLOSED_SHELL ( 'NONE', ( #62, #120, #58, #86 ) ) ;
#45 = DIRECTION ( 'NONE',  ( 6.123233995736763571E-17, 1.000000000000000000, -0.000000000000000000 ) ) ;
#46 = ORIENTED_EDGE ( 'NONE', *, *, #75, .F. ) ;
#47 =( NAMED_UNIT ( * ) SI_UNIT ( $, .STERADIAN. ) SOLID_ANGLE_UNIT ( ) );
#48 = CIRCLE ( 'NONE', #283, 0.3750000000000000555 ) ;
#49 = VECTOR ( 'NONE', #87, 39.37007874015748143 ) ;
#50 = DIRECTION ( 'NONE',  ( -0.000000000000000000, -1.000000000000000000, -0.000000000000000000 ) ) ;
#51 = FACE_OUTER_BOUND ( 'NONE', #241, .T. ) ;
#52 = DIMENSIONAL_EXPONENTS ( 1.000000000000000000, 0.000000000000000000, 0.000000000000000000, 0.000000000000000000, 0.000000000000000000, 0.000000000000000000, 0.000000000000000000 ) ;
#53 = PRODUCT_DEFINITION ( 'UNKNOWN', '', #275, #192 ) ;
#54 = DIRECTION ( 'NONE',  ( 6.123233995736763571E-17, 1.000000000000000000, -0.000000000000000000 ) ) ;
#55 =( GEOMETRIC_REPRESENTATION_CONTEXT ( 3 ) GLOBAL_UNCERTAINTY_ASSIGNED_CONTEXT ( ( #57 ) ) GLOBAL_UNIT_ASSIGNED_CONTEXT ( ( #133, #4, #204 ) ) REPRESENTATION_CONTEXT ( 'NONE', 'WORKASPACE' ) );
#56 = APPLICATION_PROTOCOL_DEFINITION ( 'draft international standard', 'automotive_design', 1998, #150 ) ;
#57 = UNCERTAINTY_MEASURE_WITH_UNIT (LENGTH_MEASURE( 1.000000000000000082E-05 ), #133, 'distance_accuracy_value', 'NONE');
#58 = ADVANCED_FACE ( 'NONE', ( #213 ), #109, .T. ) ;
#59 = CYLINDRICAL_SURFACE ( 'NONE', #76, 0.3749999999999999445 ) ;
#60 =( LENGTH_UNIT ( ) NAMED_UNIT ( * ) SI_UNIT ( $, .METRE. ) );
#61 = AXIS2_PLACEMENT_3D ( 'NONE', #153, #80, #179 ) ;
#62 = ADVANCED_FACE ( 'NONE', ( #113 ), #59, .T. ) ;
#63 = FILL_AREA_STYLE ('',( #9 ) ) ;
#64 = AXIS2_PLACEMENT_3D ( 'NONE', #29, #295, #78 ) ;
#65 = PRESENTATION_STYLE_ASSIGNMENT (( #38 ) ) ;
#66 = CARTESIAN_POINT ( 'NONE',  ( 1.224646799147352714E-16, 3.000000000000000444, 0.000000000000000000 ) ) ;
#67 =( LENGTH_UNIT ( ) NAMED_UNIT ( * ) SI_UNIT ( $, .METRE. ) );
#68 = EDGE_CURVE ( 'NONE', #282, #171, #195, .T. ) ;
#69 = VERTEX_POINT ( 'NONE', #167 ) ;
#70 = PRESENTATION_STYLE_ASSIGNMENT (( #20 ) ) ;
#71 = CIRCLE ( 'NONE', #111, 0.3750000000000000555 ) ;
#72 = AXIS2_PLACEMENT_3D ( 'NONE', #33, #301, #229 ) ;
#73 = SURFACE_STYLE_FILL_AREA ( #96 ) ;
#74 =( LENGTH_UNIT ( ) NAMED_UNIT ( * ) SI_UNIT ( $, .METRE. ) );
#75 = EDGE_CURVE ( 'NONE', #250, #69, #216, .T. ) ;
#76 = AXIS2_PLACEMENT_3D ( 'NONE', #66, #45, #170 ) ;
#77 = FACE_OUTER_BOUND ( 'NONE', #260, .T. ) ;
#78 = DIRECTION ( 'NONE',  ( 0.000000000000000000, 0.000000000000000000, -1.000000000000000000 ) ) ;
#79 = DIMENSIONAL_EXPONENTS ( 1.000000000000000000, 0.000000000000000000, 0.000000000000000000, 0.000000000000000000, 0.000000000000000000, 0.000000000000000000, 0.000000000000000000 ) ;
#80 = DIRECTION ( 'NONE',  ( -0.000000000000000000, -1.000000000000000000, -0.000000000000000000 ) ) ;
#81 = DIRECTION ( 'NONE',  ( -1.000000000000000000, 0.000000000000000000, 0.000000000000000000 ) ) ;
#82 =( GEOMETRIC_REPRESENTATION_CONTEXT ( 3 ) GLOBAL_UNCERTAINTY_ASSIGNED_CONTEXT ( ( #306 ) ) GLOBAL_UNIT_ASSIGNED_CONTEXT ( ( #101, #130, #135 ) ) REPRESENTATION_CONTEXT ( 'NONE', 'WORKASPACE' ) );
#83 = DIRECTION ( 'NONE',  ( 6.123233995736763571E-17, 1.000000000000000000, -0.000000000000000000 ) ) ;
#84 = LENGTH_MEASURE_WITH_UNIT ( LENGTH_MEASURE( 0.02539999999999999897 ), #169 );
#85 = MECHANICAL_DESIGN_GEOMETRIC_PRESENTATION_REPRESENTATION (  '', ( #122 ), #245 ) ;
#86 = ADVANCED_FACE ( 'NONE', ( #234 ), #15, .F. ) ;
#87 = DIRECTION ( 'NONE',  ( -0.000000000000000000, -1.000000000000000000, -0.000000000000000000 ) ) ;
#88 =( NAMED_UNIT ( * ) SI_UNIT ( $, .STERADIAN. ) SOLID_ANGLE_UNIT ( ) );
#89 = CARTESIAN_POINT ( 'NONE',  ( 0.000000000000000000, 1.000000000000000000, 0.000000000000000000 ) ) ;
#90 =( NAMED_UNIT ( * ) PLANE_ANGLE_UNIT ( ) SI_UNIT ( $, .RADIAN. ) );
#91 = PLANE ( 'NONE',  #212 ) ;
#92 = COLOUR_RGB ( '',1.000000000000000000, 0.000000000000000000, 0.000000000000000000 ) ;
#93 = FILL_AREA_STYLE ('',( #14 ) ) ;
#94 = ORIENTED_EDGE ( 'NONE', *, *, #134, .T. ) ;
#95 = SURFACE_STYLE_USAGE ( .BOTH. , #289 ) ;
#96 = FILL_AREA_STYLE ('',( #257 ) ) ;
#97 = PRODUCT_DEFINITION_SHAPE ( 'NONE', 'NONE',  #53 ) ;
#98 = VERTEX_POINT ( 'NONE', #1 ) ;
#99 = AXIS2_PLACEMENT_3D ( 'NONE', #294, #54, #157 ) ;
#100 = VECTOR ( 'NONE', #305, 39.37007874015748143 ) ;
#101 =( CONVERSION_BASED_UNIT ( 'INCH', #2 ) LENGTH_UNIT ( ) NAMED_UNIT ( #79 ) );
#102 =( LENGTH_UNIT ( ) NAMED_UNIT ( * ) SI_UNIT ( $, .METRE. ) );
#103 = EDGE_LOOP ( 'NONE', ( #16, #201, #31, #119 ) ) ;
#104 = CARTESIAN_POINT ( 'NONE',  ( 0.000000000000000000, 1.000000000000000000, 0.000000000000000000 ) ) ;
#105 = MECHANICAL_DESIGN_GEOMETRIC_PRESENTATION_REPRESENTATION (  '', ( #265 ), #124 ) ;
#106 = DIMENSIONAL_EXPONENTS ( 1.000000000000000000, 0.000000000000000000, 0.000000000000000000, 0.000000000000000000, 0.000000000000000000, 0.000000000000000000, 0.000000000000000000 ) ;
#107 = CARTESIAN_POINT ( 'NONE',  ( 0.000000000000000000, 0.000000000000000000, 0.000000000000000000 ) ) ;
#108 = PRODUCT_CONTEXT ( 'NONE', #34, 'mechanical' ) ;
#109 = CYLINDRICAL_SURFACE ( 'NONE', #19, 0.3749999999999999445 ) ;
#110 = ADVANCED_FACE ( 'NONE', ( #39 ), #214, .T. ) ;
#111 = AXIS2_PLACEMENT_3D ( 'NONE', #146, #237, #123 ) ;
#112 = PRESENTATION_LAYER_ASSIGNMENT (  '', '', ( #309 ) ) ;
#113 = FACE_OUTER_BOUND ( 'NONE', #235, .T. ) ;
#114 = UNCERTAINTY_MEASURE_WITH_UNIT (LENGTH_MEASURE( 1.000000000000000082E-05 ), #279, 'distance_accuracy_value', 'NONE');
#115 = SURFACE_STYLE_FILL_AREA ( #165 ) ;
#116 = CARTESIAN_POINT ( 'NONE',  ( 0.000000000000000000, 0.000000000000000000, -0.3750000000000000555 ) ) ;
#117 = CARTESIAN_POINT ( 'NONE',  ( -0.3749999999999998335, 3.000000000000000444, 0.000000000000000000 ) ) ;
#118 = UNCERTAINTY_MEASURE_WITH_UNIT (LENGTH_MEASURE( 1.000000000000000082E-05 ), #244, 'distance_accuracy_value', 'NONE');
#119 = ORIENTED_EDGE ( 'NONE', *, *, #207, .F. ) ;
#120 = ADVANCED_FACE ( 'NONE', ( #142 ), #91, .F. ) ;
#121 = SURFACE_STYLE_FILL_AREA ( #93 ) ;
#122 = STYLED_ITEM ( 'NONE', ( #70 ), #110 ) ;
#123 = DIRECTION ( 'NONE',  ( 0.000000000000000000, 0.000000000000000000, -1.000000000000000000 ) ) ;
#124 =( GEOMETRIC_REPRESENTATION_CONTEXT ( 3 ) GLOBAL_UNCERTAINTY_ASSIGNED_CONTEXT ( ( #118 ) ) GLOBAL_UNIT_ASSIGNED_CONTEXT ( ( #244, #43, #178 ) ) REPRESENTATION_CONTEXT ( 'NONE', 'WORKASPACE' ) );
#125 = DIRECTION ( 'NONE',  ( 0.000000000000000000, 0.000000000000000000, -1.000000000000000000 ) ) ;
#126 = SURFACE_SIDE_STYLE ('',( #73 ) ) ;
#127 = EDGE_LOOP ( 'NONE', ( #243, #128 ) ) ;
#128 = ORIENTED_EDGE ( 'NONE', *, *, #304, .F. ) ;
#129 = PRESENTATION_LAYER_ASSIGNMENT (  '', '', ( #265 ) ) ;
#130 =( NAMED_UNIT ( * ) PLANE_ANGLE_UNIT ( ) SI_UNIT ( $, .RADIAN. ) );
#131 = PRESENTATION_STYLE_ASSIGNMENT (( #267 ) ) ;
#132 = UNCERTAINTY_MEASURE_WITH_UNIT (LENGTH_MEASURE( 1.000000000000000082E-05 ), #30, 'distance_accuracy_value', 'NONE');
#133 =( CONVERSION_BASED_UNIT ( 'INCH', #249 ) LENGTH_UNIT ( ) NAMED_UNIT ( #182 ) );
#134 = EDGE_CURVE ( 'NONE', #196, #69, #71, .T. ) ;
#135 =( NAMED_UNIT ( * ) SI_UNIT ( $, .STERADIAN. ) SOLID_ANGLE_UNIT ( ) );
#136 = EDGE_CURVE ( 'NONE', #98, #171, #278, .T. ) ;
#137 = STYLED_ITEM ( 'NONE', ( #280 ), #270 ) ;
#138 =( NAMED_UNIT ( * ) SI_UNIT ( $, .STERADIAN. ) SOLID_ANGLE_UNIT ( ) );
#139 = ADVANCED_FACE ( 'NONE', ( #77 ), #211, .T. ) ;
#140 =( GEOMETRIC_REPRESENTATION_CONTEXT ( 3 ) GLOBAL_UNCERTAINTY_ASSIGNED_CONTEXT ( ( #132 ) ) GLOBAL_UNIT_ASSIGNED_CONTEXT ( ( #30, #296, #47 ) ) REPRESENTATION_CONTEXT ( 'NONE', 'WORKASPACE' ) );
#141 = CARTESIAN_POINT ( 'NONE',  ( 1.224646799147352714E-16, 3.000000000000000444, 0.000000000000000000 ) ) ;
#142 = FACE_OUTER_BOUND ( 'NONE', #127, .T. ) ;
#143 = EDGE_CURVE ( 'NONE', #5, #250, #308, .T. ) ;
#144 = PLANE ( 'NONE',  #200 ) ;
#145 = UNCERTAINTY_MEASURE_WITH_UNIT (LENGTH_MEASURE( 1.000000000000000082E-05 ), #11, 'distance_accuracy_value', 'NONE');
#146 = CARTESIAN_POINT ( 'NONE',  ( 0.000000000000000000, 0.000000000000000000, 0.000000000000000000 ) ) ;
#147 = STYLED_ITEM ( 'NONE', ( #131 ), #180 ) ;
#148 =( LENGTH_UNIT ( ) NAMED_UNIT ( * ) SI_UNIT ( $, .METRE. ) );
#149 = AXIS2_PLACEMENT_3D ( 'NONE', #151, #175, #242 ) ;
#150 = APPLICATION_CONTEXT ( 'automotive_design' ) ;
#151 = CARTESIAN_POINT ( 'NONE',  ( -3.032960542342103792E-32, 1.000000000000000000, 0.000000000000000000 ) ) ;
#152 = VERTEX_POINT ( 'NONE', #246 ) ;
#153 = CARTESIAN_POINT ( 'NONE',  ( 0.000000000000000000, 1.000000000000000000, 0.000000000000000000 ) ) ;
#154 = CIRCLE ( 'NONE', #230, 0.3750000000000000555 ) ;
#155 = COLOUR_RGB ( '',1.000000000000000000, 0.000000000000000000, 0.000000000000000000 ) ;
#156 = MECHANICAL_DESIGN_GEOMETRIC_PRESENTATION_REPRESENTATION (  '', ( #309 ), #8 ) ;
#157 = DIRECTION ( 'NONE',  ( -1.000000000000000000, 0.000000000000000000, 0.000000000000000000 ) ) ;
#158 = DIMENSIONAL_EXPONENTS ( 1.000000000000000000, 0.000000000000000000, 0.000000000000000000, 0.000000000000000000, 0.000000000000000000, 0.000000000000000000, 0.000000000000000000 ) ;
#159 = CARTESIAN_POINT ( 'NONE',  ( 0.000000000000000000, 1.000000000000000000, -0.3750000000000000555 ) ) ;
#160 = CARTESIAN_POINT ( 'NONE',  ( 0.3750000000000000555, 3.000000000000000444, 4.592425496802574219E-17 ) ) ;
#161 = STYLED_ITEM ( 'NONE', ( #263 ), #139 ) ;
#162 = EDGE_LOOP ( 'NONE', ( #258, #199 ) ) ;
#163 =( LENGTH_UNIT ( ) NAMED_UNIT ( * ) SI_UNIT ( $, .METRE. ) );
#164 = LINE ( 'NONE', #41, #49 ) ;
#165 = FILL_AREA_STYLE ('',( #187 ) ) ;
#166 = CIRCLE ( 'NONE', #193, 0.3749999999999998890 ) ;
#167 = CARTESIAN_POINT ( 'NONE',  ( 4.592425496802575451E-17, 0.000000000000000000, 0.3750000000000000555 ) ) ;
#168 = ORIENTED_EDGE ( 'NONE', *, *, #32, .T. ) ;
#169 =( LENGTH_UNIT ( ) NAMED_UNIT ( * ) SI_UNIT ( $, .METRE. ) );
#170 = DIRECTION ( 'NONE',  ( -1.000000000000000000, 0.000000000000000000, 0.000000000000000000 ) ) ;
#171 = VERTEX_POINT ( 'NONE', #160 ) ;
#172 = PRODUCT ( '48585', '48585', '', ( #108 ) ) ;
#173 = CARTESIAN_POINT ( 'NONE',  ( 0.3750000000000000555, 3.000000000000000444, 0.000000000000000000 ) ) ;
#174 = ORIENTED_EDGE ( 'NONE', *, *, #134, .F. ) ;
#175 = DIRECTION ( 'NONE',  ( 6.123233995736763571E-17, 1.000000000000000000, -0.000000000000000000 ) ) ;
#176 = CLOSED_SHELL ( 'NONE', ( #139, #110, #180, #288 ) ) ;
#177 = CARTESIAN_POINT ( 'NONE',  ( 0.3750000000000001110, 3.000000000000000444, 4.592425496802573602E-17 ) ) ;
#178 =( NAMED_UNIT ( * ) SI_UNIT ( $, .STERADIAN. ) SOLID_ANGLE_UNIT ( ) );
#179 = DIRECTION ( 'NONE',  ( 0.000000000000000000, 0.000000000000000000, -1.000000000000000000 ) ) ;
#180 = ADVANCED_FACE ( 'NONE', ( #51 ), #266, .T. ) ;
#181 = ORIENTED_EDGE ( 'NONE', *, *, #143, .T. ) ;
#182 = DIMENSIONAL_EXPONENTS ( 1.000000000000000000, 0.000000000000000000, 0.000000000000000000, 0.000000000000000000, 0.000000000000000000, 0.000000000000000000, 0.000000000000000000 ) ;
#183 = FILL_AREA_STYLE ('',( #23 ) ) ;
#184 = DIRECTION ( 'NONE',  ( -1.000000000000000000, 0.000000000000000000, 0.000000000000000000 ) ) ;
#185 = EDGE_CURVE ( 'NONE', #250, #5, #48, .T. ) ;
#186 = DIRECTION ( 'NONE',  ( 6.123233995736763571E-17, 1.000000000000000000, -0.000000000000000000 ) ) ;
#187 = FILL_AREA_STYLE_COLOUR ( '', #247 ) ;
#188 = ADVANCED_BREP_SHAPE_REPRESENTATION ( '48585', ( #270, #273, #72 ), #82 ) ;
#189 = DIRECTION ( 'NONE',  ( 0.000000000000000000, 1.000000000000000000, 0.000000000000000000 ) ) ;
#190 = SURFACE_SIDE_STYLE ('',( #115 ) ) ;
#191 = AXIS2_PLACEMENT_3D ( 'NONE', #27, #50, #225 ) ;
#192 = PRODUCT_DEFINITION_CONTEXT ( 'detailed design', #150, 'design' ) ;
#193 = AXIS2_PLACEMENT_3D ( 'NONE', #141, #186, #13 ) ;
#194 = CARTESIAN_POINT ( 'NONE',  ( 7.030123981227453260E-34, 1.000000000000000000, 0.000000000000000000 ) ) ;
#195 = LINE ( 'NONE', #177, #221 ) ;
#196 = VERTEX_POINT ( 'NONE', #116 ) ;
#197 = CARTESIAN_POINT ( 'NONE',  ( 4.592425496802575451E-17, 0.000000000000000000, 0.3750000000000000555 ) ) ;
#198 = EDGE_CURVE ( 'NONE', #152, #98, #17, .T. ) ;
#199 = ORIENTED_EDGE ( 'NONE', *, *, #185, .F. ) ;
#200 = AXIS2_PLACEMENT_3D ( 'NONE', #203, #262, #125 ) ;
#201 = ORIENTED_EDGE ( 'NONE', *, *, #304, .T. ) ;
#202 = ORIENTED_EDGE ( 'NONE', *, *, #32, .F. ) ;
#203 = CARTESIAN_POINT ( 'NONE',  ( 0.000000000000000000, 0.000000000000000000, 0.000000000000000000 ) ) ;
#204 =( NAMED_UNIT ( * ) SI_UNIT ( $, .STERADIAN. ) SOLID_ANGLE_UNIT ( ) );
#205 = DIMENSIONAL_EXPONENTS ( 1.000000000000000000, 0.000000000000000000, 0.000000000000000000, 0.000000000000000000, 0.000000000000000000, 0.000000000000000000, 0.000000000000000000 ) ;
#206 = DIRECTION ( 'NONE',  ( 0.000000000000000000, 0.000000000000000000, -1.000000000000000000 ) ) ;
#207 = EDGE_CURVE ( 'NONE', #171, #98, #166, .T. ) ;
#208 = ORIENTED_EDGE ( 'NONE', *, *, #136, .F. ) ;
#209 = CARTESIAN_POINT ( 'NONE',  ( 1.224646799147352714E-16, 3.000000000000000444, 0.000000000000000000 ) ) ;
#210 = MECHANICAL_DESIGN_GEOMETRIC_PRESENTATION_REPRESENTATION (  '', ( #137 ), #231 ) ;
#211 = CYLINDRICAL_SURFACE ( 'NONE', #6, 0.3750000000000000555 ) ;
#212 = AXIS2_PLACEMENT_3D ( 'NONE', #194, #285, #42 ) ;
#213 = FACE_OUTER_BOUND ( 'NONE', #103, .T. ) ;
#214 = PLANE ( 'NONE',  #264 ) ;
#215 = CARTESIAN_POINT ( 'NONE',  ( 4.592425496802575451E-17, 1.000000000000000000, 0.3750000000000000555 ) ) ;
#216 = LINE ( 'NONE', #197, #25 ) ;
#217 = DIRECTION ( 'NONE',  ( -0.000000000000000000, -1.000000000000000000, -0.000000000000000000 ) ) ;
#218 = PRESENTATION_LAYER_ASSIGNMENT (  '', '', ( #137 ) ) ;
#219 = DIRECTION ( 'NONE',  ( -0.000000000000000000, -1.000000000000000000, -0.000000000000000000 ) ) ;
#220 = ORIENTED_EDGE ( 'NONE', *, *, #198, .F. ) ;
#221 = VECTOR ( 'NONE', #291, 39.37007874015748143 ) ;
#222 = LENGTH_MEASURE_WITH_UNIT ( LENGTH_MEASURE( 0.02539999999999999897 ), #67 );
#223 = SURFACE_STYLE_USAGE ( .BOTH. , #226 ) ;
#224 = ORIENTED_EDGE ( 'NONE', *, *, #284, .F. ) ;
#225 = DIRECTION ( 'NONE',  ( 0.000000000000000000, 0.000000000000000000, -1.000000000000000000 ) ) ;
#226 = SURFACE_SIDE_STYLE ('',( #277 ) ) ;
#227 = CIRCLE ( 'NONE', #64, 0.3750000000000000555 ) ;
#228 = ORIENTED_EDGE ( 'NONE', *, *, #207, .T. ) ;
#229 = DIRECTION ( 'NONE',  ( 1.000000000000000000, 0.000000000000000000, 0.000000000000000000 ) ) ;
#230 = AXIS2_PLACEMENT_3D ( 'NONE', #251, #298, #81 ) ;
#231 =( GEOMETRIC_REPRESENTATION_CONTEXT ( 3 ) GLOBAL_UNCERTAINTY_ASSIGNED_CONTEXT ( ( #145 ) ) GLOBAL_UNIT_ASSIGNED_CONTEXT ( ( #11, #90, #138 ) ) REPRESENTATION_CONTEXT ( 'NONE', 'WORKASPACE' ) );
#232 = FACE_OUTER_BOUND ( 'NONE', #7, .T. ) ;
#233 = MECHANICAL_DESIGN_GEOMETRIC_PRESENTATION_REPRESENTATION (  '', ( #147 ), #55 ) ;
#234 = FACE_OUTER_BOUND ( 'NONE', #239, .T. ) ;
#235 = EDGE_LOOP ( 'NONE', ( #297, #272, #208, #220 ) ) ;
#236 = DIRECTION ( 'NONE',  ( 0.000000000000000000, 0.000000000000000000, -1.000000000000000000 ) ) ;
#237 = DIRECTION ( 'NONE',  ( -0.000000000000000000, -1.000000000000000000, -0.000000000000000000 ) ) ;
#238 = COLOUR_RGB ( '',1.000000000000000000, 0.000000000000000000, 0.000000000000000000 ) ;
#239 = EDGE_LOOP ( 'NONE', ( #40, #228 ) ) ;
#240 =( CONVERSION_BASED_UNIT ( 'INCH', #307 ) LENGTH_UNIT ( ) NAMED_UNIT ( #271 ) );
#241 = EDGE_LOOP ( 'NONE', ( #46, #24, #21, #202 ) ) ;
#242 = DIRECTION ( 'NONE',  ( -1.000000000000000000, 0.000000000000000000, 0.000000000000000000 ) ) ;
#243 = ORIENTED_EDGE ( 'NONE', *, *, #10, .F. ) ;
#244 =( CONVERSION_BASED_UNIT ( 'INCH', #222 ) LENGTH_UNIT ( ) NAMED_UNIT ( #52 ) );
#245 =( GEOMETRIC_REPRESENTATION_CONTEXT ( 3 ) GLOBAL_UNCERTAINTY_ASSIGNED_CONTEXT ( ( #290 ) ) GLOBAL_UNIT_ASSIGNED_CONTEXT ( ( #240, #22, #18 ) ) REPRESENTATION_CONTEXT ( 'NONE', 'WORKASPACE' ) );
#246 = CARTESIAN_POINT ( 'NONE',  ( -0.3750000000000000555, 1.000000000000000000, 0.000000000000000000 ) ) ;
#247 = COLOUR_RGB ( '',0.7921568627450980005, 0.8196078431372548767, 0.9333333333333333481 ) ;
#248 = SHAPE_DEFINITION_REPRESENTATION ( #97, #188 ) ;
#249 = LENGTH_MEASURE_WITH_UNIT ( LENGTH_MEASURE( 0.02539999999999999897 ), #102 );
#250 = VERTEX_POINT ( 'NONE', #215 ) ;
#251 = CARTESIAN_POINT ( 'NONE',  ( -3.032960542342103792E-32, 1.000000000000000000, 0.000000000000000000 ) ) ;
#252 = DIRECTION ( 'NONE',  ( -0.000000000000000000, -1.000000000000000000, -0.000000000000000000 ) ) ;
#253 = AXIS2_PLACEMENT_3D ( 'NONE', #173, #261, #259 ) ;
#254 = LENGTH_MEASURE_WITH_UNIT ( LENGTH_MEASURE( 0.02539999999999999897 ), #163 );
#255 = CARTESIAN_POINT ( 'NONE',  ( 0.3750000000000000555, 1.000000000000000000, 4.592425496802574219E-17 ) ) ;
#256 = SURFACE_STYLE_USAGE ( .BOTH. , #37 ) ;
#257 = FILL_AREA_STYLE_COLOUR ( '', #299 ) ;
#258 = ORIENTED_EDGE ( 'NONE', *, *, #143, .F. ) ;
#259 = DIRECTION ( 'NONE',  ( 1.000000000000000000, -6.123233995736763571E-17, 0.000000000000000000 ) ) ;
#260 = EDGE_LOOP ( 'NONE', ( #181, #286, #174, #224 ) ) ;
#261 = DIRECTION ( 'NONE',  ( -6.123233995736763571E-17, -1.000000000000000000, 0.000000000000000000 ) ) ;
#262 = DIRECTION ( 'NONE',  ( 0.000000000000000000, -1.000000000000000000, -0.000000000000000000 ) ) ;
#263 = PRESENTATION_STYLE_ASSIGNMENT (( #223 ) ) ;
#264 = AXIS2_PLACEMENT_3D ( 'NONE', #89, #189, #281 ) ;
#265 = STYLED_ITEM ( 'NONE', ( #287 ), #288 ) ;
#266 = CYLINDRICAL_SURFACE ( 'NONE', #191, 0.3750000000000000555 ) ;
#267 = SURFACE_STYLE_USAGE ( .BOTH. , #302 ) ;
#268 = PRODUCT_RELATED_PRODUCT_CATEGORY ( 'part', '', ( #172 ) ) ;
#269 = LENGTH_MEASURE_WITH_UNIT ( LENGTH_MEASURE( 0.02539999999999999897 ), #60 );
#270 = MANIFOLD_SOLID_BREP ( 'Revolve - Cutting Edge', #176 ) ;
#271 = DIMENSIONAL_EXPONENTS ( 1.000000000000000000, 0.000000000000000000, 0.000000000000000000, 0.000000000000000000, 0.000000000000000000, 0.000000000000000000, 0.000000000000000000 ) ;
#272 = ORIENTED_EDGE ( 'NONE', *, *, #68, .T. ) ;
#273 = MANIFOLD_SOLID_BREP ( 'Revolve - Tool Body (Straight Shanked)', #44 ) ;
#274 = MECHANICAL_DESIGN_GEOMETRIC_PRESENTATION_REPRESENTATION (  '', ( #161 ), #140 ) ;
#275 = PRODUCT_DEFINITION_FORMATION_WITH_SPECIFIED_SOURCE ( 'ANY', '', #172, .NOT_KNOWN. ) ;
#276 = APPLICATION_PROTOCOL_DEFINITION ( 'draft international standard', 'automotive_design', 1998, #34 ) ;
#277 = SURFACE_STYLE_FILL_AREA ( #35 ) ;
#278 = CIRCLE ( 'NONE', #99, 0.3749999999999998890 ) ;
#279 =( CONVERSION_BASED_UNIT ( 'INCH', #84 ) LENGTH_UNIT ( ) NAMED_UNIT ( #106 ) );
#280 = PRESENTATION_STYLE_ASSIGNMENT (( #256 ) ) ;
#281 = DIRECTION ( 'NONE',  ( 0.000000000000000000, -0.000000000000000000, 1.000000000000000000 ) ) ;
#282 = VERTEX_POINT ( 'NONE', #255 ) ;
#283 = AXIS2_PLACEMENT_3D ( 'NONE', #104, #217, #236 ) ;
#284 = EDGE_CURVE ( 'NONE', #5, #196, #164, .T. ) ;
#285 = DIRECTION ( 'NONE',  ( 6.123233995736763571E-17, 1.000000000000000000, -0.000000000000000000 ) ) ;
#286 = ORIENTED_EDGE ( 'NONE', *, *, #75, .T. ) ;
#287 = PRESENTATION_STYLE_ASSIGNMENT (( #95 ) ) ;
#288 = ADVANCED_FACE ( 'NONE', ( #232 ), #144, .T. ) ;
#289 = SURFACE_SIDE_STYLE ('',( #36 ) ) ;
#290 = UNCERTAINTY_MEASURE_WITH_UNIT (LENGTH_MEASURE( 1.000000000000000082E-05 ), #240, 'distance_accuracy_value', 'NONE');
#291 = DIRECTION ( 'NONE',  ( 6.123233995736763571E-17, 1.000000000000000000, -0.000000000000000000 ) ) ;
#292 = FILL_AREA_STYLE_COLOUR ( '', #155 ) ;
#293 = CIRCLE ( 'NONE', #149, 0.3750000000000000555 ) ;
#294 = CARTESIAN_POINT ( 'NONE',  ( 1.224646799147352714E-16, 3.000000000000000444, 0.000000000000000000 ) ) ;
#295 = DIRECTION ( 'NONE',  ( -0.000000000000000000, -1.000000000000000000, -0.000000000000000000 ) ) ;
#296 =( NAMED_UNIT ( * ) PLANE_ANGLE_UNIT ( ) SI_UNIT ( $, .RADIAN. ) );
#297 = ORIENTED_EDGE ( 'NONE', *, *, #10, .T. ) ;
#298 = DIRECTION ( 'NONE',  ( 6.123233995736763571E-17, 1.000000000000000000, -0.000000000000000000 ) ) ;
#299 = COLOUR_RGB ( '',1.000000000000000000, 0.000000000000000000, 0.000000000000000000 ) ;
#300 = PRESENTATION_LAYER_ASSIGNMENT (  '', '', ( #147 ) ) ;
#301 = DIRECTION ( 'NONE',  ( 0.000000000000000000, 0.000000000000000000, 1.000000000000000000 ) ) ;
#302 = SURFACE_SIDE_STYLE ('',( #28 ) ) ;
#303 =( NAMED_UNIT ( * ) PLANE_ANGLE_UNIT ( ) SI_UNIT ( $, .RADIAN. ) );
#304 = EDGE_CURVE ( 'NONE', #282, #152, #293, .T. ) ;
#305 = DIRECTION ( 'NONE',  ( 6.123233995736763571E-17, 1.000000000000000000, -0.000000000000000000 ) ) ;
#306 = UNCERTAINTY_MEASURE_WITH_UNIT (LENGTH_MEASURE( 1.000000000000000082E-05 ), #101, 'distance_accuracy_value', 'NONE');
#307 = LENGTH_MEASURE_WITH_UNIT ( LENGTH_MEASURE( 0.02539999999999999897 ), #148 );
#308 = CIRCLE ( 'NONE', #61, 0.3750000000000000555 ) ;
#309 = STYLED_ITEM ( 'NONE', ( #65 ), #273 ) ;
ENDSEC;
END-ISO-10303-21;
