ISO-10303-21;
HEADER;
FILE_DESCRIPTION (( 'STEP AP214' ),
    '1' );
FILE_NAME ('Micro_RME-050-2X.STEP',
    '2021-09-01T23:27:36',
    ( '' ),
    ( '' ),
    'SwSTEP 2.0',
    'SolidWorks 2020',
    '' );
FILE_SCHEMA (( 'AUTOMOTIVE_DESIGN' ));
ENDSEC;

DATA;
#1 = CARTESIAN_POINT ( 'NONE',  ( 0.0000000000000000000, 0.0000000000000000000, 1.485000000000000764 ) ) ;
#2 = AXIS2_PLACEMENT_3D ( 'NONE', #160, #253, #41 ) ;
#3 = VERTEX_POINT ( 'NONE', #111 ) ;
#4 = ADVANCED_FACE ( 'NONE', ( #37 ), #249, .F. ) ;
#5 = FACE_OUTER_BOUND ( 'NONE', #169, .T. ) ;
#6 = FILL_AREA_STYLE_COLOUR ( '', #61 ) ;
#7 = ADVANCED_FACE ( 'NONE', ( #251 ), #90, .T. ) ;
#8 = AXIS2_PLACEMENT_3D ( 'NONE', #259, #50, #82 ) ;
#9 = SURFACE_STYLE_USAGE ( .BOTH. , #237 ) ;
#10 = ORIENTED_EDGE ( 'NONE', *, *, #130, .F. ) ;
#11 = ORIENTED_EDGE ( 'NONE', *, *, #109, .T. ) ;
#12 = AXIS2_PLACEMENT_3D ( 'NONE', #72, #183, #272 ) ;
#13 = CARTESIAN_POINT ( 'NONE',  ( 3.745650057197991247E-34, 0.0000000000000000000, 3.058555380870515335E-18 ) ) ;
#14 = DIRECTION ( 'NONE',  ( 0.0000000000000000000, 0.0000000000000000000, 1.000000000000000000 ) ) ;
#15 = APPLICATION_CONTEXT ( 'automotive_design' ) ;
#16 = EDGE_CURVE ( 'NONE', #147, #167, #39, .T. ) ;
#17 = DIRECTION ( 'NONE',  ( 1.000000000000000000, 0.0000000000000000000, 0.0000000000000000000 ) ) ;
#18 = ORIENTED_EDGE ( 'NONE', *, *, #234, .F. ) ;
#19 = DIRECTION ( 'NONE',  ( 0.0000000000000000000, 0.0000000000000000000, 1.000000000000000000 ) ) ;
#20 = CIRCLE ( 'NONE', #292, 0.02497500000000000067 ) ;
#21 = CARTESIAN_POINT ( 'NONE',  ( 0.04750000000000064587, 5.817072295950006528E-18, 1.500000000000000222 ) ) ;
#22 = ADVANCED_FACE ( 'NONE', ( #136 ), #66, .T. ) ;
#23 = LINE ( 'NONE', #117, #291 ) ;
#24 =( NAMED_UNIT ( * ) SI_UNIT ( $, .STERADIAN. ) SOLID_ANGLE_UNIT ( ) );
#25 = SURFACE_STYLE_USAGE ( .BOTH. , #74 ) ;
#26 = SURFACE_STYLE_FILL_AREA ( #228 ) ;
#27 = VERTEX_POINT ( 'NONE', #36 ) ;
#28 = AXIS2_PLACEMENT_3D ( 'NONE', #220, #19, #204 ) ;
#29 = CIRCLE ( 'NONE', #191, 0.06250000000000002776 ) ;
#30 = CIRCLE ( 'NONE', #196, 0.02497500000000000067 ) ;
#31 = EDGE_CURVE ( 'NONE', #167, #147, #20, .T. ) ;
#32 = APPLICATION_CONTEXT ( 'automotive_design' ) ;
#33 = CIRCLE ( 'NONE', #269, 0.02497500000000000067 ) ;
#34 = ADVANCED_FACE ( 'NONE', ( #156 ), #112, .T. ) ;
#35 = FACE_OUTER_BOUND ( 'NONE', #258, .T. ) ;
#36 = CARTESIAN_POINT ( 'NONE',  ( -0.04750000000000064587, 0.0000000000000000000, 1.500000000000000222 ) ) ;
#37 = FACE_OUTER_BOUND ( 'NONE', #238, .T. ) ;
#38 = FACE_OUTER_BOUND ( 'NONE', #263, .T. ) ;
#39 = CIRCLE ( 'NONE', #88, 0.02497500000000000067 ) ;
#40 = PRESENTATION_LAYER_ASSIGNMENT (  '', '', ( #283 ) ) ;
#41 = DIRECTION ( 'NONE',  ( 1.000000000000000000, 0.0000000000000000000, 0.0000000000000000000 ) ) ;
#42 = VERTEX_POINT ( 'NONE', #293 ) ;
#43 = FACE_OUTER_BOUND ( 'NONE', #105, .T. ) ;
#44 = EDGE_LOOP ( 'NONE', ( #186, #232, #165, #93 ) ) ;
#45 = LINE ( 'NONE', #210, #71 ) ;
#46 = COLOUR_RGB ( '',0.7921568627450980005, 0.8196078431372548767, 0.9333333333333333481 ) ;
#47 = DIRECTION ( 'NONE',  ( 1.000000000000000000, 0.0000000000000000000, 0.0000000000000000000 ) ) ;
#48 = VERTEX_POINT ( 'NONE', #205 ) ;
#49 = EDGE_CURVE ( 'NONE', #42, #3, #222, .T. ) ;
#50 = DIRECTION ( 'NONE',  ( -0.0000000000000000000, -0.0000000000000000000, -1.000000000000000000 ) ) ;
#51 = ORIENTED_EDGE ( 'NONE', *, *, #175, .F. ) ;
#52 = DIRECTION ( 'NONE',  ( -1.000000000000000000, 0.0000000000000000000, 0.0000000000000000000 ) ) ;
#53 = ORIENTED_EDGE ( 'NONE', *, *, #243, .F. ) ;
#54 = DIRECTION ( 'NONE',  ( 0.0000000000000000000, 0.0000000000000000000, -1.000000000000000000 ) ) ;
#55 = AXIS2_PLACEMENT_3D ( 'NONE', #168, #260, #52 ) ;
#56 = ORIENTED_EDGE ( 'NONE', *, *, #157, .F. ) ;
#57 = EDGE_LOOP ( 'NONE', ( #53, #282, #127, #150 ) ) ;
#58 = ORIENTED_EDGE ( 'NONE', *, *, #161, .F. ) ;
#59 = SURFACE_STYLE_FILL_AREA ( #198 ) ;
#60 = ORIENTED_EDGE ( 'NONE', *, *, #201, .T. ) ;
#61 = COLOUR_RGB ( '',0.7921568627450980005, 0.8196078431372548767, 0.9333333333333333481 ) ;
#62 = CIRCLE ( 'NONE', #266, 0.04750000000000064587 ) ;
#63 = DIRECTION ( 'NONE',  ( 0.0000000000000000000, 0.0000000000000000000, 1.000000000000000000 ) ) ;
#64 = ORIENTED_EDGE ( 'NONE', *, *, #109, .F. ) ;
#65 = DIRECTION ( 'NONE',  ( -1.224646799147353454E-16, -0.0000000000000000000, -1.000000000000000000 ) ) ;
#66 = PLANE ( 'NONE',  #103 ) ;
#67 = DIRECTION ( 'NONE',  ( 0.0000000000000000000, 0.0000000000000000000, -1.000000000000000000 ) ) ;
#68 = VERTEX_POINT ( 'NONE', #294 ) ;
#69 = FACE_OUTER_BOUND ( 'NONE', #83, .T. ) ;
#70 = VECTOR ( 'NONE', #114, 39.37007874015748143 ) ;
#71 = VECTOR ( 'NONE', #275, 39.37007874015748143 ) ;
#72 = CARTESIAN_POINT ( 'NONE',  ( 1.836970198721029749E-17, 0.0000000000000000000, 0.1499999999999999944 ) ) ;
#73 = LINE ( 'NONE', #276, #279 ) ;
#74 = SURFACE_SIDE_STYLE ('',( #26 ) ) ;
#75 = DIMENSIONAL_EXPONENTS ( 1.000000000000000000, 0.0000000000000000000, 0.0000000000000000000, 0.0000000000000000000, 0.0000000000000000000, 0.0000000000000000000, 0.0000000000000000000 ) ;
#76 = EDGE_CURVE ( 'NONE', #48, #147, #226, .T. ) ;
#77 =( GEOMETRIC_REPRESENTATION_CONTEXT ( 3 ) GLOBAL_UNCERTAINTY_ASSIGNED_CONTEXT ( ( #298 ) ) GLOBAL_UNIT_ASSIGNED_CONTEXT ( ( #107, #108, #287 ) ) REPRESENTATION_CONTEXT ( 'NONE', 'WORKASPACE' ) );
#78 =( NAMED_UNIT ( * ) PLANE_ANGLE_UNIT ( ) SI_UNIT ( $, .RADIAN. ) );
#79 = EDGE_LOOP ( 'NONE', ( #18, #158, #152, #121 ) ) ;
#80 = DIRECTION ( 'NONE',  ( -1.000000000000000000, 0.0000000000000000000, 0.0000000000000000000 ) ) ;
#81 = VERTEX_POINT ( 'NONE', #155 ) ;
#82 = DIRECTION ( 'NONE',  ( -1.000000000000000000, 0.0000000000000000000, 0.0000000000000000000 ) ) ;
#83 = EDGE_LOOP ( 'NONE', ( #64, #140, #254, #216 ) ) ;
#84 = ORIENTED_EDGE ( 'NONE', *, *, #96, .T. ) ;
#85 = PRESENTATION_STYLE_ASSIGNMENT (( #9 ) ) ;
#86 = ORIENTED_EDGE ( 'NONE', *, *, #130, .T. ) ;
#87 = PRODUCT_DEFINITION ( 'UNKNOWN', '', #219, #139 ) ;
#88 = AXIS2_PLACEMENT_3D ( 'NONE', #202, #271, #116 ) ;
#89 = ADVANCED_FACE ( 'NONE', ( #35 ), #166, .T. ) ;
#90 = CYLINDRICAL_SURFACE ( 'NONE', #211, 0.02497500000000000067 ) ;
#91 = DIRECTION ( 'NONE',  ( 0.0000000000000000000, 0.0000000000000000000, 1.000000000000000000 ) ) ;
#92 = CIRCLE ( 'NONE', #262, 0.06250000000000002776 ) ;
#93 = ORIENTED_EDGE ( 'NONE', *, *, #76, .F. ) ;
#94 = CARTESIAN_POINT ( 'NONE',  ( 0.0000000000000000000, 0.0000000000000000000, 1.500000000000000222 ) ) ;
#95 = DIRECTION ( 'NONE',  ( 0.7071067811865462405, 8.659560562354916834E-17, -0.7071067811865486830 ) ) ;
#96 = EDGE_CURVE ( 'NONE', #235, #27, #286, .T. ) ;
#97 = CARTESIAN_POINT ( 'NONE',  ( -0.02497499999999998332, 3.058555380870514950E-18, 0.1499999999999999944 ) ) ;
#98 = AXIS2_PLACEMENT_3D ( 'NONE', #233, #99, #47 ) ;
#99 = DIRECTION ( 'NONE',  ( -1.224646799147353454E-16, -0.0000000000000000000, -1.000000000000000000 ) ) ;
#100 = CARTESIAN_POINT ( 'NONE',  ( 0.0000000000000000000, 0.0000000000000000000, 1.485000000000000764 ) ) ;
#101 = DIRECTION ( 'NONE',  ( -1.224646799147353454E-16, -0.0000000000000000000, -1.000000000000000000 ) ) ;
#102 = CARTESIAN_POINT ( 'NONE',  ( 4.443200450799409520E-17, 0.0000000000000000000, 0.3628148502811535114 ) ) ;
#103 = AXIS2_PLACEMENT_3D ( 'NONE', #129, #91, #274 ) ;
#104 = EDGE_CURVE ( 'NONE', #27, #235, #62, .T. ) ;
#105 = EDGE_LOOP ( 'NONE', ( #56, #11, #60, #194 ) ) ;
#106 = PRODUCT_DEFINITION_SHAPE ( 'NONE', 'NONE',  #87 ) ;
#107 =( CONVERSION_BASED_UNIT ( 'INCH', #244 ) LENGTH_UNIT ( ) NAMED_UNIT ( #75 ) );
#108 =( NAMED_UNIT ( * ) PLANE_ANGLE_UNIT ( ) SI_UNIT ( $, .RADIAN. ) );
#109 = EDGE_CURVE ( 'NONE', #48, #81, #270, .T. ) ;
#110 = MECHANICAL_DESIGN_GEOMETRIC_PRESENTATION_REPRESENTATION (  '', ( #203 ), #176 ) ;
#111 = CARTESIAN_POINT ( 'NONE',  ( 0.06250000000000006939, 7.654042494670963708E-18, 0.3628148502811535114 ) ) ;
#112 = CYLINDRICAL_SURFACE ( 'NONE', #225, 0.02497500000000000067 ) ;
#113 = CARTESIAN_POINT ( 'NONE',  ( 0.0000000000000000000, 0.0000000000000000000, 1.500000000000000222 ) ) ;
#114 = DIRECTION ( 'NONE',  ( 0.1736481776669313304, 0.0000000000000000000, 0.9848077530122077983 ) ) ;
#115 = CIRCLE ( 'NONE', #296, 0.06250000000000002776 ) ;
#116 = DIRECTION ( 'NONE',  ( -1.000000000000000000, 0.0000000000000000000, 1.224646799147353454E-16 ) ) ;
#117 = CARTESIAN_POINT ( 'NONE',  ( -0.04750000000000064587, 0.0000000000000000000, 1.500000000000000222 ) ) ;
#118 = DIRECTION ( 'NONE',  ( -1.224646799147353454E-16, -0.0000000000000000000, -1.000000000000000000 ) ) ;
#119 = FACE_OUTER_BOUND ( 'NONE', #79, .T. ) ;
#120 = CYLINDRICAL_SURFACE ( 'NONE', #55, 0.06250000000000002776 ) ;
#121 = ORIENTED_EDGE ( 'NONE', *, *, #171, .F. ) ;
#122 = DIRECTION ( 'NONE',  ( -0.0000000000000000000, -0.0000000000000000000, -1.000000000000000000 ) ) ;
#123 = ADVANCED_FACE ( 'NONE', ( #38 ), #151, .T. ) ;
#124 = APPLICATION_PROTOCOL_DEFINITION ( 'draft international standard', 'automotive_design', 1998, #15 ) ;
#125 = ORIENTED_EDGE ( 'NONE', *, *, #148, .F. ) ;
#126 = CARTESIAN_POINT ( 'NONE',  ( 0.0000000000000000000, 0.0000000000000000000, 0.0000000000000000000 ) ) ;
#127 = ORIENTED_EDGE ( 'NONE', *, *, #76, .T. ) ;
#128 = CARTESIAN_POINT ( 'NONE',  ( 0.0000000000000000000, 0.0000000000000000000, 1.500000000000000222 ) ) ;
#129 = CARTESIAN_POINT ( 'NONE',  ( 0.0000000000000000000, 0.0000000000000000000, 1.500000000000000222 ) ) ;
#130 = EDGE_CURVE ( 'NONE', #235, #68, #224, .T. ) ;
#131 = DIRECTION ( 'NONE',  ( -1.000000000000000000, 0.0000000000000000000, 0.0000000000000000000 ) ) ;
#132 = VECTOR ( 'NONE', #184, 39.37007874015747433 ) ;
#133 = ORIENTED_EDGE ( 'NONE', *, *, #96, .F. ) ;
#134 = DIRECTION ( 'NONE',  ( -1.000000000000000000, 0.0000000000000000000, 0.0000000000000000000 ) ) ;
#135 = DIMENSIONAL_EXPONENTS ( 1.000000000000000000, 0.0000000000000000000, 0.0000000000000000000, 0.0000000000000000000, 0.0000000000000000000, 0.0000000000000000000, 0.0000000000000000000 ) ;
#136 = FACE_OUTER_BOUND ( 'NONE', #182, .T. ) ;
#137 = CARTESIAN_POINT ( 'NONE',  ( 0.02497500000000000067, 3.058555380870514950E-18, 0.0000000000000000000 ) ) ;
#138 = DIRECTION ( 'NONE',  ( 1.000000000000000000, 0.0000000000000000000, 0.0000000000000000000 ) ) ;
#139 = PRODUCT_DEFINITION_CONTEXT ( 'detailed design', #15, 'design' ) ;
#140 = ORIENTED_EDGE ( 'NONE', *, *, #245, .F. ) ;
#141 = PRODUCT ( 'Micro_RME-050-2X', 'Micro_RME-050-2X', '', ( #195 ) ) ;
#142 = ORIENTED_EDGE ( 'NONE', *, *, #201, .F. ) ;
#143 = CYLINDRICAL_SURFACE ( 'NONE', #8, 0.06250000000000002776 ) ;
#144 = ADVANCED_FACE ( 'NONE', ( #43 ), #185, .T. ) ;
#145 =( LENGTH_UNIT ( ) NAMED_UNIT ( * ) SI_UNIT ( $, .METRE. ) );
#146 = ADVANCED_FACE ( 'NONE', ( #69 ), #246, .T. ) ;
#147 = VERTEX_POINT ( 'NONE', #162 ) ;
#148 = EDGE_CURVE ( 'NONE', #27, #172, #23, .T. ) ;
#149 = ORIENTED_EDGE ( 'NONE', *, *, #16, .T. ) ;
#150 = ORIENTED_EDGE ( 'NONE', *, *, #31, .F. ) ;
#151 = CONICAL_SURFACE ( 'NONE', #236, 0.04750000000000064587, 0.7853981633974466137 ) ;
#152 = ORIENTED_EDGE ( 'NONE', *, *, #161, .T. ) ;
#153 = ADVANCED_FACE ( 'NONE', ( #119 ), #143, .T. ) ;
#154 = ORIENTED_EDGE ( 'NONE', *, *, #227, .F. ) ;
#155 = CARTESIAN_POINT ( 'NONE',  ( -0.06249999999999997918, 0.0000000000000000000, 0.3628148502811535114 ) ) ;
#156 = FACE_OUTER_BOUND ( 'NONE', #57, .T. ) ;
#157 = EDGE_CURVE ( 'NONE', #48, #42, #33, .T. ) ;
#158 = ORIENTED_EDGE ( 'NONE', *, *, #175, .T. ) ;
#159 = CARTESIAN_POINT ( 'NONE',  ( 0.0000000000000000000, 0.0000000000000000000, 0.0000000000000000000 ) ) ;
#160 = CARTESIAN_POINT ( 'NONE',  ( 1.836970198721029749E-17, 0.0000000000000000000, 0.1499999999999999944 ) ) ;
#161 = EDGE_CURVE ( 'NONE', #172, #81, #278, .T. ) ;
#162 = CARTESIAN_POINT ( 'NONE',  ( -0.02497500000000000067, 0.0000000000000000000, 6.117110761741030670E-18 ) ) ;
#163 = DIRECTION ( 'NONE',  ( -1.224646799147353454E-16, -0.0000000000000000000, -1.000000000000000000 ) ) ;
#164 = UNCERTAINTY_MEASURE_WITH_UNIT (LENGTH_MEASURE( 1.000000000000000082E-05 ), #193, 'distance_accuracy_value', 'NONE');
#165 = ORIENTED_EDGE ( 'NONE', *, *, #16, .F. ) ;
#166 = CONICAL_SURFACE ( 'NONE', #178, 0.04750000000000064587, 0.7853981633974466137 ) ;
#167 = VERTEX_POINT ( 'NONE', #137 ) ;
#168 = CARTESIAN_POINT ( 'NONE',  ( 0.0000000000000000000, 0.0000000000000000000, 1.500000000000000222 ) ) ;
#169 = EDGE_LOOP ( 'NONE', ( #212, #229, #142, #58 ) ) ;
#170 = CARTESIAN_POINT ( 'NONE',  ( -0.06250000000000002776, 0.0000000000000000000, 1.485000000000000764 ) ) ;
#171 = EDGE_CURVE ( 'NONE', #3, #81, #213, .T. ) ;
#172 = VERTEX_POINT ( 'NONE', #170 ) ;
#173 = MECHANICAL_DESIGN_GEOMETRIC_PRESENTATION_REPRESENTATION (  '', ( #283 ), #77 ) ;
#174 = ADVANCED_BREP_SHAPE_REPRESENTATION ( 'Micro_RME-050-2X', ( #218, #241 ), #179 ) ;
#175 = EDGE_CURVE ( 'NONE', #68, #172, #115, .T. ) ;
#176 =( GEOMETRIC_REPRESENTATION_CONTEXT ( 3 ) GLOBAL_UNCERTAINTY_ASSIGNED_CONTEXT ( ( #164 ) ) GLOBAL_UNIT_ASSIGNED_CONTEXT ( ( #193, #78, #24 ) ) REPRESENTATION_CONTEXT ( 'NONE', 'WORKASPACE' ) );
#177 = DIRECTION ( 'NONE',  ( -1.000000000000000000, 0.0000000000000000000, 1.224646799147353454E-16 ) ) ;
#178 = AXIS2_PLACEMENT_3D ( 'NONE', #128, #67, #134 ) ;
#179 =( GEOMETRIC_REPRESENTATION_CONTEXT ( 3 ) GLOBAL_UNCERTAINTY_ASSIGNED_CONTEXT ( ( #284 ) ) GLOBAL_UNIT_ASSIGNED_CONTEXT ( ( #217, #242, #197 ) ) REPRESENTATION_CONTEXT ( 'NONE', 'WORKASPACE' ) );
#180 = DIRECTION ( 'NONE',  ( -1.000000000000000000, 0.0000000000000000000, 1.224646799147353454E-16 ) ) ;
#181 = DIRECTION ( 'NONE',  ( 0.0000000000000000000, 0.0000000000000000000, 1.000000000000000000 ) ) ;
#182 = EDGE_LOOP ( 'NONE', ( #189, #84 ) ) ;
#183 = DIRECTION ( 'NONE',  ( 1.224646799147353454E-16, 0.0000000000000000000, 1.000000000000000000 ) ) ;
#184 = DIRECTION ( 'NONE',  ( -0.1736481776669311639, 2.126576849575782392E-17, 0.9848077530122080203 ) ) ;
#185 = CONICAL_SURFACE ( 'NONE', #12, 0.02497500000000000067, 0.1745329251994338360 ) ;
#186 = ORIENTED_EDGE ( 'NONE', *, *, #157, .T. ) ;
#187 = DIRECTION ( 'NONE',  ( 1.000000000000000000, 0.0000000000000000000, 0.0000000000000000000 ) ) ;
#188 = CARTESIAN_POINT ( 'NONE',  ( 0.04750000000000064587, 6.735557395310483192E-18, 1.500000000000000222 ) ) ;
#189 = ORIENTED_EDGE ( 'NONE', *, *, #104, .T. ) ;
#190 = LENGTH_MEASURE_WITH_UNIT ( LENGTH_MEASURE( 0.02539999999999999897 ), #207 );
#191 = AXIS2_PLACEMENT_3D ( 'NONE', #102, #101, #281 ) ;
#192 = DIRECTION ( 'NONE',  ( -1.224646799147353454E-16, -0.0000000000000000000, -1.000000000000000000 ) ) ;
#193 =( CONVERSION_BASED_UNIT ( 'INCH', #190 ) LENGTH_UNIT ( ) NAMED_UNIT ( #208 ) );
#194 = ORIENTED_EDGE ( 'NONE', *, *, #49, .F. ) ;
#195 = PRODUCT_CONTEXT ( 'NONE', #32, 'mechanical' ) ;
#196 = AXIS2_PLACEMENT_3D ( 'NONE', #299, #192, #231 ) ;
#197 =( NAMED_UNIT ( * ) SI_UNIT ( $, .STERADIAN. ) SOLID_ANGLE_UNIT ( ) );
#198 = FILL_AREA_STYLE ('',( #6 ) ) ;
#199 = PRODUCT_RELATED_PRODUCT_CATEGORY ( 'part', '', ( #141 ) ) ;
#200 = CARTESIAN_POINT ( 'NONE',  ( 0.02497500000000001802, 0.0000000000000000000, 0.1499999999999999944 ) ) ;
#201 = EDGE_CURVE ( 'NONE', #81, #3, #29, .T. ) ;
#202 = CARTESIAN_POINT ( 'NONE',  ( 3.745650057197991247E-34, 0.0000000000000000000, 3.058555380870515335E-18 ) ) ;
#203 = STYLED_ITEM ( 'NONE', ( #230 ), #218 ) ;
#204 = DIRECTION ( 'NONE',  ( 1.000000000000000000, 0.0000000000000000000, 0.0000000000000000000 ) ) ;
#205 = CARTESIAN_POINT ( 'NONE',  ( -0.02497499999999998332, 5.356298937770737018E-18, 0.1499999999999999944 ) ) ;
#206 = CARTESIAN_POINT ( 'NONE',  ( 0.0000000000000000000, 0.0000000000000000000, 0.0000000000000000000 ) ) ;
#207 =( LENGTH_UNIT ( ) NAMED_UNIT ( * ) SI_UNIT ( $, .METRE. ) );
#208 = DIMENSIONAL_EXPONENTS ( 1.000000000000000000, 0.0000000000000000000, 0.0000000000000000000, 0.0000000000000000000, 0.0000000000000000000, 0.0000000000000000000, 0.0000000000000000000 ) ;
#209 = AXIS2_PLACEMENT_3D ( 'NONE', #126, #14, #277 ) ;
#210 = CARTESIAN_POINT ( 'NONE',  ( 0.06250000000000002776, 7.654042494670959086E-18, 1.500000000000000222 ) ) ;
#211 = AXIS2_PLACEMENT_3D ( 'NONE', #159, #247, #177 ) ;
#212 = ORIENTED_EDGE ( 'NONE', *, *, #227, .T. ) ;
#213 = CIRCLE ( 'NONE', #98, 0.06250000000000002776 ) ;
#214 = ORIENTED_EDGE ( 'NONE', *, *, #148, .T. ) ;
#215 = CARTESIAN_POINT ( 'NONE',  ( 0.0000000000000000000, 0.0000000000000000000, 0.0000000000000000000 ) ) ;
#216 = ORIENTED_EDGE ( 'NONE', *, *, #171, .T. ) ;
#217 =( CONVERSION_BASED_UNIT ( 'INCH', #240 ) LENGTH_UNIT ( ) NAMED_UNIT ( #135 ) );
#218 = MANIFOLD_SOLID_BREP ( 'Cut-Revolve1', #289 ) ;
#219 = PRODUCT_DEFINITION_FORMATION_WITH_SPECIFIED_SOURCE ( 'ANY', '', #141, .NOT_KNOWN. ) ;
#220 = CARTESIAN_POINT ( 'NONE',  ( 0.0000000000000000000, 0.0000000000000000000, 1.500000000000000222 ) ) ;
#221 = ORIENTED_EDGE ( 'NONE', *, *, #104, .F. ) ;
#222 = LINE ( 'NONE', #200, #70 ) ;
#223 = VECTOR ( 'NONE', #122, 39.37007874015748143 ) ;
#224 = LINE ( 'NONE', #21, #252 ) ;
#225 = AXIS2_PLACEMENT_3D ( 'NONE', #206, #268, #180 ) ;
#226 = LINE ( 'NONE', #288, #265 ) ;
#227 = EDGE_CURVE ( 'NONE', #172, #68, #92, .T. ) ;
#228 = FILL_AREA_STYLE ('',( #280 ) ) ;
#229 = ORIENTED_EDGE ( 'NONE', *, *, #234, .T. ) ;
#230 = PRESENTATION_STYLE_ASSIGNMENT (( #25 ) ) ;
#231 = DIRECTION ( 'NONE',  ( -1.000000000000000000, 0.0000000000000000000, 0.0000000000000000000 ) ) ;
#232 = ORIENTED_EDGE ( 'NONE', *, *, #243, .T. ) ;
#233 = CARTESIAN_POINT ( 'NONE',  ( 4.443200450799409520E-17, 0.0000000000000000000, 0.3628148502811535114 ) ) ;
#234 = EDGE_CURVE ( 'NONE', #68, #3, #45, .T. ) ;
#235 = VERTEX_POINT ( 'NONE', #188 ) ;
#236 = AXIS2_PLACEMENT_3D ( 'NONE', #113, #250, #131 ) ;
#237 = SURFACE_SIDE_STYLE ('',( #59 ) ) ;
#238 = EDGE_LOOP ( 'NONE', ( #149, #248 ) ) ;
#239 = SHAPE_DEFINITION_REPRESENTATION ( #106, #174 ) ;
#240 = LENGTH_MEASURE_WITH_UNIT ( LENGTH_MEASURE( 0.02539999999999999897 ), #145 );
#241 = AXIS2_PLACEMENT_3D ( 'NONE', #215, #63, #285 ) ;
#242 =( NAMED_UNIT ( * ) PLANE_ANGLE_UNIT ( ) SI_UNIT ( $, .RADIAN. ) );
#243 = EDGE_CURVE ( 'NONE', #42, #167, #73, .T. ) ;
#244 = LENGTH_MEASURE_WITH_UNIT ( LENGTH_MEASURE( 0.02539999999999999897 ), #267 );
#245 = EDGE_CURVE ( 'NONE', #42, #48, #30, .T. ) ;
#246 = CONICAL_SURFACE ( 'NONE', #2, 0.02497500000000000067, 0.1745329251994338360 ) ;
#247 = DIRECTION ( 'NONE',  ( -1.224646799147353454E-16, -0.0000000000000000000, -1.000000000000000000 ) ) ;
#248 = ORIENTED_EDGE ( 'NONE', *, *, #31, .T. ) ;
#249 = PLANE ( 'NONE',  #209 ) ;
#250 = DIRECTION ( 'NONE',  ( 0.0000000000000000000, 0.0000000000000000000, -1.000000000000000000 ) ) ;
#251 = FACE_OUTER_BOUND ( 'NONE', #44, .T. ) ;
#252 = VECTOR ( 'NONE', #95, 39.37007874015748854 ) ;
#253 = DIRECTION ( 'NONE',  ( 1.224646799147353454E-16, 0.0000000000000000000, 1.000000000000000000 ) ) ;
#254 = ORIENTED_EDGE ( 'NONE', *, *, #49, .T. ) ;
#255 = DIRECTION ( 'NONE',  ( -0.7071067811865462405, 0.0000000000000000000, -0.7071067811865486830 ) ) ;
#256 = ADVANCED_FACE ( 'NONE', ( #5 ), #120, .T. ) ;
#257 = DIRECTION ( 'NONE',  ( 0.0000000000000000000, 0.0000000000000000000, -1.000000000000000000 ) ) ;
#258 = EDGE_LOOP ( 'NONE', ( #10, #221, #214, #51 ) ) ;
#259 = CARTESIAN_POINT ( 'NONE',  ( 0.0000000000000000000, 0.0000000000000000000, 1.500000000000000222 ) ) ;
#260 = DIRECTION ( 'NONE',  ( -0.0000000000000000000, -0.0000000000000000000, -1.000000000000000000 ) ) ;
#261 = CARTESIAN_POINT ( 'NONE',  ( 1.836970198721029749E-17, 0.0000000000000000000, 0.1499999999999999944 ) ) ;
#262 = AXIS2_PLACEMENT_3D ( 'NONE', #100, #257, #187 ) ;
#263 = EDGE_LOOP ( 'NONE', ( #133, #86, #154, #125 ) ) ;
#264 = APPLICATION_PROTOCOL_DEFINITION ( 'draft international standard', 'automotive_design', 1998, #32 ) ;
#265 = VECTOR ( 'NONE', #65, 39.37007874015748143 ) ;
#266 = AXIS2_PLACEMENT_3D ( 'NONE', #94, #181, #17 ) ;
#267 =( LENGTH_UNIT ( ) NAMED_UNIT ( * ) SI_UNIT ( $, .METRE. ) );
#268 = DIRECTION ( 'NONE',  ( -1.224646799147353454E-16, -0.0000000000000000000, -1.000000000000000000 ) ) ;
#269 = AXIS2_PLACEMENT_3D ( 'NONE', #261, #118, #80 ) ;
#270 = LINE ( 'NONE', #97, #132 ) ;
#271 = DIRECTION ( 'NONE',  ( -1.224646799147353454E-16, -0.0000000000000000000, -1.000000000000000000 ) ) ;
#272 = DIRECTION ( 'NONE',  ( 1.000000000000000000, 0.0000000000000000000, 0.0000000000000000000 ) ) ;
#273 = PRESENTATION_LAYER_ASSIGNMENT (  '', '', ( #203 ) ) ;
#274 = DIRECTION ( 'NONE',  ( 1.000000000000000000, 0.0000000000000000000, -0.0000000000000000000 ) ) ;
#275 = DIRECTION ( 'NONE',  ( -0.0000000000000000000, -0.0000000000000000000, -1.000000000000000000 ) ) ;
#276 = CARTESIAN_POINT ( 'NONE',  ( 0.02497500000000000067, 3.058555380870514950E-18, -3.058555380870515335E-18 ) ) ;
#277 = DIRECTION ( 'NONE',  ( 1.000000000000000000, 0.0000000000000000000, -0.0000000000000000000 ) ) ;
#278 = LINE ( 'NONE', #297, #223 ) ;
#279 = VECTOR ( 'NONE', #163, 39.37007874015748143 ) ;
#280 = FILL_AREA_STYLE_COLOUR ( '', #46 ) ;
#281 = DIRECTION ( 'NONE',  ( 1.000000000000000000, 0.0000000000000000000, 0.0000000000000000000 ) ) ;
#282 = ORIENTED_EDGE ( 'NONE', *, *, #245, .T. ) ;
#283 = STYLED_ITEM ( 'NONE', ( #85 ), #174 ) ;
#284 = UNCERTAINTY_MEASURE_WITH_UNIT (LENGTH_MEASURE( 1.000000000000000082E-05 ), #217, 'distance_accuracy_value', 'NONE');
#285 = DIRECTION ( 'NONE',  ( 1.000000000000000000, 0.0000000000000000000, 0.0000000000000000000 ) ) ;
#286 = CIRCLE ( 'NONE', #28, 0.04750000000000064587 ) ;
#287 =( NAMED_UNIT ( * ) SI_UNIT ( $, .STERADIAN. ) SOLID_ANGLE_UNIT ( ) );
#288 = CARTESIAN_POINT ( 'NONE',  ( -0.02497500000000000067, 0.0000000000000000000, 3.058555380870515335E-18 ) ) ;
#289 = CLOSED_SHELL ( 'NONE', ( #7, #144, #123, #256, #153, #22, #89, #146, #34, #4 ) ) ;
#290 = DIRECTION ( 'NONE',  ( -1.000000000000000000, 0.0000000000000000000, 1.224646799147353454E-16 ) ) ;
#291 = VECTOR ( 'NONE', #255, 39.37007874015748854 ) ;
#292 = AXIS2_PLACEMENT_3D ( 'NONE', #13, #295, #290 ) ;
#293 = CARTESIAN_POINT ( 'NONE',  ( 0.02497500000000001802, 0.0000000000000000000, 0.1499999999999999944 ) ) ;
#294 = CARTESIAN_POINT ( 'NONE',  ( 0.06250000000000002776, 7.654042494670959086E-18, 1.485000000000000764 ) ) ;
#295 = DIRECTION ( 'NONE',  ( -1.224646799147353454E-16, -0.0000000000000000000, -1.000000000000000000 ) ) ;
#296 = AXIS2_PLACEMENT_3D ( 'NONE', #1, #54, #138 ) ;
#297 = CARTESIAN_POINT ( 'NONE',  ( -0.06250000000000002776, 0.0000000000000000000, 1.500000000000000222 ) ) ;
#298 = UNCERTAINTY_MEASURE_WITH_UNIT (LENGTH_MEASURE( 1.000000000000000082E-05 ), #107, 'distance_accuracy_value', 'NONE');
#299 = CARTESIAN_POINT ( 'NONE',  ( 1.836970198721029749E-17, 0.0000000000000000000, 0.1499999999999999944 ) ) ;
ENDSEC;
END-ISO-10303-21;
