ISO-10303-21;
HEADER;
FILE_DESCRIPTION (( 'STEP AP214' ),
    '1' );
FILE_NAME ('Micro_EMS-125-3X.STEP',
    '2021-09-01T17:41:35',
    ( '' ),
    ( '' ),
    'SwSTEP 2.0',
    'SolidWorks 2020',
    '' );
FILE_SCHEMA (( 'AUTOMOTIVE_DESIGN' ));
ENDSEC;

DATA;
#1 = DIRECTION ( 'NONE',  ( 1.000000000000000000, 0.0000000000000000000, 0.0000000000000000000 ) ) ;
#2 = AXIS2_PLACEMENT_3D ( 'NONE', #192, #12, #194 ) ;
#3 = CARTESIAN_POINT ( 'NONE',  ( 0.06243749999999999994, 7.646388452176287375E-18, -9.478001694819074349E-34 ) ) ;
#4 = ADVANCED_FACE ( 'NONE', ( #66 ), #121, .T. ) ;
#5 = DIRECTION ( 'NONE',  ( 0.0000000000000000000, 0.0000000000000000000, -1.000000000000000000 ) ) ;
#6 = DIMENSIONAL_EXPONENTS ( 1.000000000000000000, 0.0000000000000000000, 0.0000000000000000000, 0.0000000000000000000, 0.0000000000000000000, 0.0000000000000000000, 0.0000000000000000000 ) ;
#7 = CARTESIAN_POINT ( 'NONE',  ( 0.0000000000000000000, 0.0000000000000000000, 1.500000000000000222 ) ) ;
#8 = DIRECTION ( 'NONE',  ( -1.000000000000000000, 0.0000000000000000000, 0.0000000000000000000 ) ) ;
#9 = AXIS2_PLACEMENT_3D ( 'NONE', #7, #257, #56 ) ;
#10 = ADVANCED_FACE ( 'NONE', ( #48 ), #106, .T. ) ;
#11 = APPLICATION_CONTEXT ( 'automotive_design' ) ;
#12 = DIRECTION ( 'NONE',  ( 0.0000000000000000000, 0.0000000000000000000, 1.000000000000000000 ) ) ;
#13 = VERTEX_POINT ( 'NONE', #205 ) ;
#14 =( LENGTH_UNIT ( ) NAMED_UNIT ( * ) SI_UNIT ( $, .METRE. ) );
#15 = ORIENTED_EDGE ( 'NONE', *, *, #177, .T. ) ;
#16 = ADVANCED_FACE ( 'NONE', ( #154 ), #131, .T. ) ;
#17 = SURFACE_STYLE_FILL_AREA ( #60 ) ;
#18 = ORIENTED_EDGE ( 'NONE', *, *, #93, .T. ) ;
#19 = CARTESIAN_POINT ( 'NONE',  ( 6.123233995736768501E-17, 0.0000000000000000000, 0.5000000000000000000 ) ) ;
#20 = CIRCLE ( 'NONE', #282, 0.06243749999999999994 ) ;
#21 = AXIS2_PLACEMENT_3D ( 'NONE', #96, #5, #254 ) ;
#22 = LINE ( 'NONE', #200, #79 ) ;
#23 = EDGE_CURVE ( 'NONE', #286, #221, #20, .T. ) ;
#24 = DIRECTION ( 'NONE',  ( 0.0000000000000000000, 0.0000000000000000000, 1.000000000000000000 ) ) ;
#25 = DIRECTION ( 'NONE',  ( -1.224646799147353700E-16, -0.0000000000000000000, -1.000000000000000000 ) ) ;
#26 = MECHANICAL_DESIGN_GEOMETRIC_PRESENTATION_REPRESENTATION (  '', ( #95 ), #186 ) ;
#27 = EDGE_CURVE ( 'NONE', #62, #292, #22, .T. ) ;
#28 = DIRECTION ( 'NONE',  ( 1.224646799147353700E-16, 0.0000000000000000000, 1.000000000000000000 ) ) ;
#29 =( NAMED_UNIT ( * ) SI_UNIT ( $, .STERADIAN. ) SOLID_ANGLE_UNIT ( ) );
#30 = CARTESIAN_POINT ( 'NONE',  ( 0.06243750000000006933, 0.0000000000000000000, 0.5000000000000000000 ) ) ;
#31 = VECTOR ( 'NONE', #98, 39.37007874015748854 ) ;
#32 = DIRECTION ( 'NONE',  ( -1.224646799147353700E-16, -0.0000000000000000000, -1.000000000000000000 ) ) ;
#33 = PLANE ( 'NONE',  #94 ) ;
#34 = LINE ( 'NONE', #35, #223 ) ;
#35 = CARTESIAN_POINT ( 'NONE',  ( -0.06250000000000002776, 0.0000000000000000000, 1.500000000000000222 ) ) ;
#36 = CIRCLE ( 'NONE', #124, 0.06250000000000002776 ) ;
#37 = DIRECTION ( 'NONE',  ( -1.000000000000000000, 0.0000000000000000000, 0.0000000000000000000 ) ) ;
#38 = ORIENTED_EDGE ( 'NONE', *, *, #141, .T. ) ;
#39 =( NAMED_UNIT ( * ) SI_UNIT ( $, .STERADIAN. ) SOLID_ANGLE_UNIT ( ) );
#40 = FILL_AREA_STYLE_COLOUR ( '', #51 ) ;
#41 = ORIENTED_EDGE ( 'NONE', *, *, #177, .F. ) ;
#42 = STYLED_ITEM ( 'NONE', ( #159 ), #103 ) ;
#43 =( NAMED_UNIT ( * ) PLANE_ANGLE_UNIT ( ) SI_UNIT ( $, .RADIAN. ) );
#44 = ORIENTED_EDGE ( 'NONE', *, *, #117, .T. ) ;
#45 = DIRECTION ( 'NONE',  ( 0.0000000000000000000, 0.0000000000000000000, 1.000000000000000000 ) ) ;
#46 = VECTOR ( 'NONE', #258, 39.37007874015748143 ) ;
#47 = DIRECTION ( 'NONE',  ( 0.0000000000000000000, 0.0000000000000000000, -1.000000000000000000 ) ) ;
#48 = FACE_OUTER_BOUND ( 'NONE', #219, .T. ) ;
#49 = DIRECTION ( 'NONE',  ( 1.000000000000000000, 0.0000000000000000000, 0.0000000000000000000 ) ) ;
#50 = CIRCLE ( 'NONE', #247, 0.06250000000000002776 ) ;
#51 = COLOUR_RGB ( '',0.7921568627450980005, 0.8196078431372548767, 0.9333333333333333481 ) ;
#52 = DIRECTION ( 'NONE',  ( 0.1736481776669312749, 0.0000000000000000000, 0.9848077530122077983 ) ) ;
#53 = DIRECTION ( 'NONE',  ( 1.000000000000000000, 0.0000000000000000000, 0.0000000000000000000 ) ) ;
#54 = PRODUCT_RELATED_PRODUCT_CATEGORY ( 'part', '', ( #267 ) ) ;
#55 = CARTESIAN_POINT ( 'NONE',  ( 6.123233995736768501E-17, 0.0000000000000000000, 0.5000000000000000000 ) ) ;
#56 = DIRECTION ( 'NONE',  ( -1.000000000000000000, 0.0000000000000000000, 0.0000000000000000000 ) ) ;
#57 = CYLINDRICAL_SURFACE ( 'NONE', #140, 0.06243750000000001382 ) ;
#58 =( GEOMETRIC_REPRESENTATION_CONTEXT ( 3 ) GLOBAL_UNCERTAINTY_ASSIGNED_CONTEXT ( ( #113 ) ) GLOBAL_UNIT_ASSIGNED_CONTEXT ( ( #228, #157, #29 ) ) REPRESENTATION_CONTEXT ( 'NONE', 'WORKASPACE' ) );
#59 = ORIENTED_EDGE ( 'NONE', *, *, #27, .F. ) ;
#60 = FILL_AREA_STYLE ('',( #40 ) ) ;
#61 = PRESENTATION_STYLE_ASSIGNMENT (( #218 ) ) ;
#62 = VERTEX_POINT ( 'NONE', #268 ) ;
#63 = CIRCLE ( 'NONE', #287, 0.06250000000000002776 ) ;
#64 = ORIENTED_EDGE ( 'NONE', *, *, #78, .T. ) ;
#65 = ADVANCED_FACE ( 'NONE', ( #229 ), #272, .T. ) ;
#66 = FACE_OUTER_BOUND ( 'NONE', #195, .T. ) ;
#67 = DIRECTION ( 'NONE',  ( -1.224646799147353700E-16, -0.0000000000000000000, -1.000000000000000000 ) ) ;
#68 =( LENGTH_UNIT ( ) NAMED_UNIT ( * ) SI_UNIT ( $, .METRE. ) );
#69 = LINE ( 'NONE', #77, #293 ) ;
#70 = DIRECTION ( 'NONE',  ( 0.0000000000000000000, 0.0000000000000000000, -1.000000000000000000 ) ) ;
#71 = EDGE_CURVE ( 'NONE', #198, #248, #172, .T. ) ;
#72 = DIRECTION ( 'NONE',  ( -1.224646799147353700E-16, -0.0000000000000000000, -1.000000000000000000 ) ) ;
#73 = DIMENSIONAL_EXPONENTS ( 1.000000000000000000, 0.0000000000000000000, 0.0000000000000000000, 0.0000000000000000000, 0.0000000000000000000, 0.0000000000000000000, 0.0000000000000000000 ) ;
#74 = CARTESIAN_POINT ( 'NONE',  ( 0.04750000000000064587, 6.735557395310483192E-18, 1.500000000000000222 ) ) ;
#75 = LINE ( 'NONE', #234, #227 ) ;
#76 = PRODUCT_DEFINITION_SHAPE ( 'NONE', 'NONE',  #146 ) ;
#77 = CARTESIAN_POINT ( 'NONE',  ( 0.06250000000000002776, 7.654042494670959086E-18, 1.500000000000000222 ) ) ;
#78 = EDGE_CURVE ( 'NONE', #292, #243, #50, .T. ) ;
#79 = VECTOR ( 'NONE', #225, 39.37007874015748854 ) ;
#80 = ORIENTED_EDGE ( 'NONE', *, *, #199, .F. ) ;
#81 = CARTESIAN_POINT ( 'NONE',  ( 0.06250000000000002776, 7.654042494670959086E-18, 1.485000000000000764 ) ) ;
#82 = EDGE_LOOP ( 'NONE', ( #270, #15, #171, #80 ) ) ;
#83 = CARTESIAN_POINT ( 'NONE',  ( -0.06243749999999999994, 0.0000000000000000000, 1.529277690435258091E-17 ) ) ;
#84 = EDGE_LOOP ( 'NONE', ( #261, #239, #149, #128 ) ) ;
#85 =( LENGTH_UNIT ( ) NAMED_UNIT ( * ) SI_UNIT ( $, .METRE. ) );
#86 = ORIENTED_EDGE ( 'NONE', *, *, #284, .F. ) ;
#87 = EDGE_CURVE ( 'NONE', #243, #292, #163, .T. ) ;
#88 = DIRECTION ( 'NONE',  ( 1.000000000000000000, 0.0000000000000000000, 0.0000000000000000000 ) ) ;
#89 = SURFACE_STYLE_USAGE ( .BOTH. , #251 ) ;
#90 = AXIS2_PLACEMENT_3D ( 'NONE', #156, #24, #49 ) ;
#91 = DIRECTION ( 'NONE',  ( -1.000000000000000000, 0.0000000000000000000, 1.224646799147353947E-16 ) ) ;
#92 = CARTESIAN_POINT ( 'NONE',  ( 0.0000000000000000000, 0.0000000000000000000, 1.485000000000000764 ) ) ;
#93 = EDGE_CURVE ( 'NONE', #179, #243, #109, .T. ) ;
#94 = AXIS2_PLACEMENT_3D ( 'NONE', #230, #162, #277 ) ;
#95 = STYLED_ITEM ( 'NONE', ( #61 ), #280 ) ;
#96 = CARTESIAN_POINT ( 'NONE',  ( 0.0000000000000000000, 0.0000000000000000000, 1.500000000000000222 ) ) ;
#97 = LINE ( 'NONE', #211, #46 ) ;
#98 = DIRECTION ( 'NONE',  ( 0.7071067811865462405, 8.659560562354916834E-17, -0.7071067811865486830 ) ) ;
#99 = AXIS2_PLACEMENT_3D ( 'NONE', #296, #28, #180 ) ;
#100 = FACE_OUTER_BOUND ( 'NONE', #215, .T. ) ;
#101 =( NAMED_UNIT ( * ) SI_UNIT ( $, .STERADIAN. ) SOLID_ANGLE_UNIT ( ) );
#102 = EDGE_LOOP ( 'NONE', ( #86, #104, #64, #237 ) ) ;
#103 = MANIFOLD_SOLID_BREP ( 'Cut-Revolve1', #279 ) ;
#104 = ORIENTED_EDGE ( 'NONE', *, *, #27, .T. ) ;
#105 = DIRECTION ( 'NONE',  ( -1.224646799147353700E-16, -0.0000000000000000000, -1.000000000000000000 ) ) ;
#106 = CONICAL_SURFACE ( 'NONE', #110, 0.04750000000000064587, 0.7853981633974466137 ) ;
#107 = PRODUCT_DEFINITION_CONTEXT ( 'detailed design', #11, 'design' ) ;
#108 = CARTESIAN_POINT ( 'NONE',  ( 6.127574818941429733E-17, 0.0000000000000000000, 0.5003544551137261154 ) ) ;
#109 = LINE ( 'NONE', #299, #250 ) ;
#110 = AXIS2_PLACEMENT_3D ( 'NONE', #132, #47, #112 ) ;
#111 = DIRECTION ( 'NONE',  ( 1.000000000000000000, 0.0000000000000000000, -0.0000000000000000000 ) ) ;
#112 = DIRECTION ( 'NONE',  ( -1.000000000000000000, 0.0000000000000000000, 0.0000000000000000000 ) ) ;
#113 = UNCERTAINTY_MEASURE_WITH_UNIT (LENGTH_MEASURE( 1.000000000000000082E-05 ), #228, 'distance_accuracy_value', 'NONE');
#114 = DIRECTION ( 'NONE',  ( -1.000000000000000000, 0.0000000000000000000, 0.0000000000000000000 ) ) ;
#115 = AXIS2_PLACEMENT_3D ( 'NONE', #108, #25, #201 ) ;
#116 = FACE_OUTER_BOUND ( 'NONE', #144, .T. ) ;
#117 = EDGE_CURVE ( 'NONE', #295, #243, #69, .T. ) ;
#118 = CARTESIAN_POINT ( 'NONE',  ( -0.06243750000000001382, 0.0000000000000000000, 7.646388452176291997E-18 ) ) ;
#119 = APPLICATION_CONTEXT ( 'automotive_design' ) ;
#120 = DIRECTION ( 'NONE',  ( -0.0000000000000000000, -0.0000000000000000000, -1.000000000000000000 ) ) ;
#121 = CONICAL_SURFACE ( 'NONE', #99, 0.06243750000000001382, 0.1745329251994337805 ) ;
#122 = DIRECTION ( 'NONE',  ( -1.000000000000000000, 0.0000000000000000000, 1.224646799147353700E-16 ) ) ;
#123 = ORIENTED_EDGE ( 'NONE', *, *, #199, .T. ) ;
#124 = AXIS2_PLACEMENT_3D ( 'NONE', #92, #182, #147 ) ;
#125 = ORIENTED_EDGE ( 'NONE', *, *, #269, .T. ) ;
#126 = ORIENTED_EDGE ( 'NONE', *, *, #130, .T. ) ;
#127 = ORIENTED_EDGE ( 'NONE', *, *, #188, .F. ) ;
#128 = ORIENTED_EDGE ( 'NONE', *, *, #136, .F. ) ;
#129 = CONICAL_SURFACE ( 'NONE', #21, 0.04750000000000064587, 0.7853981633974466137 ) ;
#130 = EDGE_CURVE ( 'NONE', #13, #295, #63, .T. ) ;
#131 = PLANE ( 'NONE',  #275 ) ;
#132 = CARTESIAN_POINT ( 'NONE',  ( 0.0000000000000000000, 0.0000000000000000000, 1.500000000000000222 ) ) ;
#133 = DIRECTION ( 'NONE',  ( -1.000000000000000000, 0.0000000000000000000, 1.224646799147353700E-16 ) ) ;
#134 = LINE ( 'NONE', #118, #153 ) ;
#135 = FACE_OUTER_BOUND ( 'NONE', #290, .T. ) ;
#136 = EDGE_CURVE ( 'NONE', #62, #286, #134, .T. ) ;
#137 = CARTESIAN_POINT ( 'NONE',  ( -0.04750000000000064587, 0.0000000000000000000, 1.500000000000000222 ) ) ;
#138 = FACE_OUTER_BOUND ( 'NONE', #102, .T. ) ;
#139 = CARTESIAN_POINT ( 'NONE',  ( 0.0000000000000000000, 0.0000000000000000000, 0.0000000000000000000 ) ) ;
#140 = AXIS2_PLACEMENT_3D ( 'NONE', #139, #236, #122 ) ;
#141 = EDGE_CURVE ( 'NONE', #221, #286, #216, .T. ) ;
#142 =( CONVERSION_BASED_UNIT ( 'INCH', #212 ) LENGTH_UNIT ( ) NAMED_UNIT ( #6 ) );
#143 = LENGTH_MEASURE_WITH_UNIT ( LENGTH_MEASURE( 0.02539999999999999897 ), #85 );
#144 = EDGE_LOOP ( 'NONE', ( #126, #44, #196, #291 ) ) ;
#145 = ORIENTED_EDGE ( 'NONE', *, *, #263, .T. ) ;
#146 = PRODUCT_DEFINITION ( 'UNKNOWN', '', #217, #107 ) ;
#147 = DIRECTION ( 'NONE',  ( 1.000000000000000000, 0.0000000000000000000, 0.0000000000000000000 ) ) ;
#148 =( GEOMETRIC_REPRESENTATION_CONTEXT ( 3 ) GLOBAL_UNCERTAINTY_ASSIGNED_CONTEXT ( ( #274 ) ) GLOBAL_UNIT_ASSIGNED_CONTEXT ( ( #168, #43, #101 ) ) REPRESENTATION_CONTEXT ( 'NONE', 'WORKASPACE' ) );
#149 = ORIENTED_EDGE ( 'NONE', *, *, #23, .F. ) ;
#150 = DIMENSIONAL_EXPONENTS ( 1.000000000000000000, 0.0000000000000000000, 0.0000000000000000000, 0.0000000000000000000, 0.0000000000000000000, 0.0000000000000000000, 0.0000000000000000000 ) ;
#151 = ORIENTED_EDGE ( 'NONE', *, *, #71, .T. ) ;
#152 = LENGTH_MEASURE_WITH_UNIT ( LENGTH_MEASURE( 0.02539999999999999897 ), #68 );
#153 = VECTOR ( 'NONE', #32, 39.37007874015748143 ) ;
#154 = FACE_OUTER_BOUND ( 'NONE', #220, .T. ) ;
#155 = AXIS2_PLACEMENT_3D ( 'NONE', #260, #242, #174 ) ;
#156 = CARTESIAN_POINT ( 'NONE',  ( 0.0000000000000000000, 0.0000000000000000000, 1.500000000000000222 ) ) ;
#157 =( NAMED_UNIT ( * ) PLANE_ANGLE_UNIT ( ) SI_UNIT ( $, .RADIAN. ) );
#158 = ADVANCED_FACE ( 'NONE', ( #135 ), #33, .F. ) ;
#159 = PRESENTATION_STYLE_ASSIGNMENT (( #89 ) ) ;
#160 = DIRECTION ( 'NONE',  ( -1.224646799147353700E-16, -0.0000000000000000000, -1.000000000000000000 ) ) ;
#161 = CARTESIAN_POINT ( 'NONE',  ( 0.06250000000000008327, 7.654042494670966789E-18, 0.5003544551137261154 ) ) ;
#162 = DIRECTION ( 'NONE',  ( 0.0000000000000000000, 0.0000000000000000000, 1.000000000000000000 ) ) ;
#163 = CIRCLE ( 'NONE', #115, 0.06250000000000002776 ) ;
#164 = FACE_OUTER_BOUND ( 'NONE', #169, .T. ) ;
#165 = CARTESIAN_POINT ( 'NONE',  ( 6.123233995736768501E-17, 0.0000000000000000000, 0.5000000000000000000 ) ) ;
#166 = ORIENTED_EDGE ( 'NONE', *, *, #87, .F. ) ;
#167 = AXIS2_PLACEMENT_3D ( 'NONE', #165, #183, #1 ) ;
#168 =( CONVERSION_BASED_UNIT ( 'INCH', #143 ) LENGTH_UNIT ( ) NAMED_UNIT ( #73 ) );
#169 = EDGE_LOOP ( 'NONE', ( #193, #145, #262, #166 ) ) ;
#170 = CARTESIAN_POINT ( 'NONE',  ( -0.06249999999999996531, 0.0000000000000000000, 0.5003544551137261154 ) ) ;
#171 = ORIENTED_EDGE ( 'NONE', *, *, #130, .F. ) ;
#172 = CIRCLE ( 'NONE', #90, 0.04750000000000064587 ) ;
#173 = CIRCLE ( 'NONE', #155, 0.04750000000000064587 ) ;
#174 = DIRECTION ( 'NONE',  ( 1.000000000000000000, 0.0000000000000000000, 0.0000000000000000000 ) ) ;
#175 = ORIENTED_EDGE ( 'NONE', *, *, #252, .F. ) ;
#176 = ORIENTED_EDGE ( 'NONE', *, *, #188, .T. ) ;
#177 = EDGE_CURVE ( 'NONE', #248, #295, #283, .T. ) ;
#178 = ORIENTED_EDGE ( 'NONE', *, *, #87, .T. ) ;
#179 = VERTEX_POINT ( 'NONE', #30 ) ;
#180 = DIRECTION ( 'NONE',  ( 1.000000000000000000, 0.0000000000000000000, 0.0000000000000000000 ) ) ;
#181 = FILL_AREA_STYLE_COLOUR ( '', #281 ) ;
#182 = DIRECTION ( 'NONE',  ( 0.0000000000000000000, 0.0000000000000000000, -1.000000000000000000 ) ) ;
#183 = DIRECTION ( 'NONE',  ( 1.224646799147353700E-16, 0.0000000000000000000, 1.000000000000000000 ) ) ;
#184 = CYLINDRICAL_SURFACE ( 'NONE', #298, 0.06250000000000002776 ) ;
#185 = CARTESIAN_POINT ( 'NONE',  ( 9.364125142994982608E-34, 0.0000000000000000000, 7.646388452176290456E-18 ) ) ;
#186 =( GEOMETRIC_REPRESENTATION_CONTEXT ( 3 ) GLOBAL_UNCERTAINTY_ASSIGNED_CONTEXT ( ( #294 ) ) GLOBAL_UNIT_ASSIGNED_CONTEXT ( ( #142, #240, #39 ) ) REPRESENTATION_CONTEXT ( 'NONE', 'WORKASPACE' ) );
#187 = DIRECTION ( 'NONE',  ( -0.0000000000000000000, -0.0000000000000000000, -1.000000000000000000 ) ) ;
#188 = EDGE_CURVE ( 'NONE', #179, #62, #264, .T. ) ;
#189 = APPLICATION_PROTOCOL_DEFINITION ( 'draft international standard', 'automotive_design', 1998, #119 ) ;
#190 = ORIENTED_EDGE ( 'NONE', *, *, #71, .F. ) ;
#191 = AXIS2_PLACEMENT_3D ( 'NONE', #55, #72, #114 ) ;
#192 = CARTESIAN_POINT ( 'NONE',  ( 0.0000000000000000000, 0.0000000000000000000, 0.0000000000000000000 ) ) ;
#193 = ORIENTED_EDGE ( 'NONE', *, *, #117, .F. ) ;
#194 = DIRECTION ( 'NONE',  ( 1.000000000000000000, 0.0000000000000000000, 0.0000000000000000000 ) ) ;
#195 = EDGE_LOOP ( 'NONE', ( #59, #127, #18, #178 ) ) ;
#196 = ORIENTED_EDGE ( 'NONE', *, *, #78, .F. ) ;
#197 = AXIS2_PLACEMENT_3D ( 'NONE', #19, #105, #37 ) ;
#198 = VERTEX_POINT ( 'NONE', #137 ) ;
#199 = EDGE_CURVE ( 'NONE', #198, #13, #75, .T. ) ;
#200 = CARTESIAN_POINT ( 'NONE',  ( -0.06243749999999995137, 7.646388452176288915E-18, 0.5000000000000000000 ) ) ;
#201 = DIRECTION ( 'NONE',  ( 1.000000000000000000, 0.0000000000000000000, 0.0000000000000000000 ) ) ;
#202 = ADVANCED_FACE ( 'NONE', ( #164 ), #184, .T. ) ;
#203 = MECHANICAL_DESIGN_GEOMETRIC_PRESENTATION_REPRESENTATION (  '', ( #42 ), #58 ) ;
#204 = CARTESIAN_POINT ( 'NONE',  ( 6.127574818941429733E-17, 0.0000000000000000000, 0.5003544551137261154 ) ) ;
#205 = CARTESIAN_POINT ( 'NONE',  ( -0.06250000000000002776, 0.0000000000000000000, 1.485000000000000764 ) ) ;
#206 = CARTESIAN_POINT ( 'NONE',  ( 0.0000000000000000000, 0.0000000000000000000, 1.500000000000000222 ) ) ;
#207 = PRESENTATION_LAYER_ASSIGNMENT (  '', '', ( #42 ) ) ;
#208 = FACE_OUTER_BOUND ( 'NONE', #82, .T. ) ;
#209 = DIRECTION ( 'NONE',  ( -0.7071067811865462405, 0.0000000000000000000, -0.7071067811865486830 ) ) ;
#210 = ADVANCED_FACE ( 'NONE', ( #116 ), #235, .T. ) ;
#211 = CARTESIAN_POINT ( 'NONE',  ( 0.06243750000000001382, 7.646388452176288915E-18, -7.646388452176291997E-18 ) ) ;
#212 = LENGTH_MEASURE_WITH_UNIT ( LENGTH_MEASURE( 0.02539999999999999897 ), #14 );
#213 = ORIENTED_EDGE ( 'NONE', *, *, #23, .T. ) ;
#214 = ADVANCED_FACE ( 'NONE', ( #208 ), #129, .T. ) ;
#215 = EDGE_LOOP ( 'NONE', ( #175, #176, #241, #245 ) ) ;
#216 = CIRCLE ( 'NONE', #222, 0.06243749999999999994 ) ;
#217 = PRODUCT_DEFINITION_FORMATION_WITH_SPECIFIED_SOURCE ( 'ANY', '', #267, .NOT_KNOWN. ) ;
#218 = SURFACE_STYLE_USAGE ( .BOTH. , #238 ) ;
#219 = EDGE_LOOP ( 'NONE', ( #41, #190, #123, #266 ) ) ;
#220 = EDGE_LOOP ( 'NONE', ( #151, #125 ) ) ;
#221 = VERTEX_POINT ( 'NONE', #3 ) ;
#222 = AXIS2_PLACEMENT_3D ( 'NONE', #185, #160, #232 ) ;
#223 = VECTOR ( 'NONE', #120, 39.37007874015748143 ) ;
#224 = DIRECTION ( 'NONE',  ( -1.224646799147353700E-16, -0.0000000000000000000, -1.000000000000000000 ) ) ;
#225 = DIRECTION ( 'NONE',  ( -0.1736481776669310528, 2.126576849575781776E-17, 0.9848077530122080203 ) ) ;
#226 = DIRECTION ( 'NONE',  ( -1.224646799147353700E-16, -0.0000000000000000000, -1.000000000000000000 ) ) ;
#227 = VECTOR ( 'NONE', #209, 39.37007874015748854 ) ;
#228 =( CONVERSION_BASED_UNIT ( 'INCH', #152 ) LENGTH_UNIT ( ) NAMED_UNIT ( #150 ) );
#229 = FACE_OUTER_BOUND ( 'NONE', #84, .T. ) ;
#230 = CARTESIAN_POINT ( 'NONE',  ( 0.0000000000000000000, 0.0000000000000000000, 0.0000000000000000000 ) ) ;
#231 = ADVANCED_FACE ( 'NONE', ( #138 ), #276, .T. ) ;
#232 = DIRECTION ( 'NONE',  ( -1.000000000000000000, 0.0000000000000000000, 1.224646799147353947E-16 ) ) ;
#233 = AXIS2_PLACEMENT_3D ( 'NONE', #271, #226, #133 ) ;
#234 = CARTESIAN_POINT ( 'NONE',  ( -0.04750000000000064587, 0.0000000000000000000, 1.500000000000000222 ) ) ;
#235 = CYLINDRICAL_SURFACE ( 'NONE', #9, 0.06250000000000002776 ) ;
#236 = DIRECTION ( 'NONE',  ( -1.224646799147353700E-16, -0.0000000000000000000, -1.000000000000000000 ) ) ;
#237 = ORIENTED_EDGE ( 'NONE', *, *, #93, .F. ) ;
#238 = SURFACE_SIDE_STYLE ('',( #17 ) ) ;
#239 = ORIENTED_EDGE ( 'NONE', *, *, #252, .T. ) ;
#240 =( NAMED_UNIT ( * ) PLANE_ANGLE_UNIT ( ) SI_UNIT ( $, .RADIAN. ) );
#241 = ORIENTED_EDGE ( 'NONE', *, *, #136, .T. ) ;
#242 = DIRECTION ( 'NONE',  ( 0.0000000000000000000, 0.0000000000000000000, 1.000000000000000000 ) ) ;
#243 = VERTEX_POINT ( 'NONE', #161 ) ;
#244 = EDGE_CURVE ( 'NONE', #13, #292, #34, .T. ) ;
#245 = ORIENTED_EDGE ( 'NONE', *, *, #141, .F. ) ;
#246 = CARTESIAN_POINT ( 'NONE',  ( 0.0000000000000000000, 0.0000000000000000000, 1.500000000000000222 ) ) ;
#247 = AXIS2_PLACEMENT_3D ( 'NONE', #204, #67, #88 ) ;
#248 = VERTEX_POINT ( 'NONE', #74 ) ;
#249 = CARTESIAN_POINT ( 'NONE',  ( 9.364125142994982608E-34, 0.0000000000000000000, 7.646388452176290456E-18 ) ) ;
#250 = VECTOR ( 'NONE', #52, 39.37007874015748143 ) ;
#251 = SURFACE_SIDE_STYLE ('',( #273 ) ) ;
#252 = EDGE_CURVE ( 'NONE', #179, #221, #97, .T. ) ;
#253 = CARTESIAN_POINT ( 'NONE',  ( 0.0000000000000000000, 0.0000000000000000000, 1.485000000000000764 ) ) ;
#254 = DIRECTION ( 'NONE',  ( -1.000000000000000000, 0.0000000000000000000, 0.0000000000000000000 ) ) ;
#255 = CARTESIAN_POINT ( 'NONE',  ( 0.04750000000000064587, 5.817072295950006528E-18, 1.500000000000000222 ) ) ;
#256 = ADVANCED_FACE ( 'NONE', ( #100 ), #57, .T. ) ;
#257 = DIRECTION ( 'NONE',  ( -0.0000000000000000000, -0.0000000000000000000, -1.000000000000000000 ) ) ;
#258 = DIRECTION ( 'NONE',  ( -1.224646799147353700E-16, -0.0000000000000000000, -1.000000000000000000 ) ) ;
#259 = APPLICATION_PROTOCOL_DEFINITION ( 'draft international standard', 'automotive_design', 1998, #11 ) ;
#260 = CARTESIAN_POINT ( 'NONE',  ( 0.0000000000000000000, 0.0000000000000000000, 1.500000000000000222 ) ) ;
#261 = ORIENTED_EDGE ( 'NONE', *, *, #284, .T. ) ;
#262 = ORIENTED_EDGE ( 'NONE', *, *, #244, .T. ) ;
#263 = EDGE_CURVE ( 'NONE', #295, #13, #36, .T. ) ;
#264 = CIRCLE ( 'NONE', #191, 0.06243750000000001382 ) ;
#265 = PRESENTATION_LAYER_ASSIGNMENT (  '', '', ( #95 ) ) ;
#266 = ORIENTED_EDGE ( 'NONE', *, *, #263, .F. ) ;
#267 = PRODUCT ( 'Micro_EMS-125-3X', 'Micro_EMS-125-3X', '', ( #285 ) ) ;
#268 = CARTESIAN_POINT ( 'NONE',  ( -0.06243749999999995137, 7.650215473423624771E-18, 0.5000000000000000000 ) ) ;
#269 = EDGE_CURVE ( 'NONE', #248, #198, #173, .T. ) ;
#270 = ORIENTED_EDGE ( 'NONE', *, *, #269, .F. ) ;
#271 = CARTESIAN_POINT ( 'NONE',  ( 0.0000000000000000000, 0.0000000000000000000, 0.0000000000000000000 ) ) ;
#272 = CYLINDRICAL_SURFACE ( 'NONE', #233, 0.06243750000000001382 ) ;
#273 = SURFACE_STYLE_FILL_AREA ( #297 ) ;
#274 = UNCERTAINTY_MEASURE_WITH_UNIT (LENGTH_MEASURE( 1.000000000000000082E-05 ), #168, 'distance_accuracy_value', 'NONE');
#275 = AXIS2_PLACEMENT_3D ( 'NONE', #246, #45, #111 ) ;
#276 = CONICAL_SURFACE ( 'NONE', #167, 0.06243750000000001382, 0.1745329251994337805 ) ;
#277 = DIRECTION ( 'NONE',  ( 1.000000000000000000, 0.0000000000000000000, -0.0000000000000000000 ) ) ;
#278 = DIRECTION ( 'NONE',  ( -0.0000000000000000000, -0.0000000000000000000, -1.000000000000000000 ) ) ;
#279 = CLOSED_SHELL ( 'NONE', ( #65, #231, #214, #210, #202, #16, #10, #4, #256, #158 ) ) ;
#280 = ADVANCED_BREP_SHAPE_REPRESENTATION ( 'Micro_EMS-125-3X', ( #103, #2 ), #148 ) ;
#281 = COLOUR_RGB ( '',0.7921568627450980005, 0.8196078431372548767, 0.9333333333333333481 ) ;
#282 = AXIS2_PLACEMENT_3D ( 'NONE', #249, #224, #91 ) ;
#283 = LINE ( 'NONE', #255, #31 ) ;
#284 = EDGE_CURVE ( 'NONE', #62, #179, #288, .T. ) ;
#285 = PRODUCT_CONTEXT ( 'NONE', #119, 'mechanical' ) ;
#286 = VERTEX_POINT ( 'NONE', #83 ) ;
#287 = AXIS2_PLACEMENT_3D ( 'NONE', #253, #70, #53 ) ;
#288 = CIRCLE ( 'NONE', #197, 0.06243750000000001382 ) ;
#289 = SHAPE_DEFINITION_REPRESENTATION ( #76, #280 ) ;
#290 = EDGE_LOOP ( 'NONE', ( #213, #38 ) ) ;
#291 = ORIENTED_EDGE ( 'NONE', *, *, #244, .F. ) ;
#292 = VERTEX_POINT ( 'NONE', #170 ) ;
#293 = VECTOR ( 'NONE', #187, 39.37007874015748143 ) ;
#294 = UNCERTAINTY_MEASURE_WITH_UNIT (LENGTH_MEASURE( 1.000000000000000082E-05 ), #142, 'distance_accuracy_value', 'NONE');
#295 = VERTEX_POINT ( 'NONE', #81 ) ;
#296 = CARTESIAN_POINT ( 'NONE',  ( 6.123233995736768501E-17, 0.0000000000000000000, 0.5000000000000000000 ) ) ;
#297 = FILL_AREA_STYLE ('',( #181 ) ) ;
#298 = AXIS2_PLACEMENT_3D ( 'NONE', #206, #278, #8 ) ;
#299 = CARTESIAN_POINT ( 'NONE',  ( 0.06243750000000006933, 0.0000000000000000000, 0.5000000000000000000 ) ) ;
ENDSEC;
END-ISO-10303-21;
