ISO-10303-21;
HEADER;
FILE_DESCRIPTION (( 'STEP AP214' ),
    '1' );
FILE_NAME ('Micro_RSC-250-120.STEP',
    '2021-09-03T17:46:50',
    ( '' ),
    ( '' ),
    'SwSTEP 2.0',
    'SolidWorks 2020',
    '' );
FILE_SCHEMA (( 'AUTOMOTIVE_DESIGN' ));
ENDSEC;

DATA;
#1 = DIRECTION ( 'NONE',  ( 1.000000000000000000, 0.0000000000000000000, 0.0000000000000000000 ) ) ;
#2 = CARTESIAN_POINT ( 'NONE',  ( -0.1250000000000000000, 0.0000000000000000000, 0.1991858428704201822 ) ) ;
#3 = DIRECTION ( 'NONE',  ( 0.0000000000000000000, 0.0000000000000000000, -1.000000000000000000 ) ) ;
#4 = ORIENTED_EDGE ( 'NONE', *, *, #60, .T. ) ;
#5 =( CONVERSION_BASED_UNIT ( 'INCH', #95 ) LENGTH_UNIT ( ) NAMED_UNIT ( #74 ) );
#6 = ORIENTED_EDGE ( 'NONE', *, *, #190, .F. ) ;
#7 = CARTESIAN_POINT ( 'NONE',  ( 0.0000000000000000000, 0.0000000000000000000, 0.1991858428704201822 ) ) ;
#8 = EDGE_LOOP ( 'NONE', ( #243, #83, #242, #208 ) ) ;
#9 = PRODUCT ( 'Micro_RSC-250-120', 'Micro_RSC-250-120', '', ( #40 ) ) ;
#10 = DIRECTION ( 'NONE',  ( -1.000000000000000000, 0.0000000000000000000, 0.0000000000000000000 ) ) ;
#11 = ORIENTED_EDGE ( 'NONE', *, *, #249, .F. ) ;
#12 = AXIS2_PLACEMENT_3D ( 'NONE', #76, #3, #77 ) ;
#13 = CARTESIAN_POINT ( 'NONE',  ( 0.1250000000000000000, 1.530808498934191509E-17, 2.500000000000000000 ) ) ;
#14 = EDGE_LOOP ( 'NONE', ( #11, #98, #46, #26 ) ) ;
#15 = DIRECTION ( 'NONE',  ( 0.0000000000000000000, 0.0000000000000000000, -1.000000000000000000 ) ) ;
#16 = DIRECTION ( 'NONE',  ( 1.000000000000000000, 0.0000000000000000000, -0.0000000000000000000 ) ) ;
#17 = FACE_OUTER_BOUND ( 'NONE', #69, .T. ) ;
#18 = CIRCLE ( 'NONE', #21, 0.1250000000000000000 ) ;
#19 = ADVANCED_FACE ( 'NONE', ( #245 ), #151, .T. ) ;
#20 = EDGE_CURVE ( 'NONE', #121, #123, #87, .T. ) ;
#21 = AXIS2_PLACEMENT_3D ( 'NONE', #218, #65, #198 ) ;
#22 = LINE ( 'NONE', #157, #31 ) ;
#23 = PRODUCT_DEFINITION ( 'UNKNOWN', '', #118, #220 ) ;
#24 = APPLICATION_CONTEXT ( 'automotive_design' ) ;
#25 =( LENGTH_UNIT ( ) NAMED_UNIT ( * ) SI_UNIT ( $, .METRE. ) );
#26 = ORIENTED_EDGE ( 'NONE', *, *, #133, .F. ) ;
#27 = DIRECTION ( 'NONE',  ( -1.000000000000000000, 0.0000000000000000000, 0.0000000000000000000 ) ) ;
#28 = ORIENTED_EDGE ( 'NONE', *, *, #55, .F. ) ;
#29 =( GEOMETRIC_REPRESENTATION_CONTEXT ( 3 ) GLOBAL_UNCERTAINTY_ASSIGNED_CONTEXT ( ( #244 ) ) GLOBAL_UNIT_ASSIGNED_CONTEXT ( ( #194, #73, #58 ) ) REPRESENTATION_CONTEXT ( 'NONE', 'WORKASPACE' ) );
#30 = LINE ( 'NONE', #120, #63 ) ;
#31 = VECTOR ( 'NONE', #213, 39.37007874015748143 ) ;
#32 = EDGE_LOOP ( 'NONE', ( #170, #184, #181, #100 ) ) ;
#33 = CARTESIAN_POINT ( 'NONE',  ( -0.01000000000000000021, 8.266365894244632793E-18, 0.0000000000000000000 ) ) ;
#34 = EDGE_LOOP ( 'NONE', ( #49, #47, #189, #84 ) ) ;
#35 = APPLICATION_CONTEXT ( 'automotive_design' ) ;
#36 = AXIS2_PLACEMENT_3D ( 'NONE', #64, #182, #137 ) ;
#37 = LINE ( 'NONE', #13, #43 ) ;
#38 = DIRECTION ( 'NONE',  ( 1.000000000000000000, 0.0000000000000000000, 0.0000000000000000000 ) ) ;
#39 = PRODUCT_DEFINITION_SHAPE ( 'NONE', 'NONE',  #23 ) ;
#40 = PRODUCT_CONTEXT ( 'NONE', #24, 'mechanical' ) ;
#41 = LINE ( 'NONE', #115, #44 ) ;
#42 = CARTESIAN_POINT ( 'NONE',  ( 0.1250000000000000000, 1.530808498934191509E-17, 2.485000000000000320 ) ) ;
#43 = VECTOR ( 'NONE', #227, 39.37007874015748143 ) ;
#44 = VECTOR ( 'NONE', #236, 39.37007874015748854 ) ;
#45 = DIRECTION ( 'NONE',  ( 0.0000000000000000000, 0.0000000000000000000, -1.000000000000000000 ) ) ;
#46 = ORIENTED_EDGE ( 'NONE', *, *, #20, .T. ) ;
#47 = ORIENTED_EDGE ( 'NONE', *, *, #249, .T. ) ;
#48 = PRESENTATION_LAYER_ASSIGNMENT (  '', '', ( #59 ) ) ;
#49 = ORIENTED_EDGE ( 'NONE', *, *, #114, .T. ) ;
#50 = PRESENTATION_STYLE_ASSIGNMENT (( #225 ) ) ;
#51 = SURFACE_STYLE_FILL_AREA ( #149 ) ;
#52 = CYLINDRICAL_SURFACE ( 'NONE', #188, 0.1250000000000000000 ) ;
#53 = ORIENTED_EDGE ( 'NONE', *, *, #67, .T. ) ;
#54 = CARTESIAN_POINT ( 'NONE',  ( 0.0000000000000000000, 0.0000000000000000000, 2.500000000000000000 ) ) ;
#55 = EDGE_CURVE ( 'NONE', #106, #121, #112, .T. ) ;
#56 = UNCERTAINTY_MEASURE_WITH_UNIT (LENGTH_MEASURE( 1.000000000000000082E-05 ), #5, 'distance_accuracy_value', 'NONE');
#57 = DIRECTION ( 'NONE',  ( -0.0000000000000000000, -0.0000000000000000000, -1.000000000000000000 ) ) ;
#58 =( NAMED_UNIT ( * ) SI_UNIT ( $, .STERADIAN. ) SOLID_ANGLE_UNIT ( ) );
#59 = STYLED_ITEM ( 'NONE', ( #155 ), #80 ) ;
#60 = EDGE_CURVE ( 'NONE', #183, #121, #22, .T. ) ;
#61 = FACE_OUTER_BOUND ( 'NONE', #82, .T. ) ;
#62 = EDGE_CURVE ( 'NONE', #203, #123, #41, .T. ) ;
#63 = VECTOR ( 'NONE', #180, 39.37007874015748854 ) ;
#64 = CARTESIAN_POINT ( 'NONE',  ( 0.0000000000000000000, 0.0000000000000000000, 0.0000000000000000000 ) ) ;
#65 = DIRECTION ( 'NONE',  ( -0.0000000000000000000, -0.0000000000000000000, -1.000000000000000000 ) ) ;
#66 = CARTESIAN_POINT ( 'NONE',  ( 0.1100000000000001948, 1.347111479062090784E-17, 2.500000000000000000 ) ) ;
#67 = EDGE_CURVE ( 'NONE', #78, #203, #238, .T. ) ;
#68 = FILL_AREA_STYLE ('',( #172 ) ) ;
#69 = EDGE_LOOP ( 'NONE', ( #226, #136 ) ) ;
#70 = CARTESIAN_POINT ( 'NONE',  ( 0.0000000000000000000, 0.0000000000000000000, 0.0000000000000000000 ) ) ;
#71 = APPLICATION_PROTOCOL_DEFINITION ( 'draft international standard', 'automotive_design', 1998, #24 ) ;
#72 = LENGTH_MEASURE_WITH_UNIT ( LENGTH_MEASURE( 0.02539999999999999897 ), #117 );
#73 =( NAMED_UNIT ( * ) PLANE_ANGLE_UNIT ( ) SI_UNIT ( $, .RADIAN. ) );
#74 = DIMENSIONAL_EXPONENTS ( 1.000000000000000000, 0.0000000000000000000, 0.0000000000000000000, 0.0000000000000000000, 0.0000000000000000000, 0.0000000000000000000, 0.0000000000000000000 ) ;
#75 = CONICAL_SURFACE ( 'NONE', #36, 0.01000000000000000021, 0.5235987755983003700 ) ;
#76 = CARTESIAN_POINT ( 'NONE',  ( 0.0000000000000000000, 0.0000000000000000000, 2.500000000000000000 ) ) ;
#77 = DIRECTION ( 'NONE',  ( -1.000000000000000000, 0.0000000000000000000, 0.0000000000000000000 ) ) ;
#78 = VERTEX_POINT ( 'NONE', #192 ) ;
#79 = AXIS2_PLACEMENT_3D ( 'NONE', #247, #224, #207 ) ;
#80 = MANIFOLD_SOLID_BREP ( 'Cut-Revolve1', #234 ) ;
#81 = DIRECTION ( 'NONE',  ( 0.0000000000000000000, 0.0000000000000000000, 1.000000000000000000 ) ) ;
#82 = EDGE_LOOP ( 'NONE', ( #6, #119, #185, #166 ) ) ;
#83 = ORIENTED_EDGE ( 'NONE', *, *, #62, .T. ) ;
#84 = ORIENTED_EDGE ( 'NONE', *, *, #20, .F. ) ;
#85 =( LENGTH_UNIT ( ) NAMED_UNIT ( * ) SI_UNIT ( $, .METRE. ) );
#86 = PLANE ( 'NONE',  #153 ) ;
#87 = LINE ( 'NONE', #147, #102 ) ;
#88 = CYLINDRICAL_SURFACE ( 'NONE', #148, 0.1250000000000000000 ) ;
#89 = PRODUCT_RELATED_PRODUCT_CATEGORY ( 'part', '', ( #9 ) ) ;
#90 = DIRECTION ( 'NONE',  ( 0.0000000000000000000, 0.0000000000000000000, 1.000000000000000000 ) ) ;
#91 = AXIS2_PLACEMENT_3D ( 'NONE', #7, #199, #27 ) ;
#92 = CIRCLE ( 'NONE', #239, 0.01000000000000000021 ) ;
#93 = DIMENSIONAL_EXPONENTS ( 1.000000000000000000, 0.0000000000000000000, 0.0000000000000000000, 0.0000000000000000000, 0.0000000000000000000, 0.0000000000000000000, 0.0000000000000000000 ) ;
#94 = EDGE_CURVE ( 'NONE', #78, #200, #30, .T. ) ;
#95 = LENGTH_MEASURE_WITH_UNIT ( LENGTH_MEASURE( 0.02539999999999999897 ), #25 );
#96 = CIRCLE ( 'NONE', #91, 0.1250000000000000000 ) ;
#97 = DIRECTION ( 'NONE',  ( 1.000000000000000000, 0.0000000000000000000, 0.0000000000000000000 ) ) ;
#98 = ORIENTED_EDGE ( 'NONE', *, *, #55, .T. ) ;
#99 = FACE_OUTER_BOUND ( 'NONE', #8, .T. ) ;
#100 = ORIENTED_EDGE ( 'NONE', *, *, #133, .T. ) ;
#101 = VECTOR ( 'NONE', #193, 39.37007874015748143 ) ;
#102 = VECTOR ( 'NONE', #57, 39.37007874015748143 ) ;
#103 = DIRECTION ( 'NONE',  ( -0.0000000000000000000, -0.0000000000000000000, -1.000000000000000000 ) ) ;
#104 = EDGE_CURVE ( 'NONE', #203, #78, #92, .T. ) ;
#105 =( NAMED_UNIT ( * ) PLANE_ANGLE_UNIT ( ) SI_UNIT ( $, .RADIAN. ) );
#106 = VERTEX_POINT ( 'NONE', #42 ) ;
#107 = CARTESIAN_POINT ( 'NONE',  ( 0.0000000000000000000, 0.0000000000000000000, 2.500000000000000000 ) ) ;
#108 = EDGE_LOOP ( 'NONE', ( #162, #141, #4, #28 ) ) ;
#109 = EDGE_CURVE ( 'NONE', #123, #200, #18, .T. ) ;
#110 = FACE_OUTER_BOUND ( 'NONE', #34, .T. ) ;
#111 = DIRECTION ( 'NONE',  ( -1.000000000000000000, 0.0000000000000000000, 0.0000000000000000000 ) ) ;
#112 = CIRCLE ( 'NONE', #131, 0.1250000000000000000 ) ;
#113 = APPLICATION_PROTOCOL_DEFINITION ( 'draft international standard', 'automotive_design', 1998, #35 ) ;
#114 = EDGE_CURVE ( 'NONE', #121, #106, #215, .T. ) ;
#115 = CARTESIAN_POINT ( 'NONE',  ( -0.01000000000000000021, 1.224646799147353384E-18, 0.0000000000000000000 ) ) ;
#116 =( GEOMETRIC_REPRESENTATION_CONTEXT ( 3 ) GLOBAL_UNCERTAINTY_ASSIGNED_CONTEXT ( ( #174 ) ) GLOBAL_UNIT_ASSIGNED_CONTEXT ( ( #169, #105, #246 ) ) REPRESENTATION_CONTEXT ( 'NONE', 'WORKASPACE' ) );
#117 =( LENGTH_UNIT ( ) NAMED_UNIT ( * ) SI_UNIT ( $, .METRE. ) );
#118 = PRODUCT_DEFINITION_FORMATION_WITH_SPECIFIED_SOURCE ( 'ANY', '', #9, .NOT_KNOWN. ) ;
#119 = ORIENTED_EDGE ( 'NONE', *, *, #186, .T. ) ;
#120 = CARTESIAN_POINT ( 'NONE',  ( 0.01000000000000000021, 0.0000000000000000000, 0.0000000000000000000 ) ) ;
#121 = VERTEX_POINT ( 'NONE', #163 ) ;
#122 = LENGTH_MEASURE_WITH_UNIT ( LENGTH_MEASURE( 0.02539999999999999897 ), #85 );
#123 = VERTEX_POINT ( 'NONE', #2 ) ;
#124 = SURFACE_STYLE_FILL_AREA ( #68 ) ;
#125 = FACE_OUTER_BOUND ( 'NONE', #206, .T. ) ;
#126 = MECHANICAL_DESIGN_GEOMETRIC_PRESENTATION_REPRESENTATION (  '', ( #197 ), #29 ) ;
#127 = FACE_OUTER_BOUND ( 'NONE', #14, .T. ) ;
#128 = CIRCLE ( 'NONE', #177, 0.1100000000000001948 ) ;
#129 = FILL_AREA_STYLE_COLOUR ( '', #154 ) ;
#130 = COLOUR_RGB ( '',0.7921568627450980005, 0.8196078431372548767, 0.9333333333333333481 ) ;
#131 = AXIS2_PLACEMENT_3D ( 'NONE', #150, #152, #235 ) ;
#132 = CARTESIAN_POINT ( 'NONE',  ( 0.0000000000000000000, 0.0000000000000000000, 0.0000000000000000000 ) ) ;
#133 = EDGE_CURVE ( 'NONE', #200, #123, #96, .T. ) ;
#134 =( NAMED_UNIT ( * ) PLANE_ANGLE_UNIT ( ) SI_UNIT ( $, .RADIAN. ) );
#135 =( NAMED_UNIT ( * ) SI_UNIT ( $, .STERADIAN. ) SOLID_ANGLE_UNIT ( ) );
#136 = ORIENTED_EDGE ( 'NONE', *, *, #190, .T. ) ;
#137 = DIRECTION ( 'NONE',  ( 1.000000000000000000, 0.0000000000000000000, 0.0000000000000000000 ) ) ;
#138 = PLANE ( 'NONE',  #79 ) ;
#139 = AXIS2_PLACEMENT_3D ( 'NONE', #70, #143, #228 ) ;
#140 = SURFACE_SIDE_STYLE ('',( #124 ) ) ;
#141 = ORIENTED_EDGE ( 'NONE', *, *, #161, .F. ) ;
#142 = DIRECTION ( 'NONE',  ( 0.0000000000000000000, 0.0000000000000000000, 1.000000000000000000 ) ) ;
#143 = DIRECTION ( 'NONE',  ( 0.0000000000000000000, 0.0000000000000000000, 1.000000000000000000 ) ) ;
#144 = CARTESIAN_POINT ( 'NONE',  ( 0.0000000000000000000, 0.0000000000000000000, 2.500000000000000000 ) ) ;
#145 = DIRECTION ( 'NONE',  ( -0.0000000000000000000, -0.0000000000000000000, -1.000000000000000000 ) ) ;
#146 = SURFACE_STYLE_USAGE ( .BOTH. , #176 ) ;
#147 = CARTESIAN_POINT ( 'NONE',  ( -0.1250000000000000000, 0.0000000000000000000, 2.500000000000000000 ) ) ;
#148 = AXIS2_PLACEMENT_3D ( 'NONE', #187, #210, #209 ) ;
#149 = FILL_AREA_STYLE ('',( #129 ) ) ;
#150 = CARTESIAN_POINT ( 'NONE',  ( 0.0000000000000000000, 0.0000000000000000000, 2.485000000000000320 ) ) ;
#151 = CONICAL_SURFACE ( 'NONE', #139, 0.01000000000000000021, 0.5235987755983003700 ) ;
#152 = DIRECTION ( 'NONE',  ( 0.0000000000000000000, 0.0000000000000000000, -1.000000000000000000 ) ) ;
#153 = AXIS2_PLACEMENT_3D ( 'NONE', #241, #142, #16 ) ;
#154 = COLOUR_RGB ( '',0.7921568627450980005, 0.8196078431372548767, 0.9333333333333333481 ) ;
#155 = PRESENTATION_STYLE_ASSIGNMENT (( #146 ) ) ;
#156 = ADVANCED_FACE ( 'NONE', ( #61 ), #231, .T. ) ;
#157 = CARTESIAN_POINT ( 'NONE',  ( -0.1100000000000001948, 0.0000000000000000000, 2.500000000000000000 ) ) ;
#158 = CARTESIAN_POINT ( 'NONE',  ( 0.0000000000000000000, 0.0000000000000000000, 2.500000000000000000 ) ) ;
#159 = DIRECTION ( 'NONE',  ( 1.000000000000000000, 0.0000000000000000000, 0.0000000000000000000 ) ) ;
#160 = AXIS2_PLACEMENT_3D ( 'NONE', #54, #15, #10 ) ;
#161 = EDGE_CURVE ( 'NONE', #183, #164, #233, .T. ) ;
#162 = ORIENTED_EDGE ( 'NONE', *, *, #186, .F. ) ;
#163 = CARTESIAN_POINT ( 'NONE',  ( -0.1250000000000000000, 0.0000000000000000000, 2.485000000000000320 ) ) ;
#164 = VERTEX_POINT ( 'NONE', #165 ) ;
#165 = CARTESIAN_POINT ( 'NONE',  ( 0.1100000000000001948, 1.438959988998141146E-17, 2.500000000000000000 ) ) ;
#166 = ORIENTED_EDGE ( 'NONE', *, *, #60, .F. ) ;
#167 = CONICAL_SURFACE ( 'NONE', #160, 0.1100000000000001948, 0.7853981633974517207 ) ;
#168 = ADVANCED_FACE ( 'NONE', ( #99 ), #75, .T. ) ;
#169 =( CONVERSION_BASED_UNIT ( 'INCH', #122 ) LENGTH_UNIT ( ) NAMED_UNIT ( #93 ) );
#170 = ORIENTED_EDGE ( 'NONE', *, *, #62, .F. ) ;
#171 = FACE_OUTER_BOUND ( 'NONE', #108, .T. ) ;
#172 = FILL_AREA_STYLE_COLOUR ( '', #130 ) ;
#173 = AXIS2_PLACEMENT_3D ( 'NONE', #179, #204, #111 ) ;
#174 = UNCERTAINTY_MEASURE_WITH_UNIT (LENGTH_MEASURE( 1.000000000000000082E-05 ), #169, 'distance_accuracy_value', 'NONE');
#175 =( GEOMETRIC_REPRESENTATION_CONTEXT ( 3 ) GLOBAL_UNCERTAINTY_ASSIGNED_CONTEXT ( ( #56 ) ) GLOBAL_UNIT_ASSIGNED_CONTEXT ( ( #5, #134, #135 ) ) REPRESENTATION_CONTEXT ( 'NONE', 'WORKASPACE' ) );
#176 = SURFACE_SIDE_STYLE ('',( #51 ) ) ;
#177 = AXIS2_PLACEMENT_3D ( 'NONE', #107, #205, #38 ) ;
#178 = DIRECTION ( 'NONE',  ( -1.000000000000000000, 0.0000000000000000000, 0.0000000000000000000 ) ) ;
#179 = CARTESIAN_POINT ( 'NONE',  ( 0.0000000000000000000, 0.0000000000000000000, 0.0000000000000000000 ) ) ;
#180 = DIRECTION ( 'NONE',  ( 0.5000000000000012212, 0.0000000000000000000, 0.8660254037844377084 ) ) ;
#181 = ORIENTED_EDGE ( 'NONE', *, *, #94, .T. ) ;
#182 = DIRECTION ( 'NONE',  ( 0.0000000000000000000, 0.0000000000000000000, 1.000000000000000000 ) ) ;
#183 = VERTEX_POINT ( 'NONE', #240 ) ;
#184 = ORIENTED_EDGE ( 'NONE', *, *, #67, .F. ) ;
#185 = ORIENTED_EDGE ( 'NONE', *, *, #114, .F. ) ;
#186 = EDGE_CURVE ( 'NONE', #164, #106, #202, .T. ) ;
#187 = CARTESIAN_POINT ( 'NONE',  ( 0.0000000000000000000, 0.0000000000000000000, 2.500000000000000000 ) ) ;
#188 = AXIS2_PLACEMENT_3D ( 'NONE', #144, #145, #230 ) ;
#189 = ORIENTED_EDGE ( 'NONE', *, *, #109, .F. ) ;
#190 = EDGE_CURVE ( 'NONE', #164, #183, #128, .T. ) ;
#191 = ADVANCED_BREP_SHAPE_REPRESENTATION ( 'Micro_RSC-250-120', ( #80, #217 ), #116 ) ;
#192 = CARTESIAN_POINT ( 'NONE',  ( 0.01000000000000000021, 0.0000000000000000000, 0.0000000000000000000 ) ) ;
#193 = DIRECTION ( 'NONE',  ( 0.7071067811865499042, 8.659560562354961208E-17, -0.7071067811865451302 ) ) ;
#194 =( CONVERSION_BASED_UNIT ( 'INCH', #72 ) LENGTH_UNIT ( ) NAMED_UNIT ( #237 ) );
#195 = SHAPE_DEFINITION_REPRESENTATION ( #39, #191 ) ;
#196 = ADVANCED_FACE ( 'NONE', ( #110 ), #52, .T. ) ;
#197 = STYLED_ITEM ( 'NONE', ( #50 ), #191 ) ;
#198 = DIRECTION ( 'NONE',  ( -1.000000000000000000, 0.0000000000000000000, 0.0000000000000000000 ) ) ;
#199 = DIRECTION ( 'NONE',  ( -0.0000000000000000000, -0.0000000000000000000, -1.000000000000000000 ) ) ;
#200 = VERTEX_POINT ( 'NONE', #232 ) ;
#201 = MECHANICAL_DESIGN_GEOMETRIC_PRESENTATION_REPRESENTATION (  '', ( #59 ), #175 ) ;
#202 = LINE ( 'NONE', #66, #101 ) ;
#203 = VERTEX_POINT ( 'NONE', #33 ) ;
#204 = DIRECTION ( 'NONE',  ( -0.0000000000000000000, -0.0000000000000000000, -1.000000000000000000 ) ) ;
#205 = DIRECTION ( 'NONE',  ( 0.0000000000000000000, 0.0000000000000000000, 1.000000000000000000 ) ) ;
#206 = EDGE_LOOP ( 'NONE', ( #53, #222 ) ) ;
#207 = DIRECTION ( 'NONE',  ( 1.000000000000000000, 0.0000000000000000000, -0.0000000000000000000 ) ) ;
#208 = ORIENTED_EDGE ( 'NONE', *, *, #94, .F. ) ;
#209 = DIRECTION ( 'NONE',  ( -1.000000000000000000, 0.0000000000000000000, 0.0000000000000000000 ) ) ;
#210 = DIRECTION ( 'NONE',  ( -0.0000000000000000000, -0.0000000000000000000, -1.000000000000000000 ) ) ;
#211 = AXIS2_PLACEMENT_3D ( 'NONE', #221, #45, #97 ) ;
#212 = ADVANCED_FACE ( 'NONE', ( #17 ), #138, .T. ) ;
#213 = DIRECTION ( 'NONE',  ( -0.7071067811865499042, 0.0000000000000000000, -0.7071067811865451302 ) ) ;
#214 = CARTESIAN_POINT ( 'NONE',  ( 0.0000000000000000000, 0.0000000000000000000, 0.0000000000000000000 ) ) ;
#215 = CIRCLE ( 'NONE', #211, 0.1250000000000000000 ) ;
#216 = ADVANCED_FACE ( 'NONE', ( #171 ), #167, .T. ) ;
#217 = AXIS2_PLACEMENT_3D ( 'NONE', #214, #90, #1 ) ;
#218 = CARTESIAN_POINT ( 'NONE',  ( 0.0000000000000000000, 0.0000000000000000000, 0.1991858428704201822 ) ) ;
#219 = ADVANCED_FACE ( 'NONE', ( #127 ), #88, .T. ) ;
#220 = PRODUCT_DEFINITION_CONTEXT ( 'detailed design', #35, 'design' ) ;
#221 = CARTESIAN_POINT ( 'NONE',  ( 0.0000000000000000000, 0.0000000000000000000, 2.485000000000000320 ) ) ;
#222 = ORIENTED_EDGE ( 'NONE', *, *, #104, .T. ) ;
#223 = AXIS2_PLACEMENT_3D ( 'NONE', #158, #81, #159 ) ;
#224 = DIRECTION ( 'NONE',  ( 0.0000000000000000000, 0.0000000000000000000, 1.000000000000000000 ) ) ;
#225 = SURFACE_STYLE_USAGE ( .BOTH. , #140 ) ;
#226 = ORIENTED_EDGE ( 'NONE', *, *, #161, .T. ) ;
#227 = DIRECTION ( 'NONE',  ( -0.0000000000000000000, -0.0000000000000000000, -1.000000000000000000 ) ) ;
#228 = DIRECTION ( 'NONE',  ( 1.000000000000000000, 0.0000000000000000000, 0.0000000000000000000 ) ) ;
#229 = ADVANCED_FACE ( 'NONE', ( #125 ), #86, .F. ) ;
#230 = DIRECTION ( 'NONE',  ( -1.000000000000000000, 0.0000000000000000000, 0.0000000000000000000 ) ) ;
#231 = CONICAL_SURFACE ( 'NONE', #12, 0.1100000000000001948, 0.7853981633974517207 ) ;
#232 = CARTESIAN_POINT ( 'NONE',  ( 0.1250000000000000000, 1.530808498934191509E-17, 0.1991858428704201822 ) ) ;
#233 = CIRCLE ( 'NONE', #223, 0.1100000000000001948 ) ;
#234 = CLOSED_SHELL ( 'NONE', ( #168, #156, #196, #219, #212, #216, #19, #229 ) ) ;
#235 = DIRECTION ( 'NONE',  ( 1.000000000000000000, 0.0000000000000000000, 0.0000000000000000000 ) ) ;
#236 = DIRECTION ( 'NONE',  ( -0.5000000000000012212, 6.123233995736780827E-17, 0.8660254037844377084 ) ) ;
#237 = DIMENSIONAL_EXPONENTS ( 1.000000000000000000, 0.0000000000000000000, 0.0000000000000000000, 0.0000000000000000000, 0.0000000000000000000, 0.0000000000000000000, 0.0000000000000000000 ) ;
#238 = CIRCLE ( 'NONE', #173, 0.01000000000000000021 ) ;
#239 = AXIS2_PLACEMENT_3D ( 'NONE', #132, #103, #178 ) ;
#240 = CARTESIAN_POINT ( 'NONE',  ( -0.1100000000000001948, 0.0000000000000000000, 2.500000000000000000 ) ) ;
#241 = CARTESIAN_POINT ( 'NONE',  ( 0.0000000000000000000, 0.0000000000000000000, 0.0000000000000000000 ) ) ;
#242 = ORIENTED_EDGE ( 'NONE', *, *, #109, .T. ) ;
#243 = ORIENTED_EDGE ( 'NONE', *, *, #104, .F. ) ;
#244 = UNCERTAINTY_MEASURE_WITH_UNIT (LENGTH_MEASURE( 1.000000000000000082E-05 ), #194, 'distance_accuracy_value', 'NONE');
#245 = FACE_OUTER_BOUND ( 'NONE', #32, .T. ) ;
#246 =( NAMED_UNIT ( * ) SI_UNIT ( $, .STERADIAN. ) SOLID_ANGLE_UNIT ( ) );
#247 = CARTESIAN_POINT ( 'NONE',  ( 0.0000000000000000000, 0.0000000000000000000, 2.500000000000000000 ) ) ;
#248 = PRESENTATION_LAYER_ASSIGNMENT (  '', '', ( #197 ) ) ;
#249 = EDGE_CURVE ( 'NONE', #106, #200, #37, .T. ) ;
ENDSEC;
END-ISO-10303-21;
