ISO-10303-21;
HEADER;
FILE_DESCRIPTION (( 'STEP AP214' ),
    '1' );
FILE_NAME ('Micro_RTC-187-2.STEP',
    '2021-09-03T18:05:40',
    ( '' ),
    ( '' ),
    'SwSTEP 2.0',
    'SolidWorks 2020',
    '' );
FILE_SCHEMA (( 'AUTOMOTIVE_DESIGN' ));
ENDSEC;

DATA;
#1 = DIRECTION ( 'NONE',  ( 0.0000000000000000000, 0.0000000000000000000, -1.000000000000000000 ) ) ;
#2 = ORIENTED_EDGE ( 'NONE', *, *, #96, .T. ) ;
#3 = LINE ( 'NONE', #126, #192 ) ;
#4 = EDGE_LOOP ( 'NONE', ( #243, #214, #64, #97 ) ) ;
#5 = CIRCLE ( 'NONE', #142, 0.003999999999999999216 ) ;
#6 = DIRECTION ( 'NONE',  ( 1.000000000000000000, 0.0000000000000000000, 0.0000000000000000000 ) ) ;
#7 = VERTEX_POINT ( 'NONE', #197 ) ;
#8 = CARTESIAN_POINT ( 'NONE',  ( 0.0000000000000000000, 0.0000000000000000000, 2.000000000000000000 ) ) ;
#9 = CARTESIAN_POINT ( 'NONE',  ( 0.003999999999999999216, 0.0000000000000000000, 0.0000000000000000000 ) ) ;
#10 = EDGE_CURVE ( 'NONE', #229, #72, #52, .T. ) ;
#11 =( LENGTH_UNIT ( ) NAMED_UNIT ( * ) SI_UNIT ( $, .METRE. ) );
#12 = CARTESIAN_POINT ( 'NONE',  ( 0.0000000000000000000, 0.0000000000000000000, 2.000000000000000000 ) ) ;
#13 = LINE ( 'NONE', #114, #210 ) ;
#14 =( NAMED_UNIT ( * ) PLANE_ANGLE_UNIT ( ) SI_UNIT ( $, .RADIAN. ) );
#15 = DIMENSIONAL_EXPONENTS ( 1.000000000000000000, 0.0000000000000000000, 0.0000000000000000000, 0.0000000000000000000, 0.0000000000000000000, 0.0000000000000000000, 0.0000000000000000000 ) ;
#16 = ORIENTED_EDGE ( 'NONE', *, *, #10, .F. ) ;
#17 = AXIS2_PLACEMENT_3D ( 'NONE', #39, #42, #20 ) ;
#18 = ORIENTED_EDGE ( 'NONE', *, *, #178, .T. ) ;
#19 = PLANE ( 'NONE',  #148 ) ;
#20 = DIRECTION ( 'NONE',  ( 1.000000000000000000, 0.0000000000000000000, 0.0000000000000000000 ) ) ;
#21 = FACE_OUTER_BOUND ( 'NONE', #169, .T. ) ;
#22 = ADVANCED_FACE ( 'NONE', ( #21 ), #177, .T. ) ;
#23 = FILL_AREA_STYLE_COLOUR ( '', #222 ) ;
#24 = DIRECTION ( 'NONE',  ( -1.000000000000000000, 0.0000000000000000000, 0.0000000000000000000 ) ) ;
#25 = DIRECTION ( 'NONE',  ( 0.0000000000000000000, 0.0000000000000000000, 1.000000000000000000 ) ) ;
#26 = DIRECTION ( 'NONE',  ( -0.0000000000000000000, -0.0000000000000000000, -1.000000000000000000 ) ) ;
#27 = CIRCLE ( 'NONE', #247, 0.003999999999999999216 ) ;
#28 = FACE_OUTER_BOUND ( 'NONE', #95, .T. ) ;
#29 =( CONVERSION_BASED_UNIT ( 'INCH', #176 ) LENGTH_UNIT ( ) NAMED_UNIT ( #109 ) );
#30 =( NAMED_UNIT ( * ) SI_UNIT ( $, .STERADIAN. ) SOLID_ANGLE_UNIT ( ) );
#31 = CARTESIAN_POINT ( 'NONE',  ( 0.0000000000000000000, 0.0000000000000000000, 2.000000000000000000 ) ) ;
#32 = ADVANCED_FACE ( 'NONE', ( #215 ), #122, .T. ) ;
#33 =( CONVERSION_BASED_UNIT ( 'INCH', #163 ) LENGTH_UNIT ( ) NAMED_UNIT ( #49 ) );
#34 = CONICAL_SURFACE ( 'NONE', #236, 0.003999999999999999216, 0.2617993877991502960 ) ;
#35 = UNCERTAINTY_MEASURE_WITH_UNIT (LENGTH_MEASURE( 1.000000000000000082E-05 ), #29, 'distance_accuracy_value', 'NONE');
#36 = ORIENTED_EDGE ( 'NONE', *, *, #60, .F. ) ;
#37 = CIRCLE ( 'NONE', #186, 0.09375000000000001388 ) ;
#38 = ADVANCED_FACE ( 'NONE', ( #138 ), #19, .T. ) ;
#39 = CARTESIAN_POINT ( 'NONE',  ( 0.0000000000000000000, 0.0000000000000000000, 0.0000000000000000000 ) ) ;
#40 = AXIS2_PLACEMENT_3D ( 'NONE', #141, #194, #24 ) ;
#41 = AXIS2_PLACEMENT_3D ( 'NONE', #12, #159, #131 ) ;
#42 = DIRECTION ( 'NONE',  ( 0.0000000000000000000, 0.0000000000000000000, 1.000000000000000000 ) ) ;
#43 = DIRECTION ( 'NONE',  ( -0.0000000000000000000, -0.0000000000000000000, -1.000000000000000000 ) ) ;
#44 = CARTESIAN_POINT ( 'NONE',  ( 0.0000000000000000000, 0.0000000000000000000, 2.000000000000000000 ) ) ;
#45 = AXIS2_PLACEMENT_3D ( 'NONE', #8, #150, #213 ) ;
#46 = FACE_OUTER_BOUND ( 'NONE', #4, .T. ) ;
#47 = PRODUCT_DEFINITION_SHAPE ( 'NONE', 'NONE',  #228 ) ;
#48 = DIRECTION ( 'NONE',  ( 1.000000000000000000, 0.0000000000000000000, 0.0000000000000000000 ) ) ;
#49 = DIMENSIONAL_EXPONENTS ( 1.000000000000000000, 0.0000000000000000000, 0.0000000000000000000, 0.0000000000000000000, 0.0000000000000000000, 0.0000000000000000000, 0.0000000000000000000 ) ;
#50 = ORIENTED_EDGE ( 'NONE', *, *, #78, .T. ) ;
#51 = CARTESIAN_POINT ( 'NONE',  ( 0.003999999999999999216, 0.0000000000000000000, 2.000000000000000000 ) ) ;
#52 = CIRCLE ( 'NONE', #40, 0.09375000000000001388 ) ;
#53 = APPLICATION_PROTOCOL_DEFINITION ( 'draft international standard', 'automotive_design', 1998, #77 ) ;
#54 = LENGTH_MEASURE_WITH_UNIT ( LENGTH_MEASURE( 0.02539999999999999897 ), #200 );
#55 = EDGE_LOOP ( 'NONE', ( #149, #164, #130, #123 ) ) ;
#56 = UNCERTAINTY_MEASURE_WITH_UNIT (LENGTH_MEASURE( 1.000000000000000082E-05 ), #33, 'distance_accuracy_value', 'NONE');
#57 = PRESENTATION_STYLE_ASSIGNMENT (( #90 ) ) ;
#58 = DIRECTION ( 'NONE',  ( 1.000000000000000000, 0.0000000000000000000, 0.0000000000000000000 ) ) ;
#59 =( GEOMETRIC_REPRESENTATION_CONTEXT ( 3 ) GLOBAL_UNCERTAINTY_ASSIGNED_CONTEXT ( ( #56 ) ) GLOBAL_UNIT_ASSIGNED_CONTEXT ( ( #33, #14, #120 ) ) REPRESENTATION_CONTEXT ( 'NONE', 'WORKASPACE' ) );
#60 = EDGE_CURVE ( 'NONE', #184, #168, #221, .T. ) ;
#61 = ORIENTED_EDGE ( 'NONE', *, *, #178, .F. ) ;
#62 = PRODUCT_DEFINITION_CONTEXT ( 'detailed design', #77, 'design' ) ;
#63 = DIRECTION ( 'NONE',  ( -0.2588190451025216832, -3.169619151431776035E-17, -0.9659258262890679791 ) ) ;
#64 = ORIENTED_EDGE ( 'NONE', *, *, #10, .T. ) ;
#65 = AXIS2_PLACEMENT_3D ( 'NONE', #195, #43, #137 ) ;
#66 = CIRCLE ( 'NONE', #187, 0.09375000000000001388 ) ;
#67 = DIRECTION ( 'NONE',  ( 0.0000000000000000000, 0.0000000000000000000, 1.000000000000000000 ) ) ;
#68 = DIRECTION ( 'NONE',  ( -1.000000000000000000, 0.0000000000000000000, 0.0000000000000000000 ) ) ;
#69 = CARTESIAN_POINT ( 'NONE',  ( -0.003999999999999999216, 5.985461230832687873E-18, 0.0000000000000000000 ) ) ;
#70 = PRESENTATION_LAYER_ASSIGNMENT (  '', '', ( #203 ) ) ;
#71 = DIRECTION ( 'NONE',  ( 0.0000000000000000000, 0.0000000000000000000, -1.000000000000000000 ) ) ;
#72 = VERTEX_POINT ( 'NONE', #103 ) ;
#73 = SURFACE_STYLE_USAGE ( .BOTH. , #237 ) ;
#74 =( GEOMETRIC_REPRESENTATION_CONTEXT ( 3 ) GLOBAL_UNCERTAINTY_ASSIGNED_CONTEXT ( ( #175 ) ) GLOBAL_UNIT_ASSIGNED_CONTEXT ( ( #179, #206, #30 ) ) REPRESENTATION_CONTEXT ( 'NONE', 'WORKASPACE' ) );
#75 = DIRECTION ( 'NONE',  ( 0.0000000000000000000, 0.0000000000000000000, -1.000000000000000000 ) ) ;
#76 = ORIENTED_EDGE ( 'NONE', *, *, #117, .F. ) ;
#77 = APPLICATION_CONTEXT ( 'automotive_design' ) ;
#78 = EDGE_CURVE ( 'NONE', #72, #229, #37, .T. ) ;
#79 = PRESENTATION_LAYER_ASSIGNMENT (  '', '', ( #241 ) ) ;
#80 = DIRECTION ( 'NONE',  ( -1.000000000000000000, 0.0000000000000000000, 0.0000000000000000000 ) ) ;
#81 = FILL_AREA_STYLE ('',( #171 ) ) ;
#82 = CARTESIAN_POINT ( 'NONE',  ( -0.003999999999999999216, -4.898587196589411612E-19, 2.000000000000000000 ) ) ;
#83 = CARTESIAN_POINT ( 'NONE',  ( 0.09375000000000001388, 1.148106374200643863E-17, 1.665048440020694409 ) ) ;
#84 = ADVANCED_FACE ( 'NONE', ( #101 ), #145, .T. ) ;
#85 = DIRECTION ( 'NONE',  ( -1.000000000000000000, 0.0000000000000000000, 0.0000000000000000000 ) ) ;
#86 = AXIS2_PLACEMENT_3D ( 'NONE', #198, #25, #212 ) ;
#87 = CIRCLE ( 'NONE', #115, 0.09375000000000001388 ) ;
#88 = SHAPE_DEFINITION_REPRESENTATION ( #47, #190 ) ;
#89 = PLANE ( 'NONE',  #249 ) ;
#90 = SURFACE_STYLE_USAGE ( .BOTH. , #94 ) ;
#91 = LINE ( 'NONE', #161, #143 ) ;
#92 = ORIENTED_EDGE ( 'NONE', *, *, #100, .F. ) ;
#93 = CARTESIAN_POINT ( 'NONE',  ( -0.09375000000000001388, 0.0000000000000000000, 0.3349515599793054799 ) ) ;
#94 = SURFACE_SIDE_STYLE ('',( #181 ) ) ;
#95 = EDGE_LOOP ( 'NONE', ( #2, #140 ) ) ;
#96 = EDGE_CURVE ( 'NONE', #209, #133, #5, .T. ) ;
#97 = ORIENTED_EDGE ( 'NONE', *, *, #119, .F. ) ;
#98 = CONICAL_SURFACE ( 'NONE', #86, 0.003999999999999999216, 0.2617993877991502960 ) ;
#99 = ORIENTED_EDGE ( 'NONE', *, *, #78, .F. ) ;
#100 = EDGE_CURVE ( 'NONE', #168, #7, #235, .T. ) ;
#101 = FACE_OUTER_BOUND ( 'NONE', #155, .T. ) ;
#102 = CARTESIAN_POINT ( 'NONE',  ( 0.0000000000000000000, 0.0000000000000000000, 1.665048440020694409 ) ) ;
#103 = CARTESIAN_POINT ( 'NONE',  ( 0.09375000000000001388, 1.148106374200643863E-17, 0.3349515599793054799 ) ) ;
#104 = PRODUCT_DEFINITION_FORMATION_WITH_SPECIFIED_SOURCE ( 'ANY', '', #106, .NOT_KNOWN. ) ;
#105 = DIRECTION ( 'NONE',  ( 1.000000000000000000, 0.0000000000000000000, -0.0000000000000000000 ) ) ;
#106 = PRODUCT ( 'Micro_RTC-187-2', 'Micro_RTC-187-2', '', ( #240 ) ) ;
#107 = CARTESIAN_POINT ( 'NONE',  ( 0.0000000000000000000, 0.0000000000000000000, 0.0000000000000000000 ) ) ;
#108 = ORIENTED_EDGE ( 'NONE', *, *, #218, .F. ) ;
#109 = DIMENSIONAL_EXPONENTS ( 1.000000000000000000, 0.0000000000000000000, 0.0000000000000000000, 0.0000000000000000000, 0.0000000000000000000, 0.0000000000000000000, 0.0000000000000000000 ) ;
#110 = PRESENTATION_STYLE_ASSIGNMENT (( #73 ) ) ;
#111 = DIRECTION ( 'NONE',  ( 1.000000000000000000, 0.0000000000000000000, -0.0000000000000000000 ) ) ;
#112 = ORIENTED_EDGE ( 'NONE', *, *, #96, .F. ) ;
#113 = VERTEX_POINT ( 'NONE', #83 ) ;
#114 = CARTESIAN_POINT ( 'NONE',  ( -0.003999999999999999216, 4.898587196589411612E-19, 0.0000000000000000000 ) ) ;
#115 = AXIS2_PLACEMENT_3D ( 'NONE', #128, #75, #201 ) ;
#116 = CARTESIAN_POINT ( 'NONE',  ( 0.0000000000000000000, 0.0000000000000000000, 0.0000000000000000000 ) ) ;
#117 = EDGE_CURVE ( 'NONE', #113, #72, #217, .T. ) ;
#118 =( GEOMETRIC_REPRESENTATION_CONTEXT ( 3 ) GLOBAL_UNCERTAINTY_ASSIGNED_CONTEXT ( ( #35 ) ) GLOBAL_UNIT_ASSIGNED_CONTEXT ( ( #29, #162, #160 ) ) REPRESENTATION_CONTEXT ( 'NONE', 'WORKASPACE' ) );
#119 = EDGE_CURVE ( 'NONE', #209, #72, #3, .T. ) ;
#120 =( NAMED_UNIT ( * ) SI_UNIT ( $, .STERADIAN. ) SOLID_ANGLE_UNIT ( ) );
#121 = AXIS2_PLACEMENT_3D ( 'NONE', #224, #157, #48 ) ;
#122 = CYLINDRICAL_SURFACE ( 'NONE', #65, 0.09375000000000001388 ) ;
#123 = ORIENTED_EDGE ( 'NONE', *, *, #245, .F. ) ;
#124 = DIRECTION ( 'NONE',  ( -0.0000000000000000000, -0.0000000000000000000, -1.000000000000000000 ) ) ;
#125 = ORIENTED_EDGE ( 'NONE', *, *, #183, .T. ) ;
#126 = CARTESIAN_POINT ( 'NONE',  ( 0.003999999999999999216, 0.0000000000000000000, 0.0000000000000000000 ) ) ;
#127 = CARTESIAN_POINT ( 'NONE',  ( -0.09375000000000001388, 0.0000000000000000000, 2.000000000000000000 ) ) ;
#128 = CARTESIAN_POINT ( 'NONE',  ( 0.0000000000000000000, 0.0000000000000000000, 1.665048440020694409 ) ) ;
#129 = DIRECTION ( 'NONE',  ( 0.2588190451025216832, 0.0000000000000000000, -0.9659258262890679791 ) ) ;
#130 = ORIENTED_EDGE ( 'NONE', *, *, #205, .F. ) ;
#131 = DIRECTION ( 'NONE',  ( -1.000000000000000000, 0.0000000000000000000, 0.0000000000000000000 ) ) ;
#132 = CLOSED_SHELL ( 'NONE', ( #208, #136, #32, #22, #153, #211, #84, #38 ) ) ;
#133 = VERTEX_POINT ( 'NONE', #69 ) ;
#134 = MECHANICAL_DESIGN_GEOMETRIC_PRESENTATION_REPRESENTATION (  '', ( #203 ), #118 ) ;
#135 = DIRECTION ( 'NONE',  ( -0.0000000000000000000, -0.0000000000000000000, -1.000000000000000000 ) ) ;
#136 = ADVANCED_FACE ( 'NONE', ( #46 ), #98, .T. ) ;
#137 = DIRECTION ( 'NONE',  ( -1.000000000000000000, 0.0000000000000000000, 0.0000000000000000000 ) ) ;
#138 = FACE_OUTER_BOUND ( 'NONE', #154, .T. ) ;
#139 = PRODUCT_RELATED_PRODUCT_CATEGORY ( 'part', '', ( #106 ) ) ;
#140 = ORIENTED_EDGE ( 'NONE', *, *, #199, .T. ) ;
#141 = CARTESIAN_POINT ( 'NONE',  ( 0.0000000000000000000, 0.0000000000000000000, 0.3349515599793054799 ) ) ;
#142 = AXIS2_PLACEMENT_3D ( 'NONE', #107, #234, #85 ) ;
#143 = VECTOR ( 'NONE', #129, 39.37007874015748143 ) ;
#144 = DIRECTION ( 'NONE',  ( 0.0000000000000000000, 0.0000000000000000000, 1.000000000000000000 ) ) ;
#145 = CONICAL_SURFACE ( 'NONE', #248, 0.003999999999999999216, 0.2617993877991502960 ) ;
#146 = DIRECTION ( 'NONE',  ( -1.000000000000000000, 0.0000000000000000000, 0.0000000000000000000 ) ) ;
#147 = ORIENTED_EDGE ( 'NONE', *, *, #119, .T. ) ;
#148 = AXIS2_PLACEMENT_3D ( 'NONE', #238, #67, #105 ) ;
#149 = ORIENTED_EDGE ( 'NONE', *, *, #60, .T. ) ;
#150 = DIRECTION ( 'NONE',  ( -0.0000000000000000000, -0.0000000000000000000, -1.000000000000000000 ) ) ;
#151 = CIRCLE ( 'NONE', #41, 0.003999999999999999216 ) ;
#152 = SURFACE_STYLE_FILL_AREA ( #81 ) ;
#153 = ADVANCED_FACE ( 'NONE', ( #170 ), #216, .T. ) ;
#154 = EDGE_LOOP ( 'NONE', ( #36, #230 ) ) ;
#155 = EDGE_LOOP ( 'NONE', ( #92, #233, #191, #61 ) ) ;
#156 = CARTESIAN_POINT ( 'NONE',  ( 0.09375000000000001388, 1.148106374200643863E-17, 2.000000000000000000 ) ) ;
#157 = DIRECTION ( 'NONE',  ( 0.0000000000000000000, 0.0000000000000000000, 1.000000000000000000 ) ) ;
#158 = VECTOR ( 'NONE', #135, 39.37007874015748143 ) ;
#159 = DIRECTION ( 'NONE',  ( 0.0000000000000000000, 0.0000000000000000000, -1.000000000000000000 ) ) ;
#160 =( NAMED_UNIT ( * ) SI_UNIT ( $, .STERADIAN. ) SOLID_ANGLE_UNIT ( ) );
#161 = CARTESIAN_POINT ( 'NONE',  ( 0.003999999999999999216, 0.0000000000000000000, 2.000000000000000000 ) ) ;
#162 =( NAMED_UNIT ( * ) PLANE_ANGLE_UNIT ( ) SI_UNIT ( $, .RADIAN. ) );
#163 = LENGTH_MEASURE_WITH_UNIT ( LENGTH_MEASURE( 0.02539999999999999897 ), #182 );
#164 = ORIENTED_EDGE ( 'NONE', *, *, #100, .T. ) ;
#165 = VECTOR ( 'NONE', #244, 39.37007874015748143 ) ;
#166 = MANIFOLD_SOLID_BREP ( 'Mirror1', #132 ) ;
#167 = EDGE_LOOP ( 'NONE', ( #108, #112, #147, #50 ) ) ;
#168 = VERTEX_POINT ( 'NONE', #225 ) ;
#169 = EDGE_LOOP ( 'NONE', ( #76, #220, #125, #99 ) ) ;
#170 = FACE_OUTER_BOUND ( 'NONE', #167, .T. ) ;
#171 = FILL_AREA_STYLE_COLOUR ( '', #227 ) ;
#172 = VECTOR ( 'NONE', #63, 39.37007874015748143 ) ;
#173 = CARTESIAN_POINT ( 'NONE',  ( 0.0000000000000000000, 0.0000000000000000000, 0.3349515599793054799 ) ) ;
#174 = DIRECTION ( 'NONE',  ( 0.0000000000000000000, 0.0000000000000000000, -1.000000000000000000 ) ) ;
#175 = UNCERTAINTY_MEASURE_WITH_UNIT (LENGTH_MEASURE( 1.000000000000000082E-05 ), #179, 'distance_accuracy_value', 'NONE');
#176 = LENGTH_MEASURE_WITH_UNIT ( LENGTH_MEASURE( 0.02539999999999999897 ), #11 );
#177 = CYLINDRICAL_SURFACE ( 'NONE', #45, 0.09375000000000001388 ) ;
#178 = EDGE_CURVE ( 'NONE', #7, #113, #66, .T. ) ;
#179 =( CONVERSION_BASED_UNIT ( 'INCH', #54 ) LENGTH_UNIT ( ) NAMED_UNIT ( #15 ) );
#180 = DIRECTION ( 'NONE',  ( 0.0000000000000000000, 0.0000000000000000000, -1.000000000000000000 ) ) ;
#181 = SURFACE_STYLE_FILL_AREA ( #185 ) ;
#182 =( LENGTH_UNIT ( ) NAMED_UNIT ( * ) SI_UNIT ( $, .METRE. ) );
#183 = EDGE_CURVE ( 'NONE', #7, #229, #188, .T. ) ;
#184 = VERTEX_POINT ( 'NONE', #51 ) ;
#185 = FILL_AREA_STYLE ('',( #23 ) ) ;
#186 = AXIS2_PLACEMENT_3D ( 'NONE', #173, #124, #68 ) ;
#187 = AXIS2_PLACEMENT_3D ( 'NONE', #102, #180, #219 ) ;
#188 = LINE ( 'NONE', #127, #165 ) ;
#189 = ORIENTED_EDGE ( 'NONE', *, *, #117, .T. ) ;
#190 = ADVANCED_BREP_SHAPE_REPRESENTATION ( 'Micro_RTC-187-2', ( #166, #121 ), #59 ) ;
#191 = ORIENTED_EDGE ( 'NONE', *, *, #245, .T. ) ;
#192 = VECTOR ( 'NONE', #239, 39.37007874015748143 ) ;
#193 = APPLICATION_CONTEXT ( 'automotive_design' ) ;
#194 = DIRECTION ( 'NONE',  ( -0.0000000000000000000, -0.0000000000000000000, -1.000000000000000000 ) ) ;
#195 = CARTESIAN_POINT ( 'NONE',  ( 0.0000000000000000000, 0.0000000000000000000, 2.000000000000000000 ) ) ;
#196 = CARTESIAN_POINT ( 'NONE',  ( 0.0000000000000000000, 0.0000000000000000000, 2.000000000000000000 ) ) ;
#197 = CARTESIAN_POINT ( 'NONE',  ( -0.09375000000000001388, 0.0000000000000000000, 1.665048440020694409 ) ) ;
#198 = CARTESIAN_POINT ( 'NONE',  ( 0.0000000000000000000, 0.0000000000000000000, 0.0000000000000000000 ) ) ;
#199 = EDGE_CURVE ( 'NONE', #133, #209, #27, .T. ) ;
#200 =( LENGTH_UNIT ( ) NAMED_UNIT ( * ) SI_UNIT ( $, .METRE. ) );
#201 = DIRECTION ( 'NONE',  ( -1.000000000000000000, 0.0000000000000000000, 0.0000000000000000000 ) ) ;
#202 = AXIS2_PLACEMENT_3D ( 'NONE', #44, #1, #80 ) ;
#203 = STYLED_ITEM ( 'NONE', ( #57 ), #190 ) ;
#204 = DIRECTION ( 'NONE',  ( -0.2588190451025216832, 3.169619151431776035E-17, 0.9659258262890679791 ) ) ;
#205 = EDGE_CURVE ( 'NONE', #113, #7, #87, .T. ) ;
#206 =( NAMED_UNIT ( * ) PLANE_ANGLE_UNIT ( ) SI_UNIT ( $, .RADIAN. ) );
#207 = MECHANICAL_DESIGN_GEOMETRIC_PRESENTATION_REPRESENTATION (  '', ( #241 ), #74 ) ;
#208 = ADVANCED_FACE ( 'NONE', ( #242 ), #34, .T. ) ;
#209 = VERTEX_POINT ( 'NONE', #9 ) ;
#210 = VECTOR ( 'NONE', #204, 39.37007874015748143 ) ;
#211 = ADVANCED_FACE ( 'NONE', ( #28 ), #89, .F. ) ;
#212 = DIRECTION ( 'NONE',  ( 1.000000000000000000, 0.0000000000000000000, 0.0000000000000000000 ) ) ;
#213 = DIRECTION ( 'NONE',  ( -1.000000000000000000, 0.0000000000000000000, 0.0000000000000000000 ) ) ;
#214 = ORIENTED_EDGE ( 'NONE', *, *, #218, .T. ) ;
#215 = FACE_OUTER_BOUND ( 'NONE', #223, .T. ) ;
#216 = CONICAL_SURFACE ( 'NONE', #17, 0.003999999999999999216, 0.2617993877991502960 ) ;
#217 = LINE ( 'NONE', #156, #158 ) ;
#218 = EDGE_CURVE ( 'NONE', #133, #229, #13, .T. ) ;
#219 = DIRECTION ( 'NONE',  ( -1.000000000000000000, 0.0000000000000000000, 0.0000000000000000000 ) ) ;
#220 = ORIENTED_EDGE ( 'NONE', *, *, #205, .T. ) ;
#221 = CIRCLE ( 'NONE', #202, 0.003999999999999999216 ) ;
#222 = COLOUR_RGB ( '',0.7921568627450980005, 0.8196078431372548767, 0.9333333333333333481 ) ;
#223 = EDGE_LOOP ( 'NONE', ( #18, #189, #16, #246 ) ) ;
#224 = CARTESIAN_POINT ( 'NONE',  ( 0.0000000000000000000, 0.0000000000000000000, 0.0000000000000000000 ) ) ;
#225 = CARTESIAN_POINT ( 'NONE',  ( -0.003999999999999999216, -5.985461230832689413E-18, 2.000000000000000000 ) ) ;
#226 = CARTESIAN_POINT ( 'NONE',  ( 0.0000000000000000000, 0.0000000000000000000, 0.0000000000000000000 ) ) ;
#227 = COLOUR_RGB ( '',0.7921568627450980005, 0.8196078431372548767, 0.9333333333333333481 ) ;
#228 = PRODUCT_DEFINITION ( 'UNKNOWN', '', #104, #62 ) ;
#229 = VERTEX_POINT ( 'NONE', #93 ) ;
#230 = ORIENTED_EDGE ( 'NONE', *, *, #231, .F. ) ;
#231 = EDGE_CURVE ( 'NONE', #168, #184, #151, .T. ) ;
#232 = APPLICATION_PROTOCOL_DEFINITION ( 'draft international standard', 'automotive_design', 1998, #193 ) ;
#233 = ORIENTED_EDGE ( 'NONE', *, *, #231, .T. ) ;
#234 = DIRECTION ( 'NONE',  ( -0.0000000000000000000, -0.0000000000000000000, -1.000000000000000000 ) ) ;
#235 = LINE ( 'NONE', #82, #172 ) ;
#236 = AXIS2_PLACEMENT_3D ( 'NONE', #31, #71, #58 ) ;
#237 = SURFACE_SIDE_STYLE ('',( #152 ) ) ;
#238 = CARTESIAN_POINT ( 'NONE',  ( 0.0000000000000000000, 0.0000000000000000000, 2.000000000000000000 ) ) ;
#239 = DIRECTION ( 'NONE',  ( 0.2588190451025216832, 0.0000000000000000000, 0.9659258262890679791 ) ) ;
#240 = PRODUCT_CONTEXT ( 'NONE', #193, 'mechanical' ) ;
#241 = STYLED_ITEM ( 'NONE', ( #110 ), #166 ) ;
#242 = FACE_OUTER_BOUND ( 'NONE', #55, .T. ) ;
#243 = ORIENTED_EDGE ( 'NONE', *, *, #199, .F. ) ;
#244 = DIRECTION ( 'NONE',  ( -0.0000000000000000000, -0.0000000000000000000, -1.000000000000000000 ) ) ;
#245 = EDGE_CURVE ( 'NONE', #184, #113, #91, .T. ) ;
#246 = ORIENTED_EDGE ( 'NONE', *, *, #183, .F. ) ;
#247 = AXIS2_PLACEMENT_3D ( 'NONE', #116, #26, #146 ) ;
#248 = AXIS2_PLACEMENT_3D ( 'NONE', #196, #174, #6 ) ;
#249 = AXIS2_PLACEMENT_3D ( 'NONE', #226, #144, #111 ) ;
ENDSEC;
END-ISO-10303-21;
