ISO-10303-21;
HEADER;
FILE_DESCRIPTION (( 'STEP AP214' ),
    '1' );
FILE_NAME ('Micro_SME-018-2.STEP',
    '2021-09-02T10:36:52',
    ( '' ),
    ( '' ),
    'SwSTEP 2.0',
    'SolidWorks 2020',
    '' );
FILE_SCHEMA (( 'AUTOMOTIVE_DESIGN' ));
ENDSEC;

DATA;
#1 = DIRECTION ( 'NONE',  ( -1.000000000000000000, 0.0000000000000000000, 0.0000000000000000000 ) ) ;
#2 = DIRECTION ( 'NONE',  ( 1.000000000000000000, 0.0000000000000000000, -0.0000000000000000000 ) ) ;
#3 = AXIS2_PLACEMENT_3D ( 'NONE', #246, #14, #127 ) ;
#4 = CARTESIAN_POINT ( 'NONE',  ( 4.047024377500950418E-17, 0.0000000000000000000, 0.3304646188859224898 ) ) ;
#5 = DIRECTION ( 'NONE',  ( 1.000000000000000000, 0.0000000000000000000, 0.0000000000000000000 ) ) ;
#6 = FACE_OUTER_BOUND ( 'NONE', #108, .T. ) ;
#7 = CARTESIAN_POINT ( 'NONE',  ( 0.0000000000000000000, 0.0000000000000000000, 0.0000000000000000000 ) ) ;
#8 = CARTESIAN_POINT ( 'NONE',  ( 0.008990999999999998993, 1.101079937113385097E-18, -1.101079937113385482E-18 ) ) ;
#9 = AXIS2_PLACEMENT_3D ( 'NONE', #284, #10, #78 ) ;
#10 = DIRECTION ( 'NONE',  ( 0.0000000000000000000, 0.0000000000000000000, -1.000000000000000000 ) ) ;
#11 = ORIENTED_EDGE ( 'NONE', *, *, #286, .T. ) ;
#12 = CARTESIAN_POINT ( 'NONE',  ( -0.008990999999999997258, 0.0000000000000000000, 2.202159874226770579E-18 ) ) ;
#13 = ORIENTED_EDGE ( 'NONE', *, *, #247, .F. ) ;
#14 = DIRECTION ( 'NONE',  ( -1.224646799147353700E-16, -0.0000000000000000000, -1.000000000000000000 ) ) ;
#15 = APPLICATION_CONTEXT ( 'automotive_design' ) ;
#16 = AXIS2_PLACEMENT_3D ( 'NONE', #134, #268, #205 ) ;
#17 = ADVANCED_FACE ( 'NONE', ( #180 ), #178, .T. ) ;
#18 = SURFACE_STYLE_FILL_AREA ( #293 ) ;
#19 = DIRECTION ( 'NONE',  ( -0.0000000000000000000, -0.0000000000000000000, -1.000000000000000000 ) ) ;
#20 = ORIENTED_EDGE ( 'NONE', *, *, #112, .F. ) ;
#21 = AXIS2_PLACEMENT_3D ( 'NONE', #121, #143, #2 ) ;
#22 = APPLICATION_CONTEXT ( 'automotive_design' ) ;
#23 = ORIENTED_EDGE ( 'NONE', *, *, #189, .F. ) ;
#24 = ORIENTED_EDGE ( 'NONE', *, *, #62, .F. ) ;
#25 = DIRECTION ( 'NONE',  ( -1.224646799147353700E-16, -0.0000000000000000000, -1.000000000000000000 ) ) ;
#26 = CIRCLE ( 'NONE', #125, 0.04750000000000064587 ) ;
#27 = CARTESIAN_POINT ( 'NONE',  ( 0.0000000000000000000, 0.0000000000000000000, 0.0000000000000000000 ) ) ;
#28 = FILL_AREA_STYLE_COLOUR ( '', #297 ) ;
#29 = DIRECTION ( 'NONE',  ( 1.000000000000000000, 0.0000000000000000000, 0.0000000000000000000 ) ) ;
#30 = SURFACE_STYLE_USAGE ( .BOTH. , #50 ) ;
#31 = DIRECTION ( 'NONE',  ( -1.000000000000000000, 0.0000000000000000000, 1.224646799147353700E-16 ) ) ;
#32 = ADVANCED_FACE ( 'NONE', ( #272 ), #109, .T. ) ;
#33 = DIRECTION ( 'NONE',  ( 0.0000000000000000000, 0.0000000000000000000, 1.000000000000000000 ) ) ;
#34 = DIRECTION ( 'NONE',  ( -1.224646799147353700E-16, -0.0000000000000000000, -1.000000000000000000 ) ) ;
#35 = DIRECTION ( 'NONE',  ( 1.000000000000000000, 0.0000000000000000000, 0.0000000000000000000 ) ) ;
#36 = VERTEX_POINT ( 'NONE', #40 ) ;
#37 = AXIS2_PLACEMENT_3D ( 'NONE', #7, #33, #161 ) ;
#38 = CARTESIAN_POINT ( 'NONE',  ( 1.348434020591276969E-34, 0.0000000000000000000, 1.101079937113385289E-18 ) ) ;
#39 = ADVANCED_FACE ( 'NONE', ( #70 ), #292, .T. ) ;
#40 = CARTESIAN_POINT ( 'NONE',  ( -0.06249999999999997918, 0.0000000000000000000, 0.3304646188859224898 ) ) ;
#41 = CIRCLE ( 'NONE', #249, 0.008990999999999997258 ) ;
#42 = ADVANCED_FACE ( 'NONE', ( #157 ), #107, .T. ) ;
#43 = ORIENTED_EDGE ( 'NONE', *, *, #52, .T. ) ;
#44 = UNCERTAINTY_MEASURE_WITH_UNIT (LENGTH_MEASURE( 1.000000000000000082E-05 ), #139, 'distance_accuracy_value', 'NONE');
#45 = MANIFOLD_SOLID_BREP ( 'Cut-Revolve1', #220 ) ;
#46 = ORIENTED_EDGE ( 'NONE', *, *, #112, .T. ) ;
#47 = ORIENTED_EDGE ( 'NONE', *, *, #299, .T. ) ;
#48 = FILL_AREA_STYLE_COLOUR ( '', #66 ) ;
#49 = LINE ( 'NONE', #182, #241 ) ;
#50 = SURFACE_SIDE_STYLE ('',( #94 ) ) ;
#51 = CARTESIAN_POINT ( 'NONE',  ( 4.047024377500950418E-17, 0.0000000000000000000, 0.3304646188859224898 ) ) ;
#52 = EDGE_CURVE ( 'NONE', #88, #86, #26, .T. ) ;
#53 = AXIS2_PLACEMENT_3D ( 'NONE', #154, #19, #248 ) ;
#54 =( GEOMETRIC_REPRESENTATION_CONTEXT ( 3 ) GLOBAL_UNCERTAINTY_ASSIGNED_CONTEXT ( ( #231 ) ) GLOBAL_UNIT_ASSIGNED_CONTEXT ( ( #167, #222, #145 ) ) REPRESENTATION_CONTEXT ( 'NONE', 'WORKASPACE' ) );
#55 = CARTESIAN_POINT ( 'NONE',  ( 3.306546357697854812E-18, 0.0000000000000000000, 0.02699999999999999969 ) ) ;
#56 = AXIS2_PLACEMENT_3D ( 'NONE', #4, #279, #76 ) ;
#57 = DIRECTION ( 'NONE',  ( -1.000000000000000000, 0.0000000000000000000, 1.224646799147353700E-16 ) ) ;
#58 = ORIENTED_EDGE ( 'NONE', *, *, #136, .T. ) ;
#59 = DIRECTION ( 'NONE',  ( 0.0000000000000000000, 0.0000000000000000000, -1.000000000000000000 ) ) ;
#60 = DIMENSIONAL_EXPONENTS ( 1.000000000000000000, 0.0000000000000000000, 0.0000000000000000000, 0.0000000000000000000, 0.0000000000000000000, 0.0000000000000000000, 0.0000000000000000000 ) ;
#61 = AXIS2_PLACEMENT_3D ( 'NONE', #51, #275, #93 ) ;
#62 = EDGE_CURVE ( 'NONE', #232, #64, #166, .T. ) ;
#63 = EDGE_LOOP ( 'NONE', ( #43, #228 ) ) ;
#64 = VERTEX_POINT ( 'NONE', #240 ) ;
#65 = SURFACE_STYLE_USAGE ( .BOTH. , #106 ) ;
#66 = COLOUR_RGB ( '',0.7921568627450980005, 0.8196078431372548767, 0.9333333333333333481 ) ;
#67 = CIRCLE ( 'NONE', #9, 0.06250000000000002776 ) ;
#68 = VERTEX_POINT ( 'NONE', #212 ) ;
#69 = ORIENTED_EDGE ( 'NONE', *, *, #215, .F. ) ;
#70 = FACE_OUTER_BOUND ( 'NONE', #100, .T. ) ;
#71 = ADVANCED_FACE ( 'NONE', ( #159 ), #259, .F. ) ;
#72 = FILL_AREA_STYLE ('',( #28 ) ) ;
#73 = DIRECTION ( 'NONE',  ( 0.0000000000000000000, 0.0000000000000000000, 1.000000000000000000 ) ) ;
#74 = LINE ( 'NONE', #165, #98 ) ;
#75 = VECTOR ( 'NONE', #267, 39.37007874015748143 ) ;
#76 = DIRECTION ( 'NONE',  ( 1.000000000000000000, 0.0000000000000000000, 0.0000000000000000000 ) ) ;
#77 = EDGE_CURVE ( 'NONE', #64, #36, #225, .T. ) ;
#78 = DIRECTION ( 'NONE',  ( 1.000000000000000000, 0.0000000000000000000, 0.0000000000000000000 ) ) ;
#79 = DIRECTION ( 'NONE',  ( 0.7071067811865462405, 8.659560562354916834E-17, -0.7071067811865486830 ) ) ;
#80 = AXIS2_PLACEMENT_3D ( 'NONE', #140, #73, #238 ) ;
#81 = DIRECTION ( 'NONE',  ( 1.000000000000000000, 0.0000000000000000000, -0.0000000000000000000 ) ) ;
#82 = ORIENTED_EDGE ( 'NONE', *, *, #280, .T. ) ;
#83 = PRESENTATION_LAYER_ASSIGNMENT (  '', '', ( #87 ) ) ;
#84 = ADVANCED_FACE ( 'NONE', ( #6 ), #255, .T. ) ;
#85 = VERTEX_POINT ( 'NONE', #113 ) ;
#86 = VERTEX_POINT ( 'NONE', #96 ) ;
#87 = STYLED_ITEM ( 'NONE', ( #256 ), #176 ) ;
#88 = VERTEX_POINT ( 'NONE', #142 ) ;
#89 = ORIENTED_EDGE ( 'NONE', *, *, #77, .T. ) ;
#90 = CARTESIAN_POINT ( 'NONE',  ( 0.0000000000000000000, 0.0000000000000000000, 1.500000000000000222 ) ) ;
#91 = AXIS2_PLACEMENT_3D ( 'NONE', #226, #294, #274 ) ;
#92 = AXIS2_PLACEMENT_3D ( 'NONE', #27, #115, #31 ) ;
#93 = DIRECTION ( 'NONE',  ( 1.000000000000000000, 0.0000000000000000000, 0.0000000000000000000 ) ) ;
#94 = SURFACE_STYLE_FILL_AREA ( #72 ) ;
#95 = DIRECTION ( 'NONE',  ( -0.0000000000000000000, -0.0000000000000000000, -1.000000000000000000 ) ) ;
#96 = CARTESIAN_POINT ( 'NONE',  ( 0.04750000000000064587, 6.735557395310483192E-18, 1.500000000000000222 ) ) ;
#97 = APPLICATION_PROTOCOL_DEFINITION ( 'draft international standard', 'automotive_design', 1998, #15 ) ;
#98 = VECTOR ( 'NONE', #184, 39.37007874015748143 ) ;
#99 = DIRECTION ( 'NONE',  ( 0.0000000000000000000, 0.0000000000000000000, 1.000000000000000000 ) ) ;
#100 = EDGE_LOOP ( 'NONE', ( #23, #11, #252, #202 ) ) ;
#101 = CARTESIAN_POINT ( 'NONE',  ( 1.348434020591276969E-34, 0.0000000000000000000, 1.101079937113385289E-18 ) ) ;
#102 = CONICAL_SURFACE ( 'NONE', #105, 0.04750000000000064587, 0.7853981633974466137 ) ;
#103 = PLANE ( 'NONE',  #270 ) ;
#104 = ORIENTED_EDGE ( 'NONE', *, *, #122, .T. ) ;
#105 = AXIS2_PLACEMENT_3D ( 'NONE', #221, #147, #194 ) ;
#106 = SURFACE_SIDE_STYLE ('',( #18 ) ) ;
#107 = CYLINDRICAL_SURFACE ( 'NONE', #91, 0.008990999999999998993 ) ;
#108 = EDGE_LOOP ( 'NONE', ( #219, #177, #46, #253 ) ) ;
#109 = CONICAL_SURFACE ( 'NONE', #16, 0.008991000000000002462, 0.1745329251994338915 ) ;
#110 = ORIENTED_EDGE ( 'NONE', *, *, #136, .F. ) ;
#111 = ORIENTED_EDGE ( 'NONE', *, *, #62, .T. ) ;
#112 = EDGE_CURVE ( 'NONE', #85, #36, #49, .T. ) ;
#113 = CARTESIAN_POINT ( 'NONE',  ( -0.06250000000000002776, 0.0000000000000000000, 1.485000000000000764 ) ) ;
#114 = CIRCLE ( 'NONE', #287, 0.06250000000000002776 ) ;
#115 = DIRECTION ( 'NONE',  ( -1.224646799147353700E-16, -0.0000000000000000000, -1.000000000000000000 ) ) ;
#116 =( NAMED_UNIT ( * ) SI_UNIT ( $, .STERADIAN. ) SOLID_ANGLE_UNIT ( ) );
#117 =( LENGTH_UNIT ( ) NAMED_UNIT ( * ) SI_UNIT ( $, .METRE. ) );
#118 = DIRECTION ( 'NONE',  ( 1.224646799147353700E-16, 0.0000000000000000000, 1.000000000000000000 ) ) ;
#119 = PRODUCT_DEFINITION_SHAPE ( 'NONE', 'NONE',  #234 ) ;
#120 = CIRCLE ( 'NONE', #155, 0.008990999999999997258 ) ;
#121 = CARTESIAN_POINT ( 'NONE',  ( 0.0000000000000000000, 0.0000000000000000000, 0.0000000000000000000 ) ) ;
#122 = EDGE_CURVE ( 'NONE', #172, #232, #210, .T. ) ;
#123 = DIRECTION ( 'NONE',  ( -1.000000000000000000, 0.0000000000000000000, 1.224646799147353700E-16 ) ) ;
#124 = CARTESIAN_POINT ( 'NONE',  ( -0.008990999999999998993, 1.101079937113385482E-18, 0.02699999999999999969 ) ) ;
#125 = AXIS2_PLACEMENT_3D ( 'NONE', #254, #99, #29 ) ;
#126 = DIRECTION ( 'NONE',  ( -0.7071067811865462405, 0.0000000000000000000, -0.7071067811865486830 ) ) ;
#127 = DIRECTION ( 'NONE',  ( -1.000000000000000000, 0.0000000000000000000, 0.0000000000000000000 ) ) ;
#128 = DIMENSIONAL_EXPONENTS ( 1.000000000000000000, 0.0000000000000000000, 0.0000000000000000000, 0.0000000000000000000, 0.0000000000000000000, 0.0000000000000000000, 0.0000000000000000000 ) ;
#129 = CARTESIAN_POINT ( 'NONE',  ( 0.0000000000000000000, 0.0000000000000000000, 1.500000000000000222 ) ) ;
#130 = CIRCLE ( 'NONE', #3, 0.008991000000000002462 ) ;
#131 = EDGE_LOOP ( 'NONE', ( #181, #169, #82, #265 ) ) ;
#132 =( LENGTH_UNIT ( ) NAMED_UNIT ( * ) SI_UNIT ( $, .METRE. ) );
#133 = UNCERTAINTY_MEASURE_WITH_UNIT (LENGTH_MEASURE( 1.000000000000000082E-05 ), #213, 'distance_accuracy_value', 'NONE');
#134 = CARTESIAN_POINT ( 'NONE',  ( 3.306546357697854812E-18, 0.0000000000000000000, 0.02699999999999999969 ) ) ;
#135 = ORIENTED_EDGE ( 'NONE', *, *, #299, .F. ) ;
#136 = EDGE_CURVE ( 'NONE', #36, #64, #230, .T. ) ;
#137 = DIRECTION ( 'NONE',  ( 0.1736481776669313859, 0.0000000000000000000, 0.9848077530122077983 ) ) ;
#138 =( NAMED_UNIT ( * ) PLANE_ANGLE_UNIT ( ) SI_UNIT ( $, .RADIAN. ) );
#139 =( CONVERSION_BASED_UNIT ( 'INCH', #281 ) LENGTH_UNIT ( ) NAMED_UNIT ( #151 ) );
#140 = CARTESIAN_POINT ( 'NONE',  ( 0.0000000000000000000, 0.0000000000000000000, 1.500000000000000222 ) ) ;
#141 =( NAMED_UNIT ( * ) SI_UNIT ( $, .STERADIAN. ) SOLID_ANGLE_UNIT ( ) );
#142 = CARTESIAN_POINT ( 'NONE',  ( -0.04750000000000064587, 0.0000000000000000000, 1.500000000000000222 ) ) ;
#143 = DIRECTION ( 'NONE',  ( 0.0000000000000000000, 0.0000000000000000000, 1.000000000000000000 ) ) ;
#144 = VECTOR ( 'NONE', #126, 39.37007874015748854 ) ;
#145 =( NAMED_UNIT ( * ) SI_UNIT ( $, .STERADIAN. ) SOLID_ANGLE_UNIT ( ) );
#146 = ORIENTED_EDGE ( 'NONE', *, *, #282, .F. ) ;
#147 = DIRECTION ( 'NONE',  ( 0.0000000000000000000, 0.0000000000000000000, -1.000000000000000000 ) ) ;
#148 = VERTEX_POINT ( 'NONE', #187 ) ;
#149 = LENGTH_MEASURE_WITH_UNIT ( LENGTH_MEASURE( 0.02539999999999999897 ), #266 );
#150 = DIRECTION ( 'NONE',  ( -1.224646799147353700E-16, -0.0000000000000000000, -1.000000000000000000 ) ) ;
#151 = DIMENSIONAL_EXPONENTS ( 1.000000000000000000, 0.0000000000000000000, 0.0000000000000000000, 0.0000000000000000000, 0.0000000000000000000, 0.0000000000000000000, 0.0000000000000000000 ) ;
#152 = PRODUCT_RELATED_PRODUCT_CATEGORY ( 'part', '', ( #163 ) ) ;
#153 = EDGE_LOOP ( 'NONE', ( #179, #13, #111, #89 ) ) ;
#154 = CARTESIAN_POINT ( 'NONE',  ( 0.0000000000000000000, 0.0000000000000000000, 1.500000000000000222 ) ) ;
#155 = AXIS2_PLACEMENT_3D ( 'NONE', #101, #34, #123 ) ;
#156 = EDGE_LOOP ( 'NONE', ( #69, #227, #47, #298 ) ) ;
#157 = FACE_OUTER_BOUND ( 'NONE', #156, .T. ) ;
#158 = AXIS2_PLACEMENT_3D ( 'NONE', #129, #271, #1 ) ;
#159 = FACE_OUTER_BOUND ( 'NONE', #269, .T. ) ;
#160 = FACE_OUTER_BOUND ( 'NONE', #198, .T. ) ;
#161 = DIRECTION ( 'NONE',  ( 1.000000000000000000, 0.0000000000000000000, 0.0000000000000000000 ) ) ;
#162 = DIRECTION ( 'NONE',  ( -0.0000000000000000000, -0.0000000000000000000, -1.000000000000000000 ) ) ;
#163 = PRODUCT ( 'Micro_SME-018-2', 'Micro_SME-018-2', '', ( #283 ) ) ;
#164 =( GEOMETRIC_REPRESENTATION_CONTEXT ( 3 ) GLOBAL_UNCERTAINTY_ASSIGNED_CONTEXT ( ( #133 ) ) GLOBAL_UNIT_ASSIGNED_CONTEXT ( ( #213, #138, #141 ) ) REPRESENTATION_CONTEXT ( 'NONE', 'WORKASPACE' ) );
#165 = CARTESIAN_POINT ( 'NONE',  ( 0.06250000000000002776, 7.654042494670959086E-18, 1.500000000000000222 ) ) ;
#166 = LINE ( 'NONE', #278, #296 ) ;
#167 =( CONVERSION_BASED_UNIT ( 'INCH', #149 ) LENGTH_UNIT ( ) NAMED_UNIT ( #60 ) );
#168 = EDGE_CURVE ( 'NONE', #148, #64, #74, .T. ) ;
#169 = ORIENTED_EDGE ( 'NONE', *, *, #52, .F. ) ;
#170 = VECTOR ( 'NONE', #150, 39.37007874015748143 ) ;
#171 = DIRECTION ( 'NONE',  ( 0.0000000000000000000, 0.0000000000000000000, 1.000000000000000000 ) ) ;
#172 = VERTEX_POINT ( 'NONE', #235 ) ;
#173 = CARTESIAN_POINT ( 'NONE',  ( -0.008990999999999998993, 0.0000000000000000000, 1.101079937113385482E-18 ) ) ;
#174 = ORIENTED_EDGE ( 'NONE', *, *, #215, .T. ) ;
#175 = DIRECTION ( 'NONE',  ( -1.224646799147353700E-16, -0.0000000000000000000, -1.000000000000000000 ) ) ;
#176 = ADVANCED_BREP_SHAPE_REPRESENTATION ( 'Micro_SME-018-2', ( #45, #37 ), #54 ) ;
#177 = ORIENTED_EDGE ( 'NONE', *, *, #291, .T. ) ;
#178 = CYLINDRICAL_SURFACE ( 'NONE', #53, 0.06250000000000002776 ) ;
#179 = ORIENTED_EDGE ( 'NONE', *, *, #239, .F. ) ;
#180 = FACE_OUTER_BOUND ( 'NONE', #191, .T. ) ;
#181 = ORIENTED_EDGE ( 'NONE', *, *, #286, .F. ) ;
#182 = CARTESIAN_POINT ( 'NONE',  ( -0.06250000000000002776, 0.0000000000000000000, 1.500000000000000222 ) ) ;
#183 = AXIS2_PLACEMENT_3D ( 'NONE', #55, #118, #5 ) ;
#184 = DIRECTION ( 'NONE',  ( -0.0000000000000000000, -0.0000000000000000000, -1.000000000000000000 ) ) ;
#185 = LINE ( 'NONE', #8, #170 ) ;
#186 = LENGTH_MEASURE_WITH_UNIT ( LENGTH_MEASURE( 0.02539999999999999897 ), #117 );
#187 = CARTESIAN_POINT ( 'NONE',  ( 0.06250000000000002776, 7.654042494670959086E-18, 1.485000000000000764 ) ) ;
#188 = AXIS2_PLACEMENT_3D ( 'NONE', #233, #25, #208 ) ;
#189 = EDGE_CURVE ( 'NONE', #86, #88, #192, .T. ) ;
#190 = CARTESIAN_POINT ( 'NONE',  ( 0.0000000000000000000, 0.0000000000000000000, 1.485000000000000764 ) ) ;
#191 = EDGE_LOOP ( 'NONE', ( #229, #207, #110, #20 ) ) ;
#192 = CIRCLE ( 'NONE', #80, 0.04750000000000064587 ) ;
#193 = DIRECTION ( 'NONE',  ( -0.1736481776669311916, 2.126576849575783316E-17, 0.9848077530122080203 ) ) ;
#194 = DIRECTION ( 'NONE',  ( -1.000000000000000000, 0.0000000000000000000, 0.0000000000000000000 ) ) ;
#195 = EDGE_LOOP ( 'NONE', ( #224, #200, #58, #24 ) ) ;
#196 = PRESENTATION_LAYER_ASSIGNMENT (  '', '', ( #201 ) ) ;
#197 = ORIENTED_EDGE ( 'NONE', *, *, #282, .T. ) ;
#198 = EDGE_LOOP ( 'NONE', ( #104, #174, #146, #135 ) ) ;
#199 = PRODUCT_DEFINITION_CONTEXT ( 'detailed design', #22, 'design' ) ;
#200 = ORIENTED_EDGE ( 'NONE', *, *, #239, .T. ) ;
#201 = STYLED_ITEM ( 'NONE', ( #250 ), #45 ) ;
#202 = ORIENTED_EDGE ( 'NONE', *, *, #280, .F. ) ;
#203 = PRODUCT_DEFINITION_FORMATION_WITH_SPECIFIED_SOURCE ( 'ANY', '', #163, .NOT_KNOWN. ) ;
#204 = ADVANCED_FACE ( 'NONE', ( #160 ), #214, .T. ) ;
#205 = DIRECTION ( 'NONE',  ( 1.000000000000000000, 0.0000000000000000000, 0.0000000000000000000 ) ) ;
#206 = ADVANCED_FACE ( 'NONE', ( #211 ), #263, .T. ) ;
#207 = ORIENTED_EDGE ( 'NONE', *, *, #168, .T. ) ;
#208 = DIRECTION ( 'NONE',  ( -1.000000000000000000, 0.0000000000000000000, 0.0000000000000000000 ) ) ;
#209 =( GEOMETRIC_REPRESENTATION_CONTEXT ( 3 ) GLOBAL_UNCERTAINTY_ASSIGNED_CONTEXT ( ( #44 ) ) GLOBAL_UNIT_ASSIGNED_CONTEXT ( ( #139, #237, #116 ) ) REPRESENTATION_CONTEXT ( 'NONE', 'WORKASPACE' ) );
#210 = CIRCLE ( 'NONE', #188, 0.008991000000000002462 ) ;
#211 = FACE_OUTER_BOUND ( 'NONE', #195, .T. ) ;
#212 = CARTESIAN_POINT ( 'NONE',  ( 0.008990999999999997258, 1.101079937113384904E-18, -2.369500423704768587E-34 ) ) ;
#213 =( CONVERSION_BASED_UNIT ( 'INCH', #186 ) LENGTH_UNIT ( ) NAMED_UNIT ( #128 ) );
#214 = CYLINDRICAL_SURFACE ( 'NONE', #92, 0.008990999999999998993 ) ;
#215 = EDGE_CURVE ( 'NONE', #232, #68, #185, .T. ) ;
#216 = FACE_OUTER_BOUND ( 'NONE', #131, .T. ) ;
#217 = APPLICATION_PROTOCOL_DEFINITION ( 'draft international standard', 'automotive_design', 1998, #22 ) ;
#218 = CARTESIAN_POINT ( 'NONE',  ( 0.04750000000000064587, 5.817072295950006528E-18, 1.500000000000000222 ) ) ;
#219 = ORIENTED_EDGE ( 'NONE', *, *, #168, .F. ) ;
#220 = CLOSED_SHELL ( 'NONE', ( #204, #206, #39, #17, #84, #295, #273, #32, #42, #71 ) ) ;
#221 = CARTESIAN_POINT ( 'NONE',  ( 0.0000000000000000000, 0.0000000000000000000, 1.500000000000000222 ) ) ;
#222 =( NAMED_UNIT ( * ) PLANE_ANGLE_UNIT ( ) SI_UNIT ( $, .RADIAN. ) );
#223 = CARTESIAN_POINT ( 'NONE',  ( 0.008991000000000005932, 0.0000000000000000000, 0.02699999999999999969 ) ) ;
#224 = ORIENTED_EDGE ( 'NONE', *, *, #122, .F. ) ;
#225 = CIRCLE ( 'NONE', #61, 0.06250000000000002776 ) ;
#226 = CARTESIAN_POINT ( 'NONE',  ( 0.0000000000000000000, 0.0000000000000000000, 0.0000000000000000000 ) ) ;
#227 = ORIENTED_EDGE ( 'NONE', *, *, #247, .T. ) ;
#228 = ORIENTED_EDGE ( 'NONE', *, *, #189, .T. ) ;
#229 = ORIENTED_EDGE ( 'NONE', *, *, #262, .T. ) ;
#230 = CIRCLE ( 'NONE', #56, 0.06250000000000002776 ) ;
#231 = UNCERTAINTY_MEASURE_WITH_UNIT (LENGTH_MEASURE( 1.000000000000000082E-05 ), #167, 'distance_accuracy_value', 'NONE');
#232 = VERTEX_POINT ( 'NONE', #223 ) ;
#233 = CARTESIAN_POINT ( 'NONE',  ( 3.306546357697854812E-18, 0.0000000000000000000, 0.02699999999999999969 ) ) ;
#234 = PRODUCT_DEFINITION ( 'UNKNOWN', '', #203, #199 ) ;
#235 = CARTESIAN_POINT ( 'NONE',  ( -0.008990999999999998993, 4.377561215892172573E-18, 0.02699999999999999969 ) ) ;
#236 = AXIS2_PLACEMENT_3D ( 'NONE', #90, #162, #257 ) ;
#237 =( NAMED_UNIT ( * ) PLANE_ANGLE_UNIT ( ) SI_UNIT ( $, .RADIAN. ) );
#238 = DIRECTION ( 'NONE',  ( 1.000000000000000000, 0.0000000000000000000, 0.0000000000000000000 ) ) ;
#239 = EDGE_CURVE ( 'NONE', #172, #36, #243, .T. ) ;
#240 = CARTESIAN_POINT ( 'NONE',  ( 0.06250000000000006939, 7.654042494670963708E-18, 0.3304646188859224898 ) ) ;
#241 = VECTOR ( 'NONE', #95, 39.37007874015748143 ) ;
#242 = LINE ( 'NONE', #245, #144 ) ;
#243 = LINE ( 'NONE', #124, #264 ) ;
#244 = VERTEX_POINT ( 'NONE', #12 ) ;
#245 = CARTESIAN_POINT ( 'NONE',  ( -0.04750000000000064587, 0.0000000000000000000, 1.500000000000000222 ) ) ;
#246 = CARTESIAN_POINT ( 'NONE',  ( 3.306546357697854812E-18, 0.0000000000000000000, 0.02699999999999999969 ) ) ;
#247 = EDGE_CURVE ( 'NONE', #232, #172, #130, .T. ) ;
#248 = DIRECTION ( 'NONE',  ( -1.000000000000000000, 0.0000000000000000000, 0.0000000000000000000 ) ) ;
#249 = AXIS2_PLACEMENT_3D ( 'NONE', #38, #175, #57 ) ;
#250 = PRESENTATION_STYLE_ASSIGNMENT (( #65 ) ) ;
#251 = EDGE_CURVE ( 'NONE', #68, #244, #41, .T. ) ;
#252 = ORIENTED_EDGE ( 'NONE', *, *, #262, .F. ) ;
#253 = ORIENTED_EDGE ( 'NONE', *, *, #77, .F. ) ;
#254 = CARTESIAN_POINT ( 'NONE',  ( 0.0000000000000000000, 0.0000000000000000000, 1.500000000000000222 ) ) ;
#255 = CYLINDRICAL_SURFACE ( 'NONE', #236, 0.06250000000000002776 ) ;
#256 = PRESENTATION_STYLE_ASSIGNMENT (( #30 ) ) ;
#257 = DIRECTION ( 'NONE',  ( -1.000000000000000000, 0.0000000000000000000, 0.0000000000000000000 ) ) ;
#258 = MECHANICAL_DESIGN_GEOMETRIC_PRESENTATION_REPRESENTATION (  '', ( #87 ), #164 ) ;
#259 = PLANE ( 'NONE',  #21 ) ;
#260 = LINE ( 'NONE', #173, #75 ) ;
#261 = MECHANICAL_DESIGN_GEOMETRIC_PRESENTATION_REPRESENTATION (  '', ( #201 ), #209 ) ;
#262 = EDGE_CURVE ( 'NONE', #85, #148, #114, .T. ) ;
#263 = CONICAL_SURFACE ( 'NONE', #183, 0.008991000000000002462, 0.1745329251994338915 ) ;
#264 = VECTOR ( 'NONE', #193, 39.37007874015747433 ) ;
#265 = ORIENTED_EDGE ( 'NONE', *, *, #291, .F. ) ;
#266 =( LENGTH_UNIT ( ) NAMED_UNIT ( * ) SI_UNIT ( $, .METRE. ) );
#267 = DIRECTION ( 'NONE',  ( -1.224646799147353700E-16, -0.0000000000000000000, -1.000000000000000000 ) ) ;
#268 = DIRECTION ( 'NONE',  ( 1.224646799147353700E-16, 0.0000000000000000000, 1.000000000000000000 ) ) ;
#269 = EDGE_LOOP ( 'NONE', ( #197, #290 ) ) ;
#270 = AXIS2_PLACEMENT_3D ( 'NONE', #288, #171, #81 ) ;
#271 = DIRECTION ( 'NONE',  ( 0.0000000000000000000, 0.0000000000000000000, -1.000000000000000000 ) ) ;
#272 = FACE_OUTER_BOUND ( 'NONE', #153, .T. ) ;
#273 = ADVANCED_FACE ( 'NONE', ( #216 ), #102, .T. ) ;
#274 = DIRECTION ( 'NONE',  ( -1.000000000000000000, 0.0000000000000000000, 1.224646799147353700E-16 ) ) ;
#275 = DIRECTION ( 'NONE',  ( -1.224646799147353700E-16, -0.0000000000000000000, -1.000000000000000000 ) ) ;
#276 = VECTOR ( 'NONE', #79, 39.37007874015748854 ) ;
#277 = SHAPE_DEFINITION_REPRESENTATION ( #119, #176 ) ;
#278 = CARTESIAN_POINT ( 'NONE',  ( 0.008991000000000005932, 0.0000000000000000000, 0.02699999999999999969 ) ) ;
#279 = DIRECTION ( 'NONE',  ( -1.224646799147353700E-16, -0.0000000000000000000, -1.000000000000000000 ) ) ;
#280 = EDGE_CURVE ( 'NONE', #88, #85, #242, .T. ) ;
#281 = LENGTH_MEASURE_WITH_UNIT ( LENGTH_MEASURE( 0.02539999999999999897 ), #132 );
#282 = EDGE_CURVE ( 'NONE', #244, #68, #120, .T. ) ;
#283 = PRODUCT_CONTEXT ( 'NONE', #15, 'mechanical' ) ;
#284 = CARTESIAN_POINT ( 'NONE',  ( 0.0000000000000000000, 0.0000000000000000000, 1.485000000000000764 ) ) ;
#285 = LINE ( 'NONE', #218, #276 ) ;
#286 = EDGE_CURVE ( 'NONE', #86, #148, #285, .T. ) ;
#287 = AXIS2_PLACEMENT_3D ( 'NONE', #190, #59, #35 ) ;
#288 = CARTESIAN_POINT ( 'NONE',  ( 0.0000000000000000000, 0.0000000000000000000, 1.500000000000000222 ) ) ;
#289 = FACE_OUTER_BOUND ( 'NONE', #63, .T. ) ;
#290 = ORIENTED_EDGE ( 'NONE', *, *, #251, .T. ) ;
#291 = EDGE_CURVE ( 'NONE', #148, #85, #67, .T. ) ;
#292 = CONICAL_SURFACE ( 'NONE', #158, 0.04750000000000064587, 0.7853981633974466137 ) ;
#293 = FILL_AREA_STYLE ('',( #48 ) ) ;
#294 = DIRECTION ( 'NONE',  ( -1.224646799147353700E-16, -0.0000000000000000000, -1.000000000000000000 ) ) ;
#295 = ADVANCED_FACE ( 'NONE', ( #289 ), #103, .T. ) ;
#296 = VECTOR ( 'NONE', #137, 39.37007874015748143 ) ;
#297 = COLOUR_RGB ( '',0.7921568627450980005, 0.8196078431372548767, 0.9333333333333333481 ) ;
#298 = ORIENTED_EDGE ( 'NONE', *, *, #251, .F. ) ;
#299 = EDGE_CURVE ( 'NONE', #172, #244, #260, .T. ) ;
ENDSEC;
END-ISO-10303-21;
