ISO-10303-21;
HEADER;
FILE_DESCRIPTION (( 'STEP AP214' ),
    '1' );
FILE_NAME ('Micro_GEM-500-2.STEP',
    '2021-09-01T20:44:58',
    ( '' ),
    ( '' ),
    'SwSTEP 2.0',
    'SolidWorks 2020',
    '' );
FILE_SCHEMA (( 'AUTOMOTIVE_DESIGN' ));
ENDSEC;

DATA;
#1 = FILL_AREA_STYLE ('',( #90 ) ) ;
#2 = CIRCLE ( 'NONE', #162, 0.2497499999999999998 ) ;
#3 = CIRCLE ( 'NONE', #164, 0.2497499999999999998 ) ;
#4 = DIRECTION ( 'NONE',  ( -1.000000000000000000, 0.0000000000000000000, 1.224646799147353700E-16 ) ) ;
#5 = DIRECTION ( 'NONE',  ( -0.1736481776669312194, 2.126576849575783625E-17, 0.9848077530122080203 ) ) ;
#6 = EDGE_CURVE ( 'NONE', #215, #197, #218, .T. ) ;
#7 = CARTESIAN_POINT ( 'NONE',  ( 0.2500000000000001110, 3.061616997868383634E-17, 1.001417820454904462 ) ) ;
#8 =( CONVERSION_BASED_UNIT ( 'INCH', #284 ) LENGTH_UNIT ( ) NAMED_UNIT ( #56 ) );
#9 = CIRCLE ( 'NONE', #53, 0.2500000000000000000 ) ;
#10 = FILL_AREA_STYLE ('',( #259 ) ) ;
#11 = ORIENTED_EDGE ( 'NONE', *, *, #198, .T. ) ;
#12 = LINE ( 'NONE', #289, #178 ) ;
#13 = EDGE_CURVE ( 'NONE', #108, #140, #82, .T. ) ;
#14 = EDGE_LOOP ( 'NONE', ( #77, #266, #35, #118 ) ) ;
#15 = ADVANCED_BREP_SHAPE_REPRESENTATION ( 'Micro_GEM-500-2', ( #231, #209 ), #80 ) ;
#16 = VECTOR ( 'NONE', #193, 39.37007874015748143 ) ;
#17 = CIRCLE ( 'NONE', #104, 0.2350000000000011524 ) ;
#18 = APPLICATION_CONTEXT ( 'automotive_design' ) ;
#19 = CARTESIAN_POINT ( 'NONE',  ( 0.0000000000000000000, 0.0000000000000000000, 3.000000000000000444 ) ) ;
#20 = DIRECTION ( 'NONE',  ( -1.000000000000000000, 0.0000000000000000000, 1.224646799147353700E-16 ) ) ;
#21 = DIRECTION ( 'NONE',  ( -1.224646799147353454E-16, -0.0000000000000000000, -1.000000000000000000 ) ) ;
#22 = DIRECTION ( 'NONE',  ( 1.000000000000000000, 0.0000000000000000000, 0.0000000000000000000 ) ) ;
#23 = ORIENTED_EDGE ( 'NONE', *, *, #97, .F. ) ;
#24 = PRODUCT_CONTEXT ( 'NONE', #268, 'mechanical' ) ;
#25 = DIRECTION ( 'NONE',  ( -1.224646799147353454E-16, -0.0000000000000000000, -1.000000000000000000 ) ) ;
#26 = VECTOR ( 'NONE', #177, 39.37007874015748854 ) ;
#27 = PRESENTATION_STYLE_ASSIGNMENT (( #134 ) ) ;
#28 = ADVANCED_FACE ( 'NONE', ( #273 ), #128, .F. ) ;
#29 = CARTESIAN_POINT ( 'NONE',  ( -0.2499999999999998612, 0.0000000000000000000, 1.001417820454904462 ) ) ;
#30 =( NAMED_UNIT ( * ) SI_UNIT ( $, .STERADIAN. ) SOLID_ANGLE_UNIT ( ) );
#31 = CONICAL_SURFACE ( 'NONE', #275, 0.2350000000000011524, 0.7853981633974380649 ) ;
#32 = EDGE_LOOP ( 'NONE', ( #185, #75, #247, #184 ) ) ;
#33 = MECHANICAL_DESIGN_GEOMETRIC_PRESENTATION_REPRESENTATION (  '', ( #261 ), #242 ) ;
#34 = SURFACE_STYLE_USAGE ( .BOTH. , #142 ) ;
#35 = ORIENTED_EDGE ( 'NONE', *, *, #148, .T. ) ;
#36 =( NAMED_UNIT ( * ) PLANE_ANGLE_UNIT ( ) SI_UNIT ( $, .RADIAN. ) );
#37 = ORIENTED_EDGE ( 'NONE', *, *, #196, .T. ) ;
#38 = DIRECTION ( 'NONE',  ( -1.000000000000000000, 0.0000000000000000000, 0.0000000000000000000 ) ) ;
#39 = CARTESIAN_POINT ( 'NONE',  ( 1.226383128429217700E-16, 0.0000000000000000000, 1.001417820454904462 ) ) ;
#40 = CARTESIAN_POINT ( 'NONE',  ( 1.224646799147353454E-16, 0.0000000000000000000, 1.000000000000000000 ) ) ;
#41 = PRESENTATION_LAYER_ASSIGNMENT (  '', '', ( #100 ) ) ;
#42 = LINE ( 'NONE', #249, #158 ) ;
#43 = VERTEX_POINT ( 'NONE', #219 ) ;
#44 =( NAMED_UNIT ( * ) SI_UNIT ( $, .STERADIAN. ) SOLID_ANGLE_UNIT ( ) );
#45 = PLANE ( 'NONE',  #71 ) ;
#46 = ADVANCED_FACE ( 'NONE', ( #243 ), #216, .T. ) ;
#47 = COLOUR_RGB ( '',0.7921568627450980005, 0.8196078431372548767, 0.9333333333333333481 ) ;
#48 = DIRECTION ( 'NONE',  ( 1.224646799147353454E-16, 0.0000000000000000000, 1.000000000000000000 ) ) ;
#49 = CARTESIAN_POINT ( 'NONE',  ( 0.2497500000000001386, 0.0000000000000000000, 1.000000000000000000 ) ) ;
#50 = ADVANCED_FACE ( 'NONE', ( #174 ), #221, .T. ) ;
#51 = CARTESIAN_POINT ( 'NONE',  ( 0.0000000000000000000, 0.0000000000000000000, 3.000000000000000444 ) ) ;
#52 = CARTESIAN_POINT ( 'NONE',  ( -0.2497499999999999998, 0.0000000000000000000, 6.117110761741031132E-17 ) ) ;
#53 = AXIS2_PLACEMENT_3D ( 'NONE', #68, #89, #282 ) ;
#54 = CARTESIAN_POINT ( 'NONE',  ( 0.0000000000000000000, 0.0000000000000000000, 3.000000000000000444 ) ) ;
#55 = DIRECTION ( 'NONE',  ( -1.224646799147353454E-16, -0.0000000000000000000, -1.000000000000000000 ) ) ;
#56 = DIMENSIONAL_EXPONENTS ( 1.000000000000000000, 0.0000000000000000000, 0.0000000000000000000, 0.0000000000000000000, 0.0000000000000000000, 0.0000000000000000000, 0.0000000000000000000 ) ;
#57 = DIRECTION ( 'NONE',  ( -1.000000000000000000, 0.0000000000000000000, 0.0000000000000000000 ) ) ;
#58 = FACE_OUTER_BOUND ( 'NONE', #32, .T. ) ;
#59 = DIRECTION ( 'NONE',  ( 0.0000000000000000000, 0.0000000000000000000, -1.000000000000000000 ) ) ;
#60 = ORIENTED_EDGE ( 'NONE', *, *, #6, .F. ) ;
#61 = EDGE_CURVE ( 'NONE', #197, #237, #212, .T. ) ;
#62 = ORIENTED_EDGE ( 'NONE', *, *, #97, .T. ) ;
#63 = EDGE_LOOP ( 'NONE', ( #11, #293, #290, #60 ) ) ;
#64 = EDGE_LOOP ( 'NONE', ( #286, #105, #62, #78 ) ) ;
#65 = DIRECTION ( 'NONE',  ( 1.000000000000000000, 0.0000000000000000000, -0.0000000000000000000 ) ) ;
#66 = ORIENTED_EDGE ( 'NONE', *, *, #116, .T. ) ;
#67 = CARTESIAN_POINT ( 'NONE',  ( 0.0000000000000000000, 0.0000000000000000000, 0.0000000000000000000 ) ) ;
#68 = CARTESIAN_POINT ( 'NONE',  ( 0.0000000000000000000, 0.0000000000000000000, 2.985000000000001208 ) ) ;
#69 = CARTESIAN_POINT ( 'NONE',  ( 1.224646799147353454E-16, 0.0000000000000000000, 1.000000000000000000 ) ) ;
#70 = FACE_OUTER_BOUND ( 'NONE', #64, .T. ) ;
#71 = AXIS2_PLACEMENT_3D ( 'NONE', #19, #192, #65 ) ;
#72 = DIRECTION ( 'NONE',  ( 0.1736481776669314137, 0.0000000000000000000, 0.9848077530122077983 ) ) ;
#73 = CARTESIAN_POINT ( 'NONE',  ( 1.224646799147353454E-16, 0.0000000000000000000, 1.000000000000000000 ) ) ;
#74 = DIRECTION ( 'NONE',  ( -1.224646799147353454E-16, -0.0000000000000000000, -1.000000000000000000 ) ) ;
#75 = ORIENTED_EDGE ( 'NONE', *, *, #13, .T. ) ;
#76 = PRODUCT_RELATED_PRODUCT_CATEGORY ( 'part', '', ( #93 ) ) ;
#77 = ORIENTED_EDGE ( 'NONE', *, *, #198, .F. ) ;
#78 = ORIENTED_EDGE ( 'NONE', *, *, #258, .F. ) ;
#79 = AXIS2_PLACEMENT_3D ( 'NONE', #179, #228, #4 ) ;
#80 =( GEOMETRIC_REPRESENTATION_CONTEXT ( 3 ) GLOBAL_UNCERTAINTY_ASSIGNED_CONTEXT ( ( #223 ) ) GLOBAL_UNIT_ASSIGNED_CONTEXT ( ( #8, #36, #141 ) ) REPRESENTATION_CONTEXT ( 'NONE', 'WORKASPACE' ) );
#81 = DIRECTION ( 'NONE',  ( 1.000000000000000000, 0.0000000000000000000, 0.0000000000000000000 ) ) ;
#82 = LINE ( 'NONE', #294, #91 ) ;
#83 = DIRECTION ( 'NONE',  ( 1.224646799147353454E-16, 0.0000000000000000000, 1.000000000000000000 ) ) ;
#84 = AXIS2_PLACEMENT_3D ( 'NONE', #298, #130, #156 ) ;
#85 = CARTESIAN_POINT ( 'NONE',  ( 3.745650057197990990E-33, 0.0000000000000000000, 3.058555380870515566E-17 ) ) ;
#86 = DIRECTION ( 'NONE',  ( -1.224646799147353454E-16, -0.0000000000000000000, -1.000000000000000000 ) ) ;
#87 = SURFACE_SIDE_STYLE ('',( #160 ) ) ;
#88 = LENGTH_MEASURE_WITH_UNIT ( LENGTH_MEASURE( 0.02539999999999999897 ), #256 );
#89 = DIRECTION ( 'NONE',  ( 0.0000000000000000000, 0.0000000000000000000, -1.000000000000000000 ) ) ;
#90 = FILL_AREA_STYLE_COLOUR ( '', #47 ) ;
#91 = VECTOR ( 'NONE', #277, 39.37007874015748143 ) ;
#92 = FACE_OUTER_BOUND ( 'NONE', #120, .T. ) ;
#93 = PRODUCT ( 'Micro_GEM-500-2', 'Micro_GEM-500-2', '', ( #24 ) ) ;
#94 = EDGE_CURVE ( 'NONE', #237, #197, #2, .T. ) ;
#95 = ORIENTED_EDGE ( 'NONE', *, *, #107, .F. ) ;
#96 =( CONVERSION_BASED_UNIT ( 'INCH', #166 ) LENGTH_UNIT ( ) NAMED_UNIT ( #203 ) );
#97 = EDGE_CURVE ( 'NONE', #211, #43, #276, .T. ) ;
#98 =( NAMED_UNIT ( * ) PLANE_ANGLE_UNIT ( ) SI_UNIT ( $, .RADIAN. ) );
#99 = ORIENTED_EDGE ( 'NONE', *, *, #107, .T. ) ;
#100 = STYLED_ITEM ( 'NONE', ( #121 ), #15 ) ;
#101 = ADVANCED_FACE ( 'NONE', ( #145 ), #45, .T. ) ;
#102 = ORIENTED_EDGE ( 'NONE', *, *, #6, .T. ) ;
#103 = AXIS2_PLACEMENT_3D ( 'NONE', #85, #86, #20 ) ;
#104 = AXIS2_PLACEMENT_3D ( 'NONE', #51, #199, #132 ) ;
#105 = ORIENTED_EDGE ( 'NONE', *, *, #206, .F. ) ;
#106 = DIRECTION ( 'NONE',  ( -1.224646799147353454E-16, -0.0000000000000000000, -1.000000000000000000 ) ) ;
#107 = EDGE_CURVE ( 'NONE', #140, #165, #133, .T. ) ;
#108 = VERTEX_POINT ( 'NONE', #123 ) ;
#109 = CONICAL_SURFACE ( 'NONE', #208, 0.2350000000000011524, 0.7853981633974380649 ) ;
#110 = DIRECTION ( 'NONE',  ( -1.000000000000000000, 0.0000000000000000000, 1.224646799147353700E-16 ) ) ;
#111 = CARTESIAN_POINT ( 'NONE',  ( 1.226383128429217700E-16, 0.0000000000000000000, 1.001417820454904462 ) ) ;
#112 = DIRECTION ( 'NONE',  ( -1.000000000000000000, 0.0000000000000000000, 0.0000000000000000000 ) ) ;
#113 = CONICAL_SURFACE ( 'NONE', #288, 0.2497499999999999998, 0.1745329251994339192 ) ;
#114 = PRODUCT_DEFINITION_FORMATION_WITH_SPECIFIED_SOURCE ( 'ANY', '', #93, .NOT_KNOWN. ) ;
#115 = FACE_OUTER_BOUND ( 'NONE', #296, .T. ) ;
#116 = EDGE_CURVE ( 'NONE', #43, #165, #42, .T. ) ;
#117 = AXIS2_PLACEMENT_3D ( 'NONE', #257, #168, #163 ) ;
#118 = ORIENTED_EDGE ( 'NONE', *, *, #274, .F. ) ;
#119 = ORIENTED_EDGE ( 'NONE', *, *, #61, .T. ) ;
#120 = EDGE_LOOP ( 'NONE', ( #171, #152, #210, #99 ) ) ;
#121 = PRESENTATION_STYLE_ASSIGNMENT (( #34 ) ) ;
#122 = CYLINDRICAL_SURFACE ( 'NONE', #270, 0.2500000000000000000 ) ;
#123 = CARTESIAN_POINT ( 'NONE',  ( 0.2500000000000000000, 3.061616997868382402E-17, 2.985000000000001208 ) ) ;
#124 = ORIENTED_EDGE ( 'NONE', *, *, #206, .T. ) ;
#125 = AXIS2_PLACEMENT_3D ( 'NONE', #67, #194, #191 ) ;
#126 = CIRCLE ( 'NONE', #137, 0.2500000000000000000 ) ;
#127 = ORIENTED_EDGE ( 'NONE', *, *, #94, .T. ) ;
#128 = PLANE ( 'NONE',  #125 ) ;
#129 = DIRECTION ( 'NONE',  ( -0.0000000000000000000, -0.0000000000000000000, -1.000000000000000000 ) ) ;
#130 = DIRECTION ( 'NONE',  ( 0.0000000000000000000, 0.0000000000000000000, 1.000000000000000000 ) ) ;
#131 = CARTESIAN_POINT ( 'NONE',  ( 1.224646799147353454E-16, 0.0000000000000000000, 1.000000000000000000 ) ) ;
#132 = DIRECTION ( 'NONE',  ( 1.000000000000000000, 0.0000000000000000000, 0.0000000000000000000 ) ) ;
#133 = CIRCLE ( 'NONE', #169, 0.2500000000000000000 ) ;
#134 = SURFACE_STYLE_USAGE ( .BOTH. , #87 ) ;
#135 = FACE_OUTER_BOUND ( 'NONE', #63, .T. ) ;
#136 = EDGE_LOOP ( 'NONE', ( #269, #263, #102, #167 ) ) ;
#137 = AXIS2_PLACEMENT_3D ( 'NONE', #139, #59, #161 ) ;
#138 = ADVANCED_FACE ( 'NONE', ( #135 ), #207, .T. ) ;
#139 = CARTESIAN_POINT ( 'NONE',  ( 0.0000000000000000000, 0.0000000000000000000, 2.985000000000001208 ) ) ;
#140 = VERTEX_POINT ( 'NONE', #7 ) ;
#141 =( NAMED_UNIT ( * ) SI_UNIT ( $, .STERADIAN. ) SOLID_ANGLE_UNIT ( ) );
#142 = SURFACE_SIDE_STYLE ('',( #236 ) ) ;
#143 = CLOSED_SHELL ( 'NONE', ( #138, #46, #189, #255, #233, #101, #181, #146, #50, #28 ) ) ;
#144 = AXIS2_PLACEMENT_3D ( 'NONE', #73, #74, #57 ) ;
#145 = FACE_OUTER_BOUND ( 'NONE', #292, .T. ) ;
#146 = ADVANCED_FACE ( 'NONE', ( #92 ), #113, .T. ) ;
#147 = ORIENTED_EDGE ( 'NONE', *, *, #258, .T. ) ;
#148 = EDGE_CURVE ( 'NONE', #165, #140, #202, .T. ) ;
#149 = DIRECTION ( 'NONE',  ( -1.224646799147353454E-16, -0.0000000000000000000, -1.000000000000000000 ) ) ;
#150 = AXIS2_PLACEMENT_3D ( 'NONE', #40, #83, #81 ) ;
#151 = EDGE_CURVE ( 'NONE', #173, #108, #180, .T. ) ;
#152 = ORIENTED_EDGE ( 'NONE', *, *, #239, .F. ) ;
#153 = DIRECTION ( 'NONE',  ( -1.000000000000000000, 0.0000000000000000000, 1.224646799147353700E-16 ) ) ;
#154 = DIRECTION ( 'NONE',  ( -1.000000000000000000, 0.0000000000000000000, 0.0000000000000000000 ) ) ;
#155 =( CONVERSION_BASED_UNIT ( 'INCH', #88 ) LENGTH_UNIT ( ) NAMED_UNIT ( #230 ) );
#156 = DIRECTION ( 'NONE',  ( 1.000000000000000000, 0.0000000000000000000, 0.0000000000000000000 ) ) ;
#157 = DIRECTION ( 'NONE',  ( -1.224646799147353454E-16, -0.0000000000000000000, -1.000000000000000000 ) ) ;
#158 = VECTOR ( 'NONE', #129, 39.37007874015748143 ) ;
#159 = PRESENTATION_LAYER_ASSIGNMENT (  '', '', ( #261 ) ) ;
#160 = SURFACE_STYLE_FILL_AREA ( #1 ) ;
#161 = DIRECTION ( 'NONE',  ( 1.000000000000000000, 0.0000000000000000000, 0.0000000000000000000 ) ) ;
#162 = AXIS2_PLACEMENT_3D ( 'NONE', #172, #106, #153 ) ;
#163 = DIRECTION ( 'NONE',  ( -1.000000000000000000, 0.0000000000000000000, 0.0000000000000000000 ) ) ;
#164 = AXIS2_PLACEMENT_3D ( 'NONE', #69, #25, #227 ) ;
#165 = VERTEX_POINT ( 'NONE', #29 ) ;
#166 = LENGTH_MEASURE_WITH_UNIT ( LENGTH_MEASURE( 0.02539999999999999897 ), #187 );
#167 = ORIENTED_EDGE ( 'NONE', *, *, #94, .F. ) ;
#168 = DIRECTION ( 'NONE',  ( -0.0000000000000000000, -0.0000000000000000000, -1.000000000000000000 ) ) ;
#169 = AXIS2_PLACEMENT_3D ( 'NONE', #39, #149, #246 ) ;
#170 = VECTOR ( 'NONE', #5, 39.37007874015747433 ) ;
#171 = ORIENTED_EDGE ( 'NONE', *, *, #200, .F. ) ;
#172 = CARTESIAN_POINT ( 'NONE',  ( 3.745650057197990990E-33, 0.0000000000000000000, 3.058555380870515566E-17 ) ) ;
#173 = VERTEX_POINT ( 'NONE', #182 ) ;
#174 = FACE_OUTER_BOUND ( 'NONE', #136, .T. ) ;
#175 = DIRECTION ( 'NONE',  ( -0.7071067811865402453, 0.0000000000000000000, -0.7071067811865546782 ) ) ;
#176 = CARTESIAN_POINT ( 'NONE',  ( -0.2350000000000011524, 0.0000000000000000000, 3.000000000000000444 ) ) ;
#177 = DIRECTION ( 'NONE',  ( 0.7071067811865402453, 8.659560562354845344E-17, -0.7071067811865546782 ) ) ;
#178 = VECTOR ( 'NONE', #55, 39.37007874015748143 ) ;
#179 = CARTESIAN_POINT ( 'NONE',  ( 0.0000000000000000000, 0.0000000000000000000, 0.0000000000000000000 ) ) ;
#180 = LINE ( 'NONE', #281, #26 ) ;
#181 = ADVANCED_FACE ( 'NONE', ( #70 ), #31, .T. ) ;
#182 = CARTESIAN_POINT ( 'NONE',  ( 0.2350000000000011524, 2.969768487932338510E-17, 3.000000000000000444 ) ) ;
#183 = LINE ( 'NONE', #265, #254 ) ;
#184 = ORIENTED_EDGE ( 'NONE', *, *, #116, .F. ) ;
#185 = ORIENTED_EDGE ( 'NONE', *, *, #186, .T. ) ;
#186 = EDGE_CURVE ( 'NONE', #43, #108, #9, .T. ) ;
#187 =( LENGTH_UNIT ( ) NAMED_UNIT ( * ) SI_UNIT ( $, .METRE. ) );
#188 = VERTEX_POINT ( 'NONE', #49 ) ;
#189 = ADVANCED_FACE ( 'NONE', ( #115 ), #109, .T. ) ;
#190 = CIRCLE ( 'NONE', #84, 0.2350000000000011524 ) ;
#191 = DIRECTION ( 'NONE',  ( 1.000000000000000000, 0.0000000000000000000, -0.0000000000000000000 ) ) ;
#192 = DIRECTION ( 'NONE',  ( 0.0000000000000000000, 0.0000000000000000000, 1.000000000000000000 ) ) ;
#193 = DIRECTION ( 'NONE',  ( -1.224646799147353454E-16, -0.0000000000000000000, -1.000000000000000000 ) ) ;
#194 = DIRECTION ( 'NONE',  ( 0.0000000000000000000, 0.0000000000000000000, 1.000000000000000000 ) ) ;
#195 = AXIS2_PLACEMENT_3D ( 'NONE', #111, #157, #283 ) ;
#196 = EDGE_CURVE ( 'NONE', #173, #211, #190, .T. ) ;
#197 = VERTEX_POINT ( 'NONE', #52 ) ;
#198 = EDGE_CURVE ( 'NONE', #215, #188, #3, .T. ) ;
#199 = DIRECTION ( 'NONE',  ( 0.0000000000000000000, 0.0000000000000000000, 1.000000000000000000 ) ) ;
#200 = EDGE_CURVE ( 'NONE', #215, #165, #251, .T. ) ;
#201 = CARTESIAN_POINT ( 'NONE',  ( -0.2497499999999998888, 3.060086189369449292E-17, 1.000000000000000000 ) ) ;
#202 = CIRCLE ( 'NONE', #195, 0.2500000000000000000 ) ;
#203 = DIMENSIONAL_EXPONENTS ( 1.000000000000000000, 0.0000000000000000000, 0.0000000000000000000, 0.0000000000000000000, 0.0000000000000000000, 0.0000000000000000000, 0.0000000000000000000 ) ;
#204 = MECHANICAL_DESIGN_GEOMETRIC_PRESENTATION_REPRESENTATION (  '', ( #100 ), #245 ) ;
#205 =( NAMED_UNIT ( * ) PLANE_ANGLE_UNIT ( ) SI_UNIT ( $, .RADIAN. ) );
#206 = EDGE_CURVE ( 'NONE', #211, #173, #17, .T. ) ;
#207 = CYLINDRICAL_SURFACE ( 'NONE', #79, 0.2497499999999999998 ) ;
#208 = AXIS2_PLACEMENT_3D ( 'NONE', #54, #253, #154 ) ;
#209 = AXIS2_PLACEMENT_3D ( 'NONE', #222, #220, #22 ) ;
#210 = ORIENTED_EDGE ( 'NONE', *, *, #274, .T. ) ;
#211 = VERTEX_POINT ( 'NONE', #225 ) ;
#212 = CIRCLE ( 'NONE', #103, 0.2497499999999999998 ) ;
#213 = COLOUR_RGB ( '',0.7921568627450980005, 0.8196078431372548767, 0.9333333333333333481 ) ;
#214 = CARTESIAN_POINT ( 'NONE',  ( 0.0000000000000000000, 0.0000000000000000000, 3.000000000000000444 ) ) ;
#215 = VERTEX_POINT ( 'NONE', #201 ) ;
#216 = CONICAL_SURFACE ( 'NONE', #150, 0.2497499999999999998, 0.1745329251994339192 ) ;
#217 = ORIENTED_EDGE ( 'NONE', *, *, #151, .T. ) ;
#218 = LINE ( 'NONE', #244, #16 ) ;
#219 = CARTESIAN_POINT ( 'NONE',  ( -0.2500000000000000000, 0.0000000000000000000, 2.985000000000001208 ) ) ;
#220 = DIRECTION ( 'NONE',  ( 0.0000000000000000000, 0.0000000000000000000, 1.000000000000000000 ) ) ;
#221 = CYLINDRICAL_SURFACE ( 'NONE', #234, 0.2497499999999999998 ) ;
#222 = CARTESIAN_POINT ( 'NONE',  ( 0.0000000000000000000, 0.0000000000000000000, 0.0000000000000000000 ) ) ;
#223 = UNCERTAINTY_MEASURE_WITH_UNIT (LENGTH_MEASURE( 1.000000000000000082E-05 ), #8, 'distance_accuracy_value', 'NONE');
#224 = DIRECTION ( 'NONE',  ( 1.000000000000000000, 0.0000000000000000000, 0.0000000000000000000 ) ) ;
#225 = CARTESIAN_POINT ( 'NONE',  ( -0.2350000000000011524, 0.0000000000000000000, 3.000000000000000444 ) ) ;
#226 = UNCERTAINTY_MEASURE_WITH_UNIT (LENGTH_MEASURE( 1.000000000000000082E-05 ), #155, 'distance_accuracy_value', 'NONE');
#227 = DIRECTION ( 'NONE',  ( -1.000000000000000000, 0.0000000000000000000, 0.0000000000000000000 ) ) ;
#228 = DIRECTION ( 'NONE',  ( -1.224646799147353454E-16, -0.0000000000000000000, -1.000000000000000000 ) ) ;
#229 = PRODUCT_DEFINITION_SHAPE ( 'NONE', 'NONE',  #248 ) ;
#230 = DIMENSIONAL_EXPONENTS ( 1.000000000000000000, 0.0000000000000000000, 0.0000000000000000000, 0.0000000000000000000, 0.0000000000000000000, 0.0000000000000000000, 0.0000000000000000000 ) ;
#231 = MANIFOLD_SOLID_BREP ( 'Cut-Revolve1', #143 ) ;
#232 =( LENGTH_UNIT ( ) NAMED_UNIT ( * ) SI_UNIT ( $, .METRE. ) );
#233 = ADVANCED_FACE ( 'NONE', ( #238 ), #250, .T. ) ;
#234 = AXIS2_PLACEMENT_3D ( 'NONE', #295, #21, #110 ) ;
#235 = CIRCLE ( 'NONE', #144, 0.2497499999999999998 ) ;
#236 = SURFACE_STYLE_FILL_AREA ( #10 ) ;
#237 = VERTEX_POINT ( 'NONE', #262 ) ;
#238 = FACE_OUTER_BOUND ( 'NONE', #241, .T. ) ;
#239 = EDGE_CURVE ( 'NONE', #188, #215, #235, .T. ) ;
#240 = DIRECTION ( 'NONE',  ( -0.0000000000000000000, -0.0000000000000000000, -1.000000000000000000 ) ) ;
#241 = EDGE_LOOP ( 'NONE', ( #260, #147, #66, #95 ) ) ;
#242 =( GEOMETRIC_REPRESENTATION_CONTEXT ( 3 ) GLOBAL_UNCERTAINTY_ASSIGNED_CONTEXT ( ( #226 ) ) GLOBAL_UNIT_ASSIGNED_CONTEXT ( ( #155, #205, #30 ) ) REPRESENTATION_CONTEXT ( 'NONE', 'WORKASPACE' ) );
#243 = FACE_OUTER_BOUND ( 'NONE', #14, .T. ) ;
#244 = CARTESIAN_POINT ( 'NONE',  ( -0.2497499999999999998, 0.0000000000000000000, 3.058555380870515566E-17 ) ) ;
#245 =( GEOMETRIC_REPRESENTATION_CONTEXT ( 3 ) GLOBAL_UNCERTAINTY_ASSIGNED_CONTEXT ( ( #267 ) ) GLOBAL_UNIT_ASSIGNED_CONTEXT ( ( #96, #98, #44 ) ) REPRESENTATION_CONTEXT ( 'NONE', 'WORKASPACE' ) );
#246 = DIRECTION ( 'NONE',  ( 1.000000000000000000, 0.0000000000000000000, 0.0000000000000000000 ) ) ;
#247 = ORIENTED_EDGE ( 'NONE', *, *, #148, .F. ) ;
#248 = PRODUCT_DEFINITION ( 'UNKNOWN', '', #114, #279 ) ;
#249 = CARTESIAN_POINT ( 'NONE',  ( -0.2500000000000000000, 0.0000000000000000000, 3.000000000000000444 ) ) ;
#250 = CYLINDRICAL_SURFACE ( 'NONE', #117, 0.2500000000000000000 ) ;
#251 = LINE ( 'NONE', #252, #170 ) ;
#252 = CARTESIAN_POINT ( 'NONE',  ( -0.2497499999999998888, 3.058555380870514950E-17, 1.000000000000000000 ) ) ;
#253 = DIRECTION ( 'NONE',  ( 0.0000000000000000000, 0.0000000000000000000, -1.000000000000000000 ) ) ;
#254 = VECTOR ( 'NONE', #72, 39.37007874015748143 ) ;
#255 = ADVANCED_FACE ( 'NONE', ( #58 ), #122, .T. ) ;
#256 =( LENGTH_UNIT ( ) NAMED_UNIT ( * ) SI_UNIT ( $, .METRE. ) );
#257 = CARTESIAN_POINT ( 'NONE',  ( 0.0000000000000000000, 0.0000000000000000000, 3.000000000000000444 ) ) ;
#258 = EDGE_CURVE ( 'NONE', #108, #43, #126, .T. ) ;
#259 = FILL_AREA_STYLE_COLOUR ( '', #213 ) ;
#260 = ORIENTED_EDGE ( 'NONE', *, *, #13, .F. ) ;
#261 = STYLED_ITEM ( 'NONE', ( #27 ), #231 ) ;
#262 = CARTESIAN_POINT ( 'NONE',  ( 0.2497499999999999998, 3.058555380870514950E-17, 0.0000000000000000000 ) ) ;
#263 = ORIENTED_EDGE ( 'NONE', *, *, #239, .T. ) ;
#264 = EDGE_CURVE ( 'NONE', #188, #237, #12, .T. ) ;
#265 = CARTESIAN_POINT ( 'NONE',  ( 0.2497500000000001386, 0.0000000000000000000, 1.000000000000000000 ) ) ;
#266 = ORIENTED_EDGE ( 'NONE', *, *, #200, .T. ) ;
#267 = UNCERTAINTY_MEASURE_WITH_UNIT (LENGTH_MEASURE( 1.000000000000000082E-05 ), #96, 'distance_accuracy_value', 'NONE');
#268 = APPLICATION_CONTEXT ( 'automotive_design' ) ;
#269 = ORIENTED_EDGE ( 'NONE', *, *, #264, .F. ) ;
#270 = AXIS2_PLACEMENT_3D ( 'NONE', #214, #240, #38 ) ;
#271 = ORIENTED_EDGE ( 'NONE', *, *, #196, .F. ) ;
#272 = EDGE_LOOP ( 'NONE', ( #119, #127 ) ) ;
#273 = FACE_OUTER_BOUND ( 'NONE', #272, .T. ) ;
#274 = EDGE_CURVE ( 'NONE', #188, #140, #183, .T. ) ;
#275 = AXIS2_PLACEMENT_3D ( 'NONE', #278, #280, #112 ) ;
#276 = LINE ( 'NONE', #176, #291 ) ;
#277 = DIRECTION ( 'NONE',  ( -0.0000000000000000000, -0.0000000000000000000, -1.000000000000000000 ) ) ;
#278 = CARTESIAN_POINT ( 'NONE',  ( 0.0000000000000000000, 0.0000000000000000000, 3.000000000000000444 ) ) ;
#279 = PRODUCT_DEFINITION_CONTEXT ( 'detailed design', #18, 'design' ) ;
#280 = DIRECTION ( 'NONE',  ( 0.0000000000000000000, 0.0000000000000000000, -1.000000000000000000 ) ) ;
#281 = CARTESIAN_POINT ( 'NONE',  ( 0.2350000000000011524, 2.877919977996294002E-17, 3.000000000000000444 ) ) ;
#282 = DIRECTION ( 'NONE',  ( 1.000000000000000000, 0.0000000000000000000, 0.0000000000000000000 ) ) ;
#283 = DIRECTION ( 'NONE',  ( 1.000000000000000000, 0.0000000000000000000, 0.0000000000000000000 ) ) ;
#284 = LENGTH_MEASURE_WITH_UNIT ( LENGTH_MEASURE( 0.02539999999999999897 ), #232 );
#285 = APPLICATION_PROTOCOL_DEFINITION ( 'draft international standard', 'automotive_design', 1998, #268 ) ;
#286 = ORIENTED_EDGE ( 'NONE', *, *, #151, .F. ) ;
#287 = ORIENTED_EDGE ( 'NONE', *, *, #186, .F. ) ;
#288 = AXIS2_PLACEMENT_3D ( 'NONE', #131, #48, #224 ) ;
#289 = CARTESIAN_POINT ( 'NONE',  ( 0.2497499999999999998, 3.058555380870514950E-17, -3.058555380870515566E-17 ) ) ;
#290 = ORIENTED_EDGE ( 'NONE', *, *, #61, .F. ) ;
#291 = VECTOR ( 'NONE', #175, 39.37007874015748854 ) ;
#292 = EDGE_LOOP ( 'NONE', ( #124, #37 ) ) ;
#293 = ORIENTED_EDGE ( 'NONE', *, *, #264, .T. ) ;
#294 = CARTESIAN_POINT ( 'NONE',  ( 0.2500000000000000000, 3.061616997868382402E-17, 3.000000000000000444 ) ) ;
#295 = CARTESIAN_POINT ( 'NONE',  ( 0.0000000000000000000, 0.0000000000000000000, 0.0000000000000000000 ) ) ;
#296 = EDGE_LOOP ( 'NONE', ( #271, #217, #287, #23 ) ) ;
#297 = SHAPE_DEFINITION_REPRESENTATION ( #229, #15 ) ;
#298 = CARTESIAN_POINT ( 'NONE',  ( 0.0000000000000000000, 0.0000000000000000000, 3.000000000000000444 ) ) ;
#299 = APPLICATION_PROTOCOL_DEFINITION ( 'draft international standard', 'automotive_design', 1998, #18 ) ;
ENDSEC;
END-ISO-10303-21;
