ISO-10303-21;
HEADER;
FILE_DESCRIPTION (( 'STEP AP214' ),
    '1' );
FILE_NAME ('84596.STEP',
    '2023-07-12T13:09:45',
    ( '' ),
    ( '' ),
    'SwSTEP 2.0',
    'SolidWorks 2023',
    '' );
FILE_SCHEMA (( 'AUTOMOTIVE_DESIGN' ));
ENDSEC;

DATA;
#1 = AXIS2_PLACEMENT_3D ( 'NONE', #93, #302, #188 ) ;
#2 =( NAMED_UNIT ( * ) SI_UNIT ( $, .STERADIAN. ) SOLID_ANGLE_UNIT ( ) );
#3 = CARTESIAN_POINT ( 'NONE',  ( 2.244059112742149073E-67, -7.490091976641790545E-35, 0.000000000000000000 ) ) ;
#4 = DIRECTION ( 'NONE',  ( -1.000000000000000000, -1.821231995776178930E-16, 0.000000000000000000 ) ) ;
#5 =( CONVERSION_BASED_UNIT ( 'INCH', #216 ) LENGTH_UNIT ( ) NAMED_UNIT ( #257 ) );
#6 = DIRECTION ( 'NONE',  ( -1.221677243039647880E-16, 1.000000000000000000, -0.000000000000000000 ) ) ;
#7 =( NAMED_UNIT ( * ) SI_UNIT ( $, .STERADIAN. ) SOLID_ANGLE_UNIT ( ) );
#8 = DIRECTION ( 'NONE',  ( -1.000000000000000000, 0.000000000000000000, 0.000000000000000000 ) ) ;
#9 = SURFACE_SIDE_STYLE ('',( #200 ) ) ;
#10 = ORIENTED_EDGE ( 'NONE', *, *, #68, .T. ) ;
#11 = CARTESIAN_POINT ( 'NONE',  ( 0.02500000000000000139, 0.000000000000000000, 7.271340369937408974E-18 ) ) ;
#12 = STYLED_ITEM ( 'NONE', ( #160 ), #182 ) ;
#13 =( LENGTH_UNIT ( ) NAMED_UNIT ( * ) SI_UNIT ( $, .METRE. ) );
#14 = VERTEX_POINT ( 'NONE', #113 ) ;
#15 = FILL_AREA_STYLE_COLOUR ( '', #99 ) ;
#16 = LENGTH_MEASURE_WITH_UNIT ( LENGTH_MEASURE( 0.02539999999999999897 ), #54 );
#17 = SURFACE_STYLE_USAGE ( .BOTH. , #9 ) ;
#18 = PRESENTATION_LAYER_ASSIGNMENT (  '', '', ( #12 ) ) ;
#19 = ORIENTED_EDGE ( 'NONE', *, *, #279, .T. ) ;
#20 = DIRECTION ( 'NONE',  ( -1.221677243039647880E-16, 1.000000000000000000, -0.000000000000000000 ) ) ;
#21 = ORIENTED_EDGE ( 'NONE', *, *, #106, .T. ) ;
#22 = ORIENTED_EDGE ( 'NONE', *, *, #227, .F. ) ;
#23 =( GEOMETRIC_REPRESENTATION_CONTEXT ( 3 ) GLOBAL_UNCERTAINTY_ASSIGNED_CONTEXT ( ( #153 ) ) GLOBAL_UNIT_ASSIGNED_CONTEXT ( ( #5, #290, #2 ) ) REPRESENTATION_CONTEXT ( 'NONE', 'WORKASPACE' ) );
#24 = EDGE_CURVE ( 'NONE', #180, #124, #50, .T. ) ;
#25 = APPLICATION_CONTEXT ( 'automotive_design' ) ;
#26 = PRESENTATION_LAYER_ASSIGNMENT (  '', '', ( #260 ) ) ;
#27 = ADVANCED_FACE ( 'NONE', ( #224 ), #107, .T. ) ;
#28 = LENGTH_MEASURE_WITH_UNIT ( LENGTH_MEASURE( 0.02539999999999999897 ), #281 );
#29 = CARTESIAN_POINT ( 'NONE',  ( -0.09375000000000012490, 2.000000000000000000, 0.000000000000000000 ) ) ;
#30 = AXIS2_PLACEMENT_3D ( 'NONE', #248, #207, #229 ) ;
#31 = SURFACE_STYLE_FILL_AREA ( #239 ) ;
#32 = DIRECTION ( 'NONE',  ( 1.000000000000000000, 0.000000000000000000, 0.000000000000000000 ) ) ;
#33 = ORIENTED_EDGE ( 'NONE', *, *, #220, .F. ) ;
#34 = DIRECTION ( 'NONE',  ( 2.996036790656715962E-33, -1.000000000000000000, -0.000000000000000000 ) ) ;
#35 = CARTESIAN_POINT ( 'NONE',  ( 2.244059112742149073E-67, -7.490091976641790545E-35, 0.000000000000000000 ) ) ;
#36 = CARTESIAN_POINT ( 'NONE',  ( -2.369500423704768587E-34, 0.07908782799644412109, 0.000000000000000000 ) ) ;
#37 = PRESENTATION_LAYER_ASSIGNMENT (  '', '', ( #303 ) ) ;
#38 = CARTESIAN_POINT ( 'NONE',  ( -0.09374999999999998612, 0.07908782799644412109, 0.000000000000000000 ) ) ;
#39 = EDGE_LOOP ( 'NONE', ( #121, #162, #86, #161 ) ) ;
#40 = DIRECTION ( 'NONE',  ( 1.221677243039647880E-16, -1.000000000000000000, 0.000000000000000000 ) ) ;
#41 = PLANE ( 'NONE',  #100 ) ;
#42 = AXIS2_PLACEMENT_3D ( 'NONE', #217, #6, #4 ) ;
#43 = PRODUCT_RELATED_PRODUCT_CATEGORY ( 'part', '', ( #192 ) ) ;
#44 = ORIENTED_EDGE ( 'NONE', *, *, #119, .F. ) ;
#45 = AXIS2_PLACEMENT_3D ( 'NONE', #275, #58, #61 ) ;
#46 = SURFACE_STYLE_FILL_AREA ( #301 ) ;
#47 = LINE ( 'NONE', #172, #136 ) ;
#48 = PRESENTATION_STYLE_ASSIGNMENT (( #110 ) ) ;
#49 = DIMENSIONAL_EXPONENTS ( 1.000000000000000000, 0.000000000000000000, 0.000000000000000000, 0.000000000000000000, 0.000000000000000000, 0.000000000000000000, 0.000000000000000000 ) ;
#50 = LINE ( 'NONE', #133, #94 ) ;
#51 = FACE_OUTER_BOUND ( 'NONE', #156, .T. ) ;
#52 = FILL_AREA_STYLE ('',( #15 ) ) ;
#53 = SURFACE_SIDE_STYLE ('',( #31 ) ) ;
#54 =( LENGTH_UNIT ( ) NAMED_UNIT ( * ) SI_UNIT ( $, .METRE. ) );
#55 = FACE_OUTER_BOUND ( 'NONE', #228, .T. ) ;
#56 = DIRECTION ( 'NONE',  ( -1.221677243039647880E-16, 1.000000000000000000, -0.000000000000000000 ) ) ;
#57 = EDGE_LOOP ( 'NONE', ( #33, #256 ) ) ;
#58 = DIRECTION ( 'NONE',  ( -1.221677243039647880E-16, 1.000000000000000000, -0.000000000000000000 ) ) ;
#59 =( NAMED_UNIT ( * ) PLANE_ANGLE_UNIT ( ) SI_UNIT ( $, .RADIAN. ) );
#60 = SHAPE_DEFINITION_REPRESENTATION ( #148, #197 ) ;
#61 = DIRECTION ( 'NONE',  ( -1.000000000000000000, 0.000000000000000000, 0.000000000000000000 ) ) ;
#62 =( GEOMETRIC_REPRESENTATION_CONTEXT ( 3 ) GLOBAL_UNCERTAINTY_ASSIGNED_CONTEXT ( ( #252 ) ) GLOBAL_UNIT_ASSIGNED_CONTEXT ( ( #206, #83, #7 ) ) REPRESENTATION_CONTEXT ( 'NONE', 'WORKASPACE' ) );
#63 = AXIS2_PLACEMENT_3D ( 'NONE', #273, #40, #276 ) ;
#64 = DIRECTION ( 'NONE',  ( -2.996036790656716304E-33, 1.000000000000000000, 0.000000000000000000 ) ) ;
#65 = VERTEX_POINT ( 'NONE', #96 ) ;
#66 = CIRCLE ( 'NONE', #150, 0.02500000000000000139 ) ;
#67 = AXIS2_PLACEMENT_3D ( 'NONE', #130, #34, #152 ) ;
#68 = EDGE_CURVE ( 'NONE', #65, #209, #259, .T. ) ;
#69 =( CONVERSION_BASED_UNIT ( 'INCH', #190 ) LENGTH_UNIT ( ) NAMED_UNIT ( #73 ) );
#70 = DIMENSIONAL_EXPONENTS ( 1.000000000000000000, 0.000000000000000000, 0.000000000000000000, 0.000000000000000000, 0.000000000000000000, 0.000000000000000000, 0.000000000000000000 ) ;
#71 = MANIFOLD_SOLID_BREP ( 'Revolve - Cutting Edge', #222 ) ;
#72 = FACE_OUTER_BOUND ( 'NONE', #39, .T. ) ;
#73 = DIMENSIONAL_EXPONENTS ( 1.000000000000000000, 0.000000000000000000, 0.000000000000000000, 0.000000000000000000, 0.000000000000000000, 0.000000000000000000, 0.000000000000000000 ) ;
#74 = SURFACE_SIDE_STYLE ('',( #214 ) ) ;
#75 = DIMENSIONAL_EXPONENTS ( 1.000000000000000000, 0.000000000000000000, 0.000000000000000000, 0.000000000000000000, 0.000000000000000000, 0.000000000000000000, 0.000000000000000000 ) ;
#76 = PLANE ( 'NONE',  #191 ) ;
#77 = CARTESIAN_POINT ( 'NONE',  ( -0.09374999999999965306, 0.07908782799644424599, 0.000000000000000000 ) ) ;
#78 = APPLICATION_PROTOCOL_DEFINITION ( 'draft international standard', 'automotive_design', 1998, #246 ) ;
#79 = LENGTH_MEASURE_WITH_UNIT ( LENGTH_MEASURE( 0.02539999999999999897 ), #270 );
#80 = COLOUR_RGB ( '',1.000000000000000000, 0.000000000000000000, 0.000000000000000000 ) ;
#81 = DIRECTION ( 'NONE',  ( -1.221677243039647880E-16, 1.000000000000000000, -0.000000000000000000 ) ) ;
#82 = FILL_AREA_STYLE ('',( #202 ) ) ;
#83 =( NAMED_UNIT ( * ) PLANE_ANGLE_UNIT ( ) SI_UNIT ( $, .RADIAN. ) );
#84 = APPLICATION_PROTOCOL_DEFINITION ( 'draft international standard', 'automotive_design', 1998, #25 ) ;
#85 = UNCERTAINTY_MEASURE_WITH_UNIT (LENGTH_MEASURE( 1.000000000000000082E-05 ), #149, 'distance_accuracy_value', 'NONE');
#86 = ORIENTED_EDGE ( 'NONE', *, *, #227, .T. ) ;
#87 =( LENGTH_UNIT ( ) NAMED_UNIT ( * ) SI_UNIT ( $, .METRE. ) );
#88 = ADVANCED_FACE ( 'NONE', ( #92 ), #232, .T. ) ;
#89 = COLOUR_RGB ( '',1.000000000000000000, 0.000000000000000000, 0.000000000000000000 ) ;
#90 = VERTEX_POINT ( 'NONE', #38 ) ;
#91 = PRESENTATION_STYLE_ASSIGNMENT (( #137 ) ) ;
#92 = FACE_OUTER_BOUND ( 'NONE', #233, .T. ) ;
#93 = CARTESIAN_POINT ( 'NONE',  ( 2.244059112742149073E-67, -7.490091976641790545E-35, 0.000000000000000000 ) ) ;
#94 = VECTOR ( 'NONE', #245, 39.37007874015748854 ) ;
#95 = STYLED_ITEM ( 'NONE', ( #103 ), #164 ) ;
#96 = CARTESIAN_POINT ( 'NONE',  ( 0.09374999999999998612, 0.07908782799644427375, 1.148106374200643555E-17 ) ) ;
#97 = ORIENTED_EDGE ( 'NONE', *, *, #169, .T. ) ;
#98 = ORIENTED_EDGE ( 'NONE', *, *, #158, .T. ) ;
#99 = COLOUR_RGB ( '',1.000000000000000000, 0.000000000000000000, 0.000000000000000000 ) ;
#100 = AXIS2_PLACEMENT_3D ( 'NONE', #109, #195, #287 ) ;
#101 = EDGE_CURVE ( 'NONE', #180, #306, #237, .T. ) ;
#102 = SURFACE_SIDE_STYLE ('',( #46 ) ) ;
#103 = PRESENTATION_STYLE_ASSIGNMENT (( #236 ) ) ;
#104 = DIRECTION ( 'NONE',  ( 2.996036790656716304E-33, -1.000000000000000000, -0.000000000000000000 ) ) ;
#105 = PRESENTATION_STYLE_ASSIGNMENT (( #309 ) ) ;
#106 = EDGE_CURVE ( 'NONE', #65, #14, #226, .T. ) ;
#107 = CONICAL_SURFACE ( 'NONE', #240, 0.02500000000000000139, 0.7155849933176767763 ) ;
#108 = CIRCLE ( 'NONE', #45, 0.09375000000000005551 ) ;
#109 = CARTESIAN_POINT ( 'NONE',  ( -2.369500423704768587E-34, 0.07908782799644412109, 0.000000000000000000 ) ) ;
#110 = SURFACE_STYLE_USAGE ( .BOTH. , #74 ) ;
#111 = DIRECTION ( 'NONE',  ( -1.221677243039647880E-16, 1.000000000000000000, 0.000000000000000000 ) ) ;
#112 = CARTESIAN_POINT ( 'NONE',  ( -6.123233995736763571E-17, 2.000000000000000000, 0.000000000000000000 ) ) ;
#113 = CARTESIAN_POINT ( 'NONE',  ( 0.09374999999999998612, 2.000000000000000000, 1.148106374200643555E-17 ) ) ;
#114 = FILL_AREA_STYLE ('',( #219 ) ) ;
#115 = VECTOR ( 'NONE', #292, 39.37007874015748143 ) ;
#116 = ORIENTED_EDGE ( 'NONE', *, *, #24, .T. ) ;
#117 = CIRCLE ( 'NONE', #30, 0.09375000000000005551 ) ;
#118 = FACE_OUTER_BOUND ( 'NONE', #57, .T. ) ;
#119 = EDGE_CURVE ( 'NONE', #14, #167, #117, .T. ) ;
#120 = STYLED_ITEM ( 'NONE', ( #203 ), #27 ) ;
#121 = ORIENTED_EDGE ( 'NONE', *, *, #24, .F. ) ;
#122 = AXIS2_PLACEMENT_3D ( 'NONE', #177, #81, #174 ) ;
#123 =( NAMED_UNIT ( * ) SI_UNIT ( $, .STERADIAN. ) SOLID_ANGLE_UNIT ( ) );
#124 = VERTEX_POINT ( 'NONE', #278 ) ;
#125 = PRODUCT_DEFINITION ( 'UNKNOWN', '', #304, #271 ) ;
#126 = MECHANICAL_DESIGN_GEOMETRIC_PRESENTATION_REPRESENTATION (  '', ( #120 ), #62 ) ;
#127 = DIRECTION ( 'NONE',  ( 2.996036790656716304E-33, -1.000000000000000000, -0.000000000000000000 ) ) ;
#128 =( CONVERSION_BASED_UNIT ( 'INCH', #28 ) LENGTH_UNIT ( ) NAMED_UNIT ( #49 ) );
#129 = FILL_AREA_STYLE_COLOUR ( '', #285 ) ;
#130 = CARTESIAN_POINT ( 'NONE',  ( 1.122029556371074537E-67, -3.745045988320895273E-35, 0.000000000000000000 ) ) ;
#131 = PRESENTATION_LAYER_ASSIGNMENT (  '', '', ( #272 ) ) ;
#132 =( NAMED_UNIT ( * ) SI_UNIT ( $, .STERADIAN. ) SOLID_ANGLE_UNIT ( ) );
#133 = CARTESIAN_POINT ( 'NONE',  ( 0.02500000000000000139, 0.000000000000000000, 3.061616997868383172E-18 ) ) ;
#134 = SURFACE_SIDE_STYLE ('',( #183 ) ) ;
#135 = EDGE_LOOP ( 'NONE', ( #98, #225 ) ) ;
#136 = VECTOR ( 'NONE', #288, 39.37007874015748854 ) ;
#137 = SURFACE_STYLE_USAGE ( .BOTH. , #53 ) ;
#138 = DIRECTION ( 'NONE',  ( -1.000000000000000000, 0.000000000000000000, 0.000000000000000000 ) ) ;
#139 = PRESENTATION_LAYER_ASSIGNMENT (  '', '', ( #120 ) ) ;
#140 = CIRCLE ( 'NONE', #187, 0.09374999999999998612 ) ;
#141 = FILL_AREA_STYLE_COLOUR ( '', #80 ) ;
#142 = DIRECTION ( 'NONE',  ( 2.996036790656716304E-33, -1.000000000000000000, -0.000000000000000000 ) ) ;
#143 = DIMENSIONAL_EXPONENTS ( 1.000000000000000000, 0.000000000000000000, 0.000000000000000000, 0.000000000000000000, 0.000000000000000000, 0.000000000000000000, 0.000000000000000000 ) ;
#144 = ORIENTED_EDGE ( 'NONE', *, *, #194, .T. ) ;
#145 = CARTESIAN_POINT ( 'NONE',  ( 2.244059112742149073E-67, -7.490091976641790545E-35, 0.000000000000000000 ) ) ;
#146 = CONICAL_SURFACE ( 'NONE', #300, 0.02500000000000000139, 0.7155849933176767763 ) ;
#147 = ADVANCED_FACE ( 'NONE', ( #185 ), #163, .F. ) ;
#148 = PRODUCT_DEFINITION_SHAPE ( 'NONE', 'NONE',  #125 ) ;
#149 =( CONVERSION_BASED_UNIT ( 'INCH', #213 ) LENGTH_UNIT ( ) NAMED_UNIT ( #75 ) );
#150 = AXIS2_PLACEMENT_3D ( 'NONE', #145, #127, #186 ) ;
#151 =( GEOMETRIC_REPRESENTATION_CONTEXT ( 3 ) GLOBAL_UNCERTAINTY_ASSIGNED_CONTEXT ( ( #85 ) ) GLOBAL_UNIT_ASSIGNED_CONTEXT ( ( #149, #193, #132 ) ) REPRESENTATION_CONTEXT ( 'NONE', 'WORKASPACE' ) );
#152 = DIRECTION ( 'NONE',  ( 1.000000000000000000, 2.996036790656715962E-33, 0.000000000000000000 ) ) ;
#153 = UNCERTAINTY_MEASURE_WITH_UNIT (LENGTH_MEASURE( 1.000000000000000082E-05 ), #5, 'distance_accuracy_value', 'NONE');
#154 = LENGTH_MEASURE_WITH_UNIT ( LENGTH_MEASURE( 0.02539999999999999897 ), #87 );
#155 =( NAMED_UNIT ( * ) SI_UNIT ( $, .STERADIAN. ) SOLID_ANGLE_UNIT ( ) );
#156 = EDGE_LOOP ( 'NONE', ( #234, #242 ) ) ;
#157 = ORIENTED_EDGE ( 'NONE', *, *, #101, .F. ) ;
#158 = EDGE_CURVE ( 'NONE', #167, #14, #108, .T. ) ;
#159 =( GEOMETRIC_REPRESENTATION_CONTEXT ( 3 ) GLOBAL_UNCERTAINTY_ASSIGNED_CONTEXT ( ( #269 ) ) GLOBAL_UNIT_ASSIGNED_CONTEXT ( ( #128, #218, #263 ) ) REPRESENTATION_CONTEXT ( 'NONE', 'WORKASPACE' ) );
#160 = PRESENTATION_STYLE_ASSIGNMENT (( #296 ) ) ;
#161 = ORIENTED_EDGE ( 'NONE', *, *, #220, .T. ) ;
#162 = ORIENTED_EDGE ( 'NONE', *, *, #243, .F. ) ;
#163 = PLANE ( 'NONE',  #63 ) ;
#164 = ADVANCED_FACE ( 'NONE', ( #118 ), #41, .T. ) ;
#165 = ADVANCED_FACE ( 'NONE', ( #198 ), #76, .F. ) ;
#166 = CIRCLE ( 'NONE', #235, 0.09374999999999998612 ) ;
#167 = VERTEX_POINT ( 'NONE', #29 ) ;
#168 = DIRECTION ( 'NONE',  ( -2.996036790656716304E-33, 1.000000000000000000, 0.000000000000000000 ) ) ;
#169 = EDGE_CURVE ( 'NONE', #209, #167, #208, .T. ) ;
#170 = COLOUR_RGB ( '',0.7921568627450980005, 0.8196078431372548767, 0.9333333333333333481 ) ;
#171 = AXIS2_PLACEMENT_3D ( 'NONE', #268, #199, #294 ) ;
#172 = CARTESIAN_POINT ( 'NONE',  ( -0.02500000000000000139, -1.498018395328358109E-34, 0.000000000000000000 ) ) ;
#173 = CARTESIAN_POINT ( 'NONE',  ( 1.734411286840929472E-16, 0.07908782799644412109, 0.000000000000000000 ) ) ;
#174 = DIRECTION ( 'NONE',  ( -1.000000000000000000, -1.821231995776178930E-16, 0.000000000000000000 ) ) ;
#175 = CARTESIAN_POINT ( 'NONE',  ( -2.369500423704768587E-34, 0.07908782799644412109, 0.000000000000000000 ) ) ;
#176 =( LENGTH_UNIT ( ) NAMED_UNIT ( * ) SI_UNIT ( $, .METRE. ) );
#177 = CARTESIAN_POINT ( 'NONE',  ( 1.734411286840929472E-16, 0.07908782799644425987, 0.000000000000000000 ) ) ;
#178 = CARTESIAN_POINT ( 'NONE',  ( -0.02500000000000000139, -1.498018395328358109E-34, 0.000000000000000000 ) ) ;
#179 =( GEOMETRIC_REPRESENTATION_CONTEXT ( 3 ) GLOBAL_UNCERTAINTY_ASSIGNED_CONTEXT ( ( #247 ) ) GLOBAL_UNIT_ASSIGNED_CONTEXT ( ( #69, #261, #265 ) ) REPRESENTATION_CONTEXT ( 'NONE', 'WORKASPACE' ) );
#180 = VERTEX_POINT ( 'NONE', #11 ) ;
#181 = MECHANICAL_DESIGN_GEOMETRIC_PRESENTATION_REPRESENTATION (  '', ( #303 ), #255 ) ;
#182 = MANIFOLD_SOLID_BREP ( 'Revolve - Tool Body (Tipped Off)', #283 ) ;
#183 = SURFACE_STYLE_FILL_AREA ( #114 ) ;
#184 = VECTOR ( 'NONE', #20, 39.37007874015748143 ) ;
#185 = FACE_OUTER_BOUND ( 'NONE', #135, .T. ) ;
#186 = DIRECTION ( 'NONE',  ( 1.000000000000000000, 2.996036790656715962E-33, 0.000000000000000000 ) ) ;
#187 = AXIS2_PLACEMENT_3D ( 'NONE', #175, #142, #32 ) ;
#188 = DIRECTION ( 'NONE',  ( 1.000000000000000000, 2.996036790656715962E-33, 0.000000000000000000 ) ) ;
#189 = ORIENTED_EDGE ( 'NONE', *, *, #158, .F. ) ;
#190 = LENGTH_MEASURE_WITH_UNIT ( LENGTH_MEASURE( 0.02539999999999999897 ), #196 );
#191 = AXIS2_PLACEMENT_3D ( 'NONE', #173, #111, #264 ) ;
#192 = PRODUCT ( '84596', '84596', '', ( #291 ) ) ;
#193 =( NAMED_UNIT ( * ) PLANE_ANGLE_UNIT ( ) SI_UNIT ( $, .RADIAN. ) );
#194 = EDGE_CURVE ( 'NONE', #124, #90, #166, .T. ) ;
#195 = DIRECTION ( 'NONE',  ( -2.996036790656715962E-33, 1.000000000000000000, 0.000000000000000000 ) ) ;
#196 =( LENGTH_UNIT ( ) NAMED_UNIT ( * ) SI_UNIT ( $, .METRE. ) );
#197 = ADVANCED_BREP_SHAPE_REPRESENTATION ( '84596', ( #71, #182, #171 ), #151 ) ;
#198 = FACE_OUTER_BOUND ( 'NONE', #250, .T. ) ;
#199 = DIRECTION ( 'NONE',  ( 0.000000000000000000, 0.000000000000000000, 1.000000000000000000 ) ) ;
#200 = SURFACE_STYLE_FILL_AREA ( #52 ) ;
#201 = AXIS2_PLACEMENT_3D ( 'NONE', #112, #241, #8 ) ;
#202 = FILL_AREA_STYLE_COLOUR ( '', #170 ) ;
#203 = PRESENTATION_STYLE_ASSIGNMENT (( #17 ) ) ;
#204 = CARTESIAN_POINT ( 'NONE',  ( -6.123233995736763571E-17, 2.000000000000000000, 0.000000000000000000 ) ) ;
#205 = SURFACE_SIDE_STYLE ('',( #249 ) ) ;
#206 =( CONVERSION_BASED_UNIT ( 'INCH', #154 ) LENGTH_UNIT ( ) NAMED_UNIT ( #70 ) );
#207 = DIRECTION ( 'NONE',  ( -1.221677243039647880E-16, 1.000000000000000000, -0.000000000000000000 ) ) ;
#208 = LINE ( 'NONE', #274, #115 ) ;
#209 = VERTEX_POINT ( 'NONE', #77 ) ;
#210 = AXIS2_PLACEMENT_3D ( 'NONE', #204, #56, #138 ) ;
#211 = DIMENSIONAL_EXPONENTS ( 1.000000000000000000, 0.000000000000000000, 0.000000000000000000, 0.000000000000000000, 0.000000000000000000, 0.000000000000000000, 0.000000000000000000 ) ;
#212 = FILL_AREA_STYLE_COLOUR ( '', #89 ) ;
#213 = LENGTH_MEASURE_WITH_UNIT ( LENGTH_MEASURE( 0.02539999999999999897 ), #13 );
#214 = SURFACE_STYLE_FILL_AREA ( #308 ) ;
#215 = MECHANICAL_DESIGN_GEOMETRIC_PRESENTATION_REPRESENTATION (  '', ( #260 ), #159 ) ;
#216 = LENGTH_MEASURE_WITH_UNIT ( LENGTH_MEASURE( 0.02539999999999999897 ), #176 );
#217 = CARTESIAN_POINT ( 'NONE',  ( 1.734411286840929472E-16, 0.07908782799644425987, 0.000000000000000000 ) ) ;
#218 =( NAMED_UNIT ( * ) PLANE_ANGLE_UNIT ( ) SI_UNIT ( $, .RADIAN. ) );
#219 = FILL_AREA_STYLE_COLOUR ( '', #293 ) ;
#220 = EDGE_CURVE ( 'NONE', #90, #124, #140, .T. ) ;
#221 = PLANE ( 'NONE',  #67 ) ;
#222 = CLOSED_SHELL ( 'NONE', ( #27, #164, #238, #297 ) ) ;
#223 = ORIENTED_EDGE ( 'NONE', *, *, #279, .F. ) ;
#224 = FACE_OUTER_BOUND ( 'NONE', #305, .T. ) ;
#225 = ORIENTED_EDGE ( 'NONE', *, *, #119, .T. ) ;
#226 = LINE ( 'NONE', #298, #184 ) ;
#227 = EDGE_CURVE ( 'NONE', #306, #90, #47, .T. ) ;
#228 = EDGE_LOOP ( 'NONE', ( #19, #21, #189, #230 ) ) ;
#229 = DIRECTION ( 'NONE',  ( -1.000000000000000000, 0.000000000000000000, 0.000000000000000000 ) ) ;
#230 = ORIENTED_EDGE ( 'NONE', *, *, #169, .F. ) ;
#231 = CIRCLE ( 'NONE', #42, 0.09374999999999981959 ) ;
#232 = CYLINDRICAL_SURFACE ( 'NONE', #210, 0.09374999999999994449 ) ;
#233 = EDGE_LOOP ( 'NONE', ( #277, #10, #97, #44 ) ) ;
#234 = ORIENTED_EDGE ( 'NONE', *, *, #243, .T. ) ;
#235 = AXIS2_PLACEMENT_3D ( 'NONE', #36, #104, #262 ) ;
#236 = SURFACE_STYLE_USAGE ( .BOTH. , #102 ) ;
#237 = CIRCLE ( 'NONE', #1, 0.02500000000000000139 ) ;
#238 = ADVANCED_FACE ( 'NONE', ( #72 ), #146, .T. ) ;
#239 = FILL_AREA_STYLE ('',( #129 ) ) ;
#240 = AXIS2_PLACEMENT_3D ( 'NONE', #35, #64, #253 ) ;
#241 = DIRECTION ( 'NONE',  ( -1.221677243039647880E-16, 1.000000000000000000, -0.000000000000000000 ) ) ;
#242 = ORIENTED_EDGE ( 'NONE', *, *, #101, .T. ) ;
#243 = EDGE_CURVE ( 'NONE', #306, #180, #66, .T. ) ;
#244 = UNCERTAINTY_MEASURE_WITH_UNIT (LENGTH_MEASURE( 1.000000000000000082E-05 ), #289, 'distance_accuracy_value', 'NONE');
#245 = DIRECTION ( 'NONE',  ( 0.6560590289905084971, 0.7547095802227710148, 8.034405899049468590E-17 ) ) ;
#246 = APPLICATION_CONTEXT ( 'automotive_design' ) ;
#247 = UNCERTAINTY_MEASURE_WITH_UNIT (LENGTH_MEASURE( 1.000000000000000082E-05 ), #69, 'distance_accuracy_value', 'NONE');
#248 = CARTESIAN_POINT ( 'NONE',  ( -6.123233995736763571E-17, 2.000000000000000000, 0.000000000000000000 ) ) ;
#249 = SURFACE_STYLE_FILL_AREA ( #82 ) ;
#250 = EDGE_LOOP ( 'NONE', ( #223, #307 ) ) ;
#251 = MECHANICAL_DESIGN_GEOMETRIC_PRESENTATION_REPRESENTATION (  '', ( #272 ), #179 ) ;
#252 = UNCERTAINTY_MEASURE_WITH_UNIT (LENGTH_MEASURE( 1.000000000000000082E-05 ), #206, 'distance_accuracy_value', 'NONE');
#253 = DIRECTION ( 'NONE',  ( -1.000000000000000000, -2.996036790656715962E-33, 0.000000000000000000 ) ) ;
#254 = MECHANICAL_DESIGN_GEOMETRIC_PRESENTATION_REPRESENTATION (  '', ( #12 ), #280 ) ;
#255 =( GEOMETRIC_REPRESENTATION_CONTEXT ( 3 ) GLOBAL_UNCERTAINTY_ASSIGNED_CONTEXT ( ( #244 ) ) GLOBAL_UNIT_ASSIGNED_CONTEXT ( ( #289, #266, #155 ) ) REPRESENTATION_CONTEXT ( 'NONE', 'WORKASPACE' ) );
#256 = ORIENTED_EDGE ( 'NONE', *, *, #194, .F. ) ;
#257 = DIMENSIONAL_EXPONENTS ( 1.000000000000000000, 0.000000000000000000, 0.000000000000000000, 0.000000000000000000, 0.000000000000000000, 0.000000000000000000, 0.000000000000000000 ) ;
#258 = DIRECTION ( 'NONE',  ( -1.000000000000000000, -2.996036790656715962E-33, 0.000000000000000000 ) ) ;
#259 = CIRCLE ( 'NONE', #122, 0.09374999999999981959 ) ;
#260 = STYLED_ITEM ( 'NONE', ( #91 ), #71 ) ;
#261 =( NAMED_UNIT ( * ) PLANE_ANGLE_UNIT ( ) SI_UNIT ( $, .RADIAN. ) );
#262 = DIRECTION ( 'NONE',  ( 1.000000000000000000, 0.000000000000000000, 0.000000000000000000 ) ) ;
#263 =( NAMED_UNIT ( * ) SI_UNIT ( $, .STERADIAN. ) SOLID_ANGLE_UNIT ( ) );
#264 = DIRECTION ( 'NONE',  ( -1.000000000000000000, -1.221677243039647880E-16, 0.000000000000000000 ) ) ;
#265 =( NAMED_UNIT ( * ) SI_UNIT ( $, .STERADIAN. ) SOLID_ANGLE_UNIT ( ) );
#266 =( NAMED_UNIT ( * ) PLANE_ANGLE_UNIT ( ) SI_UNIT ( $, .RADIAN. ) );
#267 = MECHANICAL_DESIGN_GEOMETRIC_PRESENTATION_REPRESENTATION (  '', ( #95 ), #23 ) ;
#268 = CARTESIAN_POINT ( 'NONE',  ( 0.000000000000000000, 0.000000000000000000, 0.000000000000000000 ) ) ;
#269 = UNCERTAINTY_MEASURE_WITH_UNIT (LENGTH_MEASURE( 1.000000000000000082E-05 ), #128, 'distance_accuracy_value', 'NONE');
#270 =( LENGTH_UNIT ( ) NAMED_UNIT ( * ) SI_UNIT ( $, .METRE. ) );
#271 = PRODUCT_DEFINITION_CONTEXT ( 'detailed design', #25, 'design' ) ;
#272 = STYLED_ITEM ( 'NONE', ( #48 ), #238 ) ;
#273 = CARTESIAN_POINT ( 'NONE',  ( 0.09374999999999998612, 2.000000000000000000, 0.000000000000000000 ) ) ;
#274 = CARTESIAN_POINT ( 'NONE',  ( -0.09375000000000001388, 2.000000000000000000, 0.000000000000000000 ) ) ;
#275 = CARTESIAN_POINT ( 'NONE',  ( -6.123233995736763571E-17, 2.000000000000000000, 0.000000000000000000 ) ) ;
#276 = DIRECTION ( 'NONE',  ( 1.000000000000000000, 1.221677243039647880E-16, 0.000000000000000000 ) ) ;
#277 = ORIENTED_EDGE ( 'NONE', *, *, #106, .F. ) ;
#278 = CARTESIAN_POINT ( 'NONE',  ( 0.09374999999999998612, 0.07908782799644412109, 1.148106374200643401E-17 ) ) ;
#279 = EDGE_CURVE ( 'NONE', #209, #65, #231, .T. ) ;
#280 =( GEOMETRIC_REPRESENTATION_CONTEXT ( 3 ) GLOBAL_UNCERTAINTY_ASSIGNED_CONTEXT ( ( #295 ) ) GLOBAL_UNIT_ASSIGNED_CONTEXT ( ( #299, #59, #123 ) ) REPRESENTATION_CONTEXT ( 'NONE', 'WORKASPACE' ) );
#281 =( LENGTH_UNIT ( ) NAMED_UNIT ( * ) SI_UNIT ( $, .METRE. ) );
#282 = ADVANCED_FACE ( 'NONE', ( #55 ), #286, .T. ) ;
#283 = CLOSED_SHELL ( 'NONE', ( #282, #165, #88, #147 ) ) ;
#284 = PRESENTATION_LAYER_ASSIGNMENT (  '', '', ( #95 ) ) ;
#285 = COLOUR_RGB ( '',0.7921568627450980005, 0.8196078431372548767, 0.9333333333333333481 ) ;
#286 = CYLINDRICAL_SURFACE ( 'NONE', #201, 0.09374999999999994449 ) ;
#287 = DIRECTION ( 'NONE',  ( -1.000000000000000000, -2.996036790656715962E-33, 0.000000000000000000 ) ) ;
#288 = DIRECTION ( 'NONE',  ( -0.6560590289905084971, 0.7547095802227710148, 0.000000000000000000 ) ) ;
#289 =( CONVERSION_BASED_UNIT ( 'INCH', #79 ) LENGTH_UNIT ( ) NAMED_UNIT ( #143 ) );
#290 =( NAMED_UNIT ( * ) PLANE_ANGLE_UNIT ( ) SI_UNIT ( $, .RADIAN. ) );
#291 = PRODUCT_CONTEXT ( 'NONE', #246, 'mechanical' ) ;
#292 = DIRECTION ( 'NONE',  ( -1.221677243039647880E-16, 1.000000000000000000, -0.000000000000000000 ) ) ;
#293 = COLOUR_RGB ( '',1.000000000000000000, 0.000000000000000000, 0.000000000000000000 ) ;
#294 = DIRECTION ( 'NONE',  ( 1.000000000000000000, 0.000000000000000000, 0.000000000000000000 ) ) ;
#295 = UNCERTAINTY_MEASURE_WITH_UNIT (LENGTH_MEASURE( 1.000000000000000082E-05 ), #299, 'distance_accuracy_value', 'NONE');
#296 = SURFACE_STYLE_USAGE ( .BOTH. , #205 ) ;
#297 = ADVANCED_FACE ( 'NONE', ( #51 ), #221, .T. ) ;
#298 = CARTESIAN_POINT ( 'NONE',  ( 0.09374999999999987510, 2.000000000000000000, 1.148106374200642938E-17 ) ) ;
#299 =( CONVERSION_BASED_UNIT ( 'INCH', #16 ) LENGTH_UNIT ( ) NAMED_UNIT ( #211 ) );
#300 = AXIS2_PLACEMENT_3D ( 'NONE', #3, #168, #258 ) ;
#301 = FILL_AREA_STYLE ('',( #141 ) ) ;
#302 = DIRECTION ( 'NONE',  ( 2.996036790656716304E-33, -1.000000000000000000, -0.000000000000000000 ) ) ;
#303 = STYLED_ITEM ( 'NONE', ( #105 ), #297 ) ;
#304 = PRODUCT_DEFINITION_FORMATION_WITH_SPECIFIED_SOURCE ( 'ANY', '', #192, .NOT_KNOWN. ) ;
#305 = EDGE_LOOP ( 'NONE', ( #157, #116, #144, #22 ) ) ;
#306 = VERTEX_POINT ( 'NONE', #178 ) ;
#307 = ORIENTED_EDGE ( 'NONE', *, *, #68, .F. ) ;
#308 = FILL_AREA_STYLE ('',( #212 ) ) ;
#309 = SURFACE_STYLE_USAGE ( .BOTH. , #134 ) ;
ENDSEC;
END-ISO-10303-21;
