ISO-10303-21;
HEADER;
FILE_DESCRIPTION (( 'STEP AP214' ),
    '1' );
FILE_NAME ('84789.STEP',
    '2023-07-05T16:28:52',
    ( '' ),
    ( '' ),
    'SwSTEP 2.0',
    'SolidWorks 2023',
    '' );
FILE_SCHEMA (( 'AUTOMOTIVE_DESIGN' ));
ENDSEC;

DATA;
#1 = FACE_OUTER_BOUND ( 'NONE', #252, .T. ) ;
#2 =( GEOMETRIC_REPRESENTATION_CONTEXT ( 3 ) GLOBAL_UNCERTAINTY_ASSIGNED_CONTEXT ( ( #251 ) ) GLOBAL_UNIT_ASSIGNED_CONTEXT ( ( #199, #120, #161 ) ) REPRESENTATION_CONTEXT ( 'NONE', 'WORKASPACE' ) );
#3 = CIRCLE ( 'NONE', #112, 0.3749999999999996114 ) ;
#4 = SURFACE_STYLE_FILL_AREA ( #5 ) ;
#5 = FILL_AREA_STYLE ('',( #63 ) ) ;
#6 = EDGE_LOOP ( 'NONE', ( #122, #247, #118 ) ) ;
#7 = APPLICATION_CONTEXT ( 'automotive_design' ) ;
#8 = EDGE_CURVE ( 'NONE', #225, #83, #200, .T. ) ;
#9 = PRODUCT_DEFINITION_SHAPE ( 'NONE', 'NONE',  #243 ) ;
#10 =( NAMED_UNIT ( * ) SI_UNIT ( $, .STERADIAN. ) SOLID_ANGLE_UNIT ( ) );
#11 = SURFACE_SIDE_STYLE ('',( #107 ) ) ;
#12 = AXIS2_PLACEMENT_3D ( 'NONE', #66, #106, #213 ) ;
#13 = AXIS2_PLACEMENT_3D ( 'NONE', #98, #43, #177 ) ;
#14 = DIRECTION ( 'NONE',  ( -1.479148523824648137E-16, 1.000000000000000000, -0.000000000000000000 ) ) ;
#15 =( CONVERSION_BASED_UNIT ( 'INCH', #184 ) LENGTH_UNIT ( ) NAMED_UNIT ( #261 ) );
#16 = SURFACE_STYLE_USAGE ( .BOTH. , #128 ) ;
#17 = PRESENTATION_LAYER_ASSIGNMENT (  '', '', ( #77 ) ) ;
#18 = SURFACE_STYLE_FILL_AREA ( #156 ) ;
#19 = CARTESIAN_POINT ( 'NONE',  ( 0.3749999999999998890, 3.000000000000000444, 4.592425496802572986E-17 ) ) ;
#20 = DIRECTION ( 'NONE',  ( -1.479148523824648137E-16, 1.000000000000000000, -0.000000000000000000 ) ) ;
#21 = CIRCLE ( 'NONE', #157, 0.3749999999999998890 ) ;
#22 =( LENGTH_UNIT ( ) NAMED_UNIT ( * ) SI_UNIT ( $, .METRE. ) );
#23 = ORIENTED_EDGE ( 'NONE', *, *, #69, .T. ) ;
#24 = PLANE ( 'NONE',  #121 ) ;
#25 = VERTEX_POINT ( 'NONE', #216 ) ;
#26 = ADVANCED_FACE ( 'NONE', ( #214 ), #52, .T. ) ;
#27 =( NAMED_UNIT ( * ) SI_UNIT ( $, .STERADIAN. ) SOLID_ANGLE_UNIT ( ) );
#28 = FILL_AREA_STYLE ('',( #85 ) ) ;
#29 = UNCERTAINTY_MEASURE_WITH_UNIT (LENGTH_MEASURE( 1.000000000000000082E-05 ), #54, 'distance_accuracy_value', 'NONE');
#30 = PRESENTATION_STYLE_ASSIGNMENT (( #16 ) ) ;
#31 = FILL_AREA_STYLE_COLOUR ( '', #206 ) ;
#32 = PRESENTATION_LAYER_ASSIGNMENT (  '', '', ( #42 ) ) ;
#33 = LINE ( 'NONE', #127, #73 ) ;
#34 = DIRECTION ( 'NONE',  ( 0.000000000000000000, 0.000000000000000000, -1.000000000000000000 ) ) ;
#35 =( NAMED_UNIT ( * ) PLANE_ANGLE_UNIT ( ) SI_UNIT ( $, .RADIAN. ) );
#36 = ORIENTED_EDGE ( 'NONE', *, *, #103, .F. ) ;
#37 = STYLED_ITEM ( 'NONE', ( #78 ), #197 ) ;
#38 = DIMENSIONAL_EXPONENTS ( 1.000000000000000000, 0.000000000000000000, 0.000000000000000000, 0.000000000000000000, 0.000000000000000000, 0.000000000000000000, 0.000000000000000000 ) ;
#39 = CARTESIAN_POINT ( 'NONE',  ( 2.864387023698472327E-16, 0.6495190528383271156, 0.000000000000000000 ) ) ;
#40 = ADVANCED_FACE ( 'NONE', ( #180 ), #196, .T. ) ;
#41 = DIRECTION ( 'NONE',  ( -1.479148523824648137E-16, 1.000000000000000000, -0.000000000000000000 ) ) ;
#42 = STYLED_ITEM ( 'NONE', ( #72 ), #153 ) ;
#43 = DIRECTION ( 'NONE',  ( 0.000000000000000000, 0.000000000000000000, 1.000000000000000000 ) ) ;
#44 = CIRCLE ( 'NONE', #129, 0.3749999999999998890 ) ;
#45 = ORIENTED_EDGE ( 'NONE', *, *, #88, .T. ) ;
#46 = PRODUCT_CONTEXT ( 'NONE', #97, 'mechanical' ) ;
#47 = DIRECTION ( 'NONE',  ( 0.000000000000000000, 0.000000000000000000, 1.000000000000000000 ) ) ;
#48 = VERTEX_POINT ( 'NONE', #123 ) ;
#49 = ADVANCED_FACE ( 'NONE', ( #204 ), #24, .F. ) ;
#50 = DIRECTION ( 'NONE',  ( 0.000000000000000000, 0.8660254037844380415, 0.5000000000000008882 ) ) ;
#51 = ORIENTED_EDGE ( 'NONE', *, *, #62, .F. ) ;
#52 = CONICAL_SURFACE ( 'NONE', #86, 22.73032555864674009, 0.5235987755982999259 ) ;
#53 = FILL_AREA_STYLE ('',( #151 ) ) ;
#54 =( CONVERSION_BASED_UNIT ( 'INCH', #211 ) LENGTH_UNIT ( ) NAMED_UNIT ( #91 ) );
#55 = COLOUR_RGB ( '',1.000000000000000000, 0.000000000000000000, 0.000000000000000000 ) ;
#56 = CARTESIAN_POINT ( 'NONE',  ( 0.000000000000000000, 0.000000000000000000, 0.000000000000000000 ) ) ;
#57 = DIRECTION ( 'NONE',  ( -1.000000000000000000, 0.000000000000000000, 0.000000000000000000 ) ) ;
#58 = LENGTH_MEASURE_WITH_UNIT ( LENGTH_MEASURE( 0.02539999999999999897 ), #223 );
#59 =( CONVERSION_BASED_UNIT ( 'INCH', #115 ) LENGTH_UNIT ( ) NAMED_UNIT ( #38 ) );
#60 = ORIENTED_EDGE ( 'NONE', *, *, #116, .F. ) ;
#61 = CYLINDRICAL_SURFACE ( 'NONE', #105, 0.3749999999999998335 ) ;
#62 = EDGE_CURVE ( 'NONE', #83, #225, #245, .T. ) ;
#63 = FILL_AREA_STYLE_COLOUR ( '', #55 ) ;
#64 = STYLED_ITEM ( 'NONE', ( #104 ), #40 ) ;
#65 = ORIENTED_EDGE ( 'NONE', *, *, #75, .F. ) ;
#66 = CARTESIAN_POINT ( 'NONE',  ( -6.123233995736770966E-17, 3.000000000000000444, 0.000000000000000000 ) ) ;
#67 = UNCERTAINTY_MEASURE_WITH_UNIT (LENGTH_MEASURE( 1.000000000000000082E-05 ), #59, 'distance_accuracy_value', 'NONE');
#68 = EDGE_LOOP ( 'NONE', ( #209, #142 ) ) ;
#69 = EDGE_CURVE ( 'NONE', #148, #228, #44, .T. ) ;
#70 = LENGTH_MEASURE_WITH_UNIT ( LENGTH_MEASURE( 0.02539999999999999897 ), #150 );
#71 = AXIS2_PLACEMENT_3D ( 'NONE', #90, #158, #241 ) ;
#72 = PRESENTATION_STYLE_ASSIGNMENT (( #254 ) ) ;
#73 = VECTOR ( 'NONE', #262, 39.37007874015748143 ) ;
#74 = DIRECTION ( 'NONE',  ( -1.479148523824648137E-16, 1.000000000000000000, -0.000000000000000000 ) ) ;
#75 = EDGE_CURVE ( 'NONE', #25, #83, #169, .T. ) ;
#76 =( LENGTH_UNIT ( ) NAMED_UNIT ( * ) SI_UNIT ( $, .METRE. ) );
#77 = STYLED_ITEM ( 'NONE', ( #260 ), #26 ) ;
#78 = PRESENTATION_STYLE_ASSIGNMENT (( #237 ) ) ;
#79 = ORIENTED_EDGE ( 'NONE', *, *, #8, .F. ) ;
#80 = PRESENTATION_LAYER_ASSIGNMENT (  '', '', ( #64 ) ) ;
#81 = EDGE_CURVE ( 'NONE', #48, #228, #259, .T. ) ;
#82 = VECTOR ( 'NONE', #109, 39.37007874015748143 ) ;
#83 = VERTEX_POINT ( 'NONE', #230 ) ;
#84 = EDGE_LOOP ( 'NONE', ( #205, #244, #227, #79 ) ) ;
#85 = FILL_AREA_STYLE_COLOUR ( '', #139 ) ;
#86 = AXIS2_PLACEMENT_3D ( 'NONE', #114, #218, #144 ) ;
#87 =( NAMED_UNIT ( * ) PLANE_ANGLE_UNIT ( ) SI_UNIT ( $, .RADIAN. ) );
#88 = EDGE_CURVE ( 'NONE', #250, #225, #256, .T. ) ;
#89 =( NAMED_UNIT ( * ) PLANE_ANGLE_UNIT ( ) SI_UNIT ( $, .RADIAN. ) );
#90 = CARTESIAN_POINT ( 'NONE',  ( 0.000000000000000000, 0.6495190528383271156, 0.000000000000000000 ) ) ;
#91 = DIMENSIONAL_EXPONENTS ( 1.000000000000000000, 0.000000000000000000, 0.000000000000000000, 0.000000000000000000, 0.000000000000000000, 0.000000000000000000, 0.000000000000000000 ) ;
#92 =( NAMED_UNIT ( * ) PLANE_ANGLE_UNIT ( ) SI_UNIT ( $, .RADIAN. ) );
#93 = PLANE ( 'NONE',  #71 ) ;
#94 =( GEOMETRIC_REPRESENTATION_CONTEXT ( 3 ) GLOBAL_UNCERTAINTY_ASSIGNED_CONTEXT ( ( #147 ) ) GLOBAL_UNIT_ASSIGNED_CONTEXT ( ( #15, #35, #10 ) ) REPRESENTATION_CONTEXT ( 'NONE', 'WORKASPACE' ) );
#95 = DIRECTION ( 'NONE',  ( -1.000000000000000000, 0.000000000000000000, 0.000000000000000000 ) ) ;
#96 = FACE_OUTER_BOUND ( 'NONE', #68, .T. ) ;
#97 = APPLICATION_CONTEXT ( 'automotive_design' ) ;
#98 = CARTESIAN_POINT ( 'NONE',  ( 0.000000000000000000, 0.000000000000000000, 0.000000000000000000 ) ) ;
#99 = AXIS2_PLACEMENT_3D ( 'NONE', #126, #74, #185 ) ;
#100 = UNCERTAINTY_MEASURE_WITH_UNIT (LENGTH_MEASURE( 1.000000000000000082E-05 ), #174, 'distance_accuracy_value', 'NONE');
#101 = APPLICATION_PROTOCOL_DEFINITION ( 'draft international standard', 'automotive_design', 1998, #7 ) ;
#102 = DIRECTION ( 'NONE',  ( -1.479148523824648137E-16, 1.000000000000000000, 0.000000000000000000 ) ) ;
#103 = EDGE_CURVE ( 'NONE', #250, #25, #233, .T. ) ;
#104 = PRESENTATION_STYLE_ASSIGNMENT (( #226 ) ) ;
#105 = AXIS2_PLACEMENT_3D ( 'NONE', #172, #159, #133 ) ;
#106 = DIRECTION ( 'NONE',  ( -1.479148523824648137E-16, 1.000000000000000000, -0.000000000000000000 ) ) ;
#107 = SURFACE_STYLE_FILL_AREA ( #28 ) ;
#108 =( LENGTH_UNIT ( ) NAMED_UNIT ( * ) SI_UNIT ( $, .METRE. ) );
#109 = DIRECTION ( 'NONE',  ( -1.479148523824648137E-16, 1.000000000000000000, -0.000000000000000000 ) ) ;
#110 = PRODUCT_DEFINITION_CONTEXT ( 'detailed design', #7, 'design' ) ;
#111 = MECHANICAL_DESIGN_GEOMETRIC_PRESENTATION_REPRESENTATION (  '', ( #134 ), #119 ) ;
#112 = AXIS2_PLACEMENT_3D ( 'NONE', #39, #41, #95 ) ;
#113 =( CONVERSION_BASED_UNIT ( 'INCH', #70 ) LENGTH_UNIT ( ) NAMED_UNIT ( #219 ) );
#114 = CARTESIAN_POINT ( 'NONE',  ( 0.000000000000000000, 39.37007874015748143, 0.000000000000000000 ) ) ;
#115 = LENGTH_MEASURE_WITH_UNIT ( LENGTH_MEASURE( 0.02539999999999999897 ), #76 );
#116 = EDGE_CURVE ( 'NONE', #228, #148, #21, .T. ) ;
#117 = FACE_OUTER_BOUND ( 'NONE', #265, .T. ) ;
#118 = ORIENTED_EDGE ( 'NONE', *, *, #116, .T. ) ;
#119 =( GEOMETRIC_REPRESENTATION_CONTEXT ( 3 ) GLOBAL_UNCERTAINTY_ASSIGNED_CONTEXT ( ( #182 ) ) GLOBAL_UNIT_ASSIGNED_CONTEXT ( ( #113, #87, #27 ) ) REPRESENTATION_CONTEXT ( 'NONE', 'WORKASPACE' ) );
#120 =( NAMED_UNIT ( * ) PLANE_ANGLE_UNIT ( ) SI_UNIT ( $, .RADIAN. ) );
#121 = AXIS2_PLACEMENT_3D ( 'NONE', #163, #102, #249 ) ;
#122 = ORIENTED_EDGE ( 'NONE', *, *, #176, .F. ) ;
#123 = CARTESIAN_POINT ( 'NONE',  ( 0.000000000000000000, 0.000000000000000000, 0.000000000000000000 ) ) ;
#124 = SURFACE_SIDE_STYLE ('',( #4 ) ) ;
#125 = EDGE_LOOP ( 'NONE', ( #137, #36 ) ) ;
#126 = CARTESIAN_POINT ( 'NONE',  ( 2.864387023698472327E-16, 0.6495190528383271156, 0.000000000000000000 ) ) ;
#127 = CARTESIAN_POINT ( 'NONE',  ( 0.000000000000000000, 0.000000000000000000, 0.000000000000000000 ) ) ;
#128 = SURFACE_SIDE_STYLE ('',( #166 ) ) ;
#129 = AXIS2_PLACEMENT_3D ( 'NONE', #149, #229, #34 ) ;
#130 = DIMENSIONAL_EXPONENTS ( 1.000000000000000000, 0.000000000000000000, 0.000000000000000000, 0.000000000000000000, 0.000000000000000000, 0.000000000000000000, 0.000000000000000000 ) ;
#131 = CARTESIAN_POINT ( 'NONE',  ( 0.3749999999999998890, 0.6495190528383271156, 4.592425496802572986E-17 ) ) ;
#132 = SURFACE_STYLE_FILL_AREA ( #235 ) ;
#133 = DIRECTION ( 'NONE',  ( -1.000000000000000000, 0.000000000000000000, 0.000000000000000000 ) ) ;
#134 = STYLED_ITEM ( 'NONE', ( #30 ), #146 ) ;
#135 = DIRECTION ( 'NONE',  ( -1.000000000000000000, 0.000000000000000000, 0.000000000000000000 ) ) ;
#136 = PRODUCT_RELATED_PRODUCT_CATEGORY ( 'part', '', ( #168 ) ) ;
#137 = ORIENTED_EDGE ( 'NONE', *, *, #255, .F. ) ;
#138 =( NAMED_UNIT ( * ) SI_UNIT ( $, .STERADIAN. ) SOLID_ANGLE_UNIT ( ) );
#139 = COLOUR_RGB ( '',0.7921568627450980005, 0.8196078431372548767, 0.9333333333333333481 ) ;
#140 = MECHANICAL_DESIGN_GEOMETRIC_PRESENTATION_REPRESENTATION (  '', ( #37 ), #178 ) ;
#141 = AXIS2_PLACEMENT_3D ( 'NONE', #155, #20, #135 ) ;
#142 = ORIENTED_EDGE ( 'NONE', *, *, #8, .T. ) ;
#143 = AXIS2_PLACEMENT_3D ( 'NONE', #201, #181, #47 ) ;
#144 = DIRECTION ( 'NONE',  ( 0.000000000000000000, 0.000000000000000000, 1.000000000000000000 ) ) ;
#145 = EDGE_LOOP ( 'NONE', ( #160, #162, #23 ) ) ;
#146 = MANIFOLD_SOLID_BREP ( 'Revolve - Cutting Edge', #221 ) ;
#147 = UNCERTAINTY_MEASURE_WITH_UNIT (LENGTH_MEASURE( 1.000000000000000082E-05 ), #15, 'distance_accuracy_value', 'NONE');
#148 = VERTEX_POINT ( 'NONE', #188 ) ;
#149 = CARTESIAN_POINT ( 'NONE',  ( 0.000000000000000000, 0.6495190528383271156, 0.000000000000000000 ) ) ;
#150 =( LENGTH_UNIT ( ) NAMED_UNIT ( * ) SI_UNIT ( $, .METRE. ) );
#151 = FILL_AREA_STYLE_COLOUR ( '', #152 ) ;
#152 = COLOUR_RGB ( '',0.7921568627450980005, 0.8196078431372548767, 0.9333333333333333481 ) ;
#153 = MANIFOLD_SOLID_BREP ( 'Revolve - Tool Body (Pointed)', #242 ) ;
#154 = DIRECTION ( 'NONE',  ( 1.479148523824648137E-16, -1.000000000000000000, 0.000000000000000000 ) ) ;
#155 = CARTESIAN_POINT ( 'NONE',  ( -6.123233995736772199E-17, 3.000000000000000444, 0.000000000000000000 ) ) ;
#156 = FILL_AREA_STYLE ('',( #194 ) ) ;
#157 = AXIS2_PLACEMENT_3D ( 'NONE', #253, #208, #231 ) ;
#158 = DIRECTION ( 'NONE',  ( 0.000000000000000000, 1.000000000000000000, 0.000000000000000000 ) ) ;
#159 = DIRECTION ( 'NONE',  ( -1.479148523824648137E-16, 1.000000000000000000, -0.000000000000000000 ) ) ;
#160 = ORIENTED_EDGE ( 'NONE', *, *, #81, .F. ) ;
#161 =( NAMED_UNIT ( * ) SI_UNIT ( $, .STERADIAN. ) SOLID_ANGLE_UNIT ( ) );
#162 = ORIENTED_EDGE ( 'NONE', *, *, #176, .T. ) ;
#163 = CARTESIAN_POINT ( 'NONE',  ( 2.864387023698472327E-16, 0.6495190528383271156, 0.000000000000000000 ) ) ;
#164 = CARTESIAN_POINT ( 'NONE',  ( 0.3749999999999997780, 3.000000000000000444, 4.592425496802572370E-17 ) ) ;
#165 = MECHANICAL_DESIGN_GEOMETRIC_PRESENTATION_REPRESENTATION (  '', ( #64 ), #2 ) ;
#166 = SURFACE_STYLE_FILL_AREA ( #53 ) ;
#167 =( LENGTH_UNIT ( ) NAMED_UNIT ( * ) SI_UNIT ( $, .METRE. ) );
#168 = PRODUCT ( '84789', '84789', '', ( #46 ) ) ;
#169 = LINE ( 'NONE', #190, #82 ) ;
#170 = VECTOR ( 'NONE', #210, 39.37007874015748143 ) ;
#171 = CARTESIAN_POINT ( 'NONE',  ( 0.000000000000000000, 0.6495190528383271156, 0.3749999999999998335 ) ) ;
#172 = CARTESIAN_POINT ( 'NONE',  ( -6.123233995736772199E-17, 3.000000000000000444, 0.000000000000000000 ) ) ;
#173 =( GEOMETRIC_REPRESENTATION_CONTEXT ( 3 ) GLOBAL_UNCERTAINTY_ASSIGNED_CONTEXT ( ( #29 ) ) GLOBAL_UNIT_ASSIGNED_CONTEXT ( ( #54, #89, #138 ) ) REPRESENTATION_CONTEXT ( 'NONE', 'WORKASPACE' ) );
#174 =( CONVERSION_BASED_UNIT ( 'INCH', #58 ) LENGTH_UNIT ( ) NAMED_UNIT ( #195 ) );
#175 =( NAMED_UNIT ( * ) PLANE_ANGLE_UNIT ( ) SI_UNIT ( $, .RADIAN. ) );
#176 = EDGE_CURVE ( 'NONE', #48, #148, #33, .T. ) ;
#177 = DIRECTION ( 'NONE',  ( 1.000000000000000000, 0.000000000000000000, 0.000000000000000000 ) ) ;
#178 =( GEOMETRIC_REPRESENTATION_CONTEXT ( 3 ) GLOBAL_UNCERTAINTY_ASSIGNED_CONTEXT ( ( #100 ) ) GLOBAL_UNIT_ASSIGNED_CONTEXT ( ( #174, #175, #240 ) ) REPRESENTATION_CONTEXT ( 'NONE', 'WORKASPACE' ) );
#179 = APPLICATION_PROTOCOL_DEFINITION ( 'draft international standard', 'automotive_design', 1998, #97 ) ;
#180 = FACE_OUTER_BOUND ( 'NONE', #6, .T. ) ;
#181 = DIRECTION ( 'NONE',  ( 0.000000000000000000, 1.000000000000000000, 0.000000000000000000 ) ) ;
#182 = UNCERTAINTY_MEASURE_WITH_UNIT (LENGTH_MEASURE( 1.000000000000000082E-05 ), #113, 'distance_accuracy_value', 'NONE');
#183 = LENGTH_MEASURE_WITH_UNIT ( LENGTH_MEASURE( 0.02539999999999999897 ), #22 );
#184 = LENGTH_MEASURE_WITH_UNIT ( LENGTH_MEASURE( 0.02539999999999999897 ), #108 );
#185 = DIRECTION ( 'NONE',  ( -1.000000000000000000, 0.000000000000000000, 0.000000000000000000 ) ) ;
#186 = VECTOR ( 'NONE', #50, 39.37007874015748143 ) ;
#187 =( GEOMETRIC_REPRESENTATION_CONTEXT ( 3 ) GLOBAL_UNCERTAINTY_ASSIGNED_CONTEXT ( ( #67 ) ) GLOBAL_UNIT_ASSIGNED_CONTEXT ( ( #59, #92, #246 ) ) REPRESENTATION_CONTEXT ( 'NONE', 'WORKASPACE' ) );
#188 = CARTESIAN_POINT ( 'NONE',  ( 4.592425496802572370E-17, 0.6495190528383271156, -0.3749999999999998335 ) ) ;
#189 = SURFACE_SIDE_STYLE ('',( #132 ) ) ;
#190 = CARTESIAN_POINT ( 'NONE',  ( -0.3749999999999998890, 3.000000000000000444, 0.000000000000000000 ) ) ;
#191 = CARTESIAN_POINT ( 'NONE',  ( 0.3749999999999998890, 3.000000000000000444, 0.000000000000000000 ) ) ;
#192 = ADVANCED_BREP_SHAPE_REPRESENTATION ( '84789', ( #146, #153, #13 ), #187 ) ;
#193 = ADVANCED_FACE ( 'NONE', ( #215 ), #61, .T. ) ;
#194 = FILL_AREA_STYLE_COLOUR ( '', #224 ) ;
#195 = DIMENSIONAL_EXPONENTS ( 1.000000000000000000, 0.000000000000000000, 0.000000000000000000, 0.000000000000000000, 0.000000000000000000, 0.000000000000000000, 0.000000000000000000 ) ;
#196 = CONICAL_SURFACE ( 'NONE', #143, 22.73032555864674009, 0.5235987755982999259 ) ;
#197 = ADVANCED_FACE ( 'NONE', ( #1 ), #93, .T. ) ;
#198 = CYLINDRICAL_SURFACE ( 'NONE', #141, 0.3749999999999998335 ) ;
#199 =( CONVERSION_BASED_UNIT ( 'INCH', #183 ) LENGTH_UNIT ( ) NAMED_UNIT ( #130 ) );
#200 = CIRCLE ( 'NONE', #217, 0.3749999999999999445 ) ;
#201 = CARTESIAN_POINT ( 'NONE',  ( 0.000000000000000000, 39.37007874015748143, 0.000000000000000000 ) ) ;
#202 = ORIENTED_EDGE ( 'NONE', *, *, #69, .F. ) ;
#203 = SHAPE_DEFINITION_REPRESENTATION ( #9, #192 ) ;
#204 = FACE_OUTER_BOUND ( 'NONE', #125, .T. ) ;
#205 = ORIENTED_EDGE ( 'NONE', *, *, #88, .F. ) ;
#206 = COLOUR_RGB ( '',1.000000000000000000, 0.000000000000000000, 0.000000000000000000 ) ;
#207 = PRODUCT_DEFINITION_FORMATION_WITH_SPECIFIED_SOURCE ( 'ANY', '', #168, .NOT_KNOWN. ) ;
#208 = DIRECTION ( 'NONE',  ( -0.000000000000000000, -1.000000000000000000, -0.000000000000000000 ) ) ;
#209 = ORIENTED_EDGE ( 'NONE', *, *, #62, .T. ) ;
#210 = DIRECTION ( 'NONE',  ( -1.479148523824648137E-16, 1.000000000000000000, -0.000000000000000000 ) ) ;
#211 = LENGTH_MEASURE_WITH_UNIT ( LENGTH_MEASURE( 0.02539999999999999897 ), #167 );
#212 = CARTESIAN_POINT ( 'NONE',  ( -6.123233995736770966E-17, 3.000000000000000444, 0.000000000000000000 ) ) ;
#213 = DIRECTION ( 'NONE',  ( -1.000000000000000000, 0.000000000000000000, 0.000000000000000000 ) ) ;
#214 = FACE_OUTER_BOUND ( 'NONE', #145, .T. ) ;
#215 = FACE_OUTER_BOUND ( 'NONE', #84, .T. ) ;
#216 = CARTESIAN_POINT ( 'NONE',  ( -0.3749999999999993339, 0.6495190528383271156, 0.000000000000000000 ) ) ;
#217 = AXIS2_PLACEMENT_3D ( 'NONE', #212, #14, #57 ) ;
#218 = DIRECTION ( 'NONE',  ( 0.000000000000000000, 1.000000000000000000, 0.000000000000000000 ) ) ;
#219 = DIMENSIONAL_EXPONENTS ( 1.000000000000000000, 0.000000000000000000, 0.000000000000000000, 0.000000000000000000, 0.000000000000000000, 0.000000000000000000, 0.000000000000000000 ) ;
#220 = DIRECTION ( 'NONE',  ( 1.000000000000000000, 1.479148523824648137E-16, 0.000000000000000000 ) ) ;
#221 = CLOSED_SHELL ( 'NONE', ( #26, #197, #40 ) ) ;
#222 = ORIENTED_EDGE ( 'NONE', *, *, #255, .T. ) ;
#223 =( LENGTH_UNIT ( ) NAMED_UNIT ( * ) SI_UNIT ( $, .METRE. ) );
#224 = COLOUR_RGB ( '',1.000000000000000000, 0.000000000000000000, 0.000000000000000000 ) ;
#225 = VERTEX_POINT ( 'NONE', #19 ) ;
#226 = SURFACE_STYLE_USAGE ( .BOTH. , #124 ) ;
#227 = ORIENTED_EDGE ( 'NONE', *, *, #75, .T. ) ;
#228 = VERTEX_POINT ( 'NONE', #171 ) ;
#229 = DIRECTION ( 'NONE',  ( -0.000000000000000000, -1.000000000000000000, -0.000000000000000000 ) ) ;
#230 = CARTESIAN_POINT ( 'NONE',  ( -0.3750000000000000555, 3.000000000000000444, 0.000000000000000000 ) ) ;
#231 = DIRECTION ( 'NONE',  ( 0.000000000000000000, 0.000000000000000000, -1.000000000000000000 ) ) ;
#232 = ADVANCED_FACE ( 'NONE', ( #117 ), #198, .T. ) ;
#233 = CIRCLE ( 'NONE', #99, 0.3749999999999996114 ) ;
#234 = PLANE ( 'NONE',  #239 ) ;
#235 = FILL_AREA_STYLE ('',( #31 ) ) ;
#236 = ADVANCED_FACE ( 'NONE', ( #96 ), #234, .F. ) ;
#237 = SURFACE_STYLE_USAGE ( .BOTH. , #263 ) ;
#238 = PRESENTATION_LAYER_ASSIGNMENT (  '', '', ( #134 ) ) ;
#239 = AXIS2_PLACEMENT_3D ( 'NONE', #191, #154, #220 ) ;
#240 =( NAMED_UNIT ( * ) SI_UNIT ( $, .STERADIAN. ) SOLID_ANGLE_UNIT ( ) );
#241 = DIRECTION ( 'NONE',  ( 0.000000000000000000, -0.000000000000000000, 1.000000000000000000 ) ) ;
#242 = CLOSED_SHELL ( 'NONE', ( #232, #49, #193, #236 ) ) ;
#243 = PRODUCT_DEFINITION ( 'UNKNOWN', '', #207, #110 ) ;
#244 = ORIENTED_EDGE ( 'NONE', *, *, #103, .T. ) ;
#245 = CIRCLE ( 'NONE', #12, 0.3749999999999999445 ) ;
#246 =( NAMED_UNIT ( * ) SI_UNIT ( $, .STERADIAN. ) SOLID_ANGLE_UNIT ( ) );
#247 = ORIENTED_EDGE ( 'NONE', *, *, #81, .T. ) ;
#248 = MECHANICAL_DESIGN_GEOMETRIC_PRESENTATION_REPRESENTATION (  '', ( #77 ), #94 ) ;
#249 = DIRECTION ( 'NONE',  ( -1.000000000000000000, -1.479148523824648137E-16, 0.000000000000000000 ) ) ;
#250 = VERTEX_POINT ( 'NONE', #131 ) ;
#251 = UNCERTAINTY_MEASURE_WITH_UNIT (LENGTH_MEASURE( 1.000000000000000082E-05 ), #199, 'distance_accuracy_value', 'NONE');
#252 = EDGE_LOOP ( 'NONE', ( #60, #202 ) ) ;
#253 = CARTESIAN_POINT ( 'NONE',  ( 0.000000000000000000, 0.6495190528383271156, 0.000000000000000000 ) ) ;
#254 = SURFACE_STYLE_USAGE ( .BOTH. , #11 ) ;
#255 = EDGE_CURVE ( 'NONE', #25, #250, #3, .T. ) ;
#256 = LINE ( 'NONE', #164, #170 ) ;
#257 = SURFACE_STYLE_USAGE ( .BOTH. , #189 ) ;
#258 = PRESENTATION_LAYER_ASSIGNMENT (  '', '', ( #37 ) ) ;
#259 = LINE ( 'NONE', #56, #186 ) ;
#260 = PRESENTATION_STYLE_ASSIGNMENT (( #257 ) ) ;
#261 = DIMENSIONAL_EXPONENTS ( 1.000000000000000000, 0.000000000000000000, 0.000000000000000000, 0.000000000000000000, 0.000000000000000000, 0.000000000000000000, 0.000000000000000000 ) ;
#262 = DIRECTION ( 'NONE',  ( 6.123233995736777129E-17, 0.8660254037844380415, -0.5000000000000008882 ) ) ;
#263 = SURFACE_SIDE_STYLE ('',( #18 ) ) ;
#264 = MECHANICAL_DESIGN_GEOMETRIC_PRESENTATION_REPRESENTATION (  '', ( #42 ), #173 ) ;
#265 = EDGE_LOOP ( 'NONE', ( #222, #45, #51, #65 ) ) ;
ENDSEC;
END-ISO-10303-21;
