ISO-10303-21;
HEADER;
FILE_DESCRIPTION (( 'STEP AP214' ),
    '1' );
FILE_NAME ('83365.STEP',
    '2023-06-30T23:06:29',
    ( '' ),
    ( '' ),
    'SwSTEP 2.0',
    'SolidWorks 2023',
    '' );
FILE_SCHEMA (( 'AUTOMOTIVE_DESIGN' ));
ENDSEC;

DATA;
#1 = FILL_AREA_STYLE ('',( #35 ) ) ;
#2 = VERTEX_POINT ( 'NONE', #150 ) ;
#3 = DIRECTION ( 'NONE',  ( 1.000000000000000000, 0.000000000000000000, 0.000000000000000000 ) ) ;
#4 =( GEOMETRIC_REPRESENTATION_CONTEXT ( 3 ) GLOBAL_UNCERTAINTY_ASSIGNED_CONTEXT ( ( #210 ) ) GLOBAL_UNIT_ASSIGNED_CONTEXT ( ( #343, #266, #33 ) ) REPRESENTATION_CONTEXT ( 'NONE', 'WORKASPACE' ) );
#5 = EDGE_CURVE ( 'NONE', #339, #308, #153, .T. ) ;
#6 = SURFACE_STYLE_USAGE ( .BOTH. , #156 ) ;
#7 = COLOUR_RGB ( '',1.000000000000000000, 0.000000000000000000, 0.000000000000000000 ) ;
#8 = FILL_AREA_STYLE_COLOUR ( '', #246 ) ;
#9 = LINE ( 'NONE', #13, #22 ) ;
#10 = DIRECTION ( 'NONE',  ( 0.000000000000000000, 0.000000000000000000, 1.000000000000000000 ) ) ;
#11 = ORIENTED_EDGE ( 'NONE', *, *, #190, .F. ) ;
#12 = ADVANCED_FACE ( 'NONE', ( #49 ), #128, .T. ) ;
#13 = CARTESIAN_POINT ( 'NONE',  ( 1.913510623667738539E-17, 0.000000000000000000, 0.1562499999999999445 ) ) ;
#14 = UNCERTAINTY_MEASURE_WITH_UNIT (LENGTH_MEASURE( 1.000000000000000082E-05 ), #317, 'distance_accuracy_value', 'NONE');
#15 = AXIS2_PLACEMENT_3D ( 'NONE', #242, #243, #69 ) ;
#16 = DIRECTION ( 'NONE',  ( 0.000000000000000000, 0.000000000000000000, -1.000000000000000000 ) ) ;
#17 = UNCERTAINTY_MEASURE_WITH_UNIT (LENGTH_MEASURE( 1.000000000000000082E-05 ), #30, 'distance_accuracy_value', 'NONE');
#18 = CARTESIAN_POINT ( 'NONE',  ( 0.000000000000000000, 0.7500000000000001110, 0.000000000000000000 ) ) ;
#19 = ORIENTED_EDGE ( 'NONE', *, *, #307, .T. ) ;
#20 = AXIS2_PLACEMENT_3D ( 'NONE', #43, #185, #149 ) ;
#21 = FILL_AREA_STYLE_COLOUR ( '', #199 ) ;
#22 = VECTOR ( 'NONE', #45, 39.37007874015748143 ) ;
#23 = SURFACE_SIDE_STYLE ('',( #105 ) ) ;
#24 = SURFACE_SIDE_STYLE ('',( #140 ) ) ;
#25 = EDGE_CURVE ( 'NONE', #91, #360, #252, .T. ) ;
#26 =( NAMED_UNIT ( * ) SI_UNIT ( $, .STERADIAN. ) SOLID_ANGLE_UNIT ( ) );
#27 = AXIS2_PLACEMENT_3D ( 'NONE', #68, #29, #367 ) ;
#28 = DIRECTION ( 'NONE',  ( 0.000000000000000000, 1.000000000000000000, 0.000000000000000000 ) ) ;
#29 = DIRECTION ( 'NONE',  ( -0.000000000000000000, -1.000000000000000000, -0.000000000000000000 ) ) ;
#30 =( CONVERSION_BASED_UNIT ( 'INCH', #293 ) LENGTH_UNIT ( ) NAMED_UNIT ( #60 ) );
#31 = VERTEX_POINT ( 'NONE', #63 ) ;
#32 =( GEOMETRIC_REPRESENTATION_CONTEXT ( 3 ) GLOBAL_UNCERTAINTY_ASSIGNED_CONTEXT ( ( #17 ) ) GLOBAL_UNIT_ASSIGNED_CONTEXT ( ( #30, #332, #26 ) ) REPRESENTATION_CONTEXT ( 'NONE', 'WORKASPACE' ) );
#33 =( NAMED_UNIT ( * ) SI_UNIT ( $, .STERADIAN. ) SOLID_ANGLE_UNIT ( ) );
#34 = DIRECTION ( 'NONE',  ( 0.000000000000000000, 0.000000000000000000, 1.000000000000000000 ) ) ;
#35 = FILL_AREA_STYLE_COLOUR ( '', #72 ) ;
#36 = EDGE_LOOP ( 'NONE', ( #289, #325, #265, #77, #80 ) ) ;
#37 = DIRECTION ( 'NONE',  ( 1.224646799147353207E-16, -1.000000000000000000, 0.000000000000000000 ) ) ;
#38 = EDGE_CURVE ( 'NONE', #360, #91, #189, .T. ) ;
#39 = MANIFOLD_SOLID_BREP ( 'Revolve - Cutting Edge', #136 ) ;
#40 = DIRECTION ( 'NONE',  ( -1.224646799147353207E-16, 1.000000000000000000, -0.000000000000000000 ) ) ;
#41 =( LENGTH_UNIT ( ) NAMED_UNIT ( * ) SI_UNIT ( $, .METRE. ) );
#42 = STYLED_ITEM ( 'NONE', ( #159 ), #277 ) ;
#43 = CARTESIAN_POINT ( 'NONE',  ( -6.123233995736766036E-17, 2.500000000000000000, 0.000000000000000000 ) ) ;
#44 = CYLINDRICAL_SURFACE ( 'NONE', #254, 0.1562499999999998612 ) ;
#45 = DIRECTION ( 'NONE',  ( -0.000000000000000000, -1.000000000000000000, -0.000000000000000000 ) ) ;
#46 = MECHANICAL_DESIGN_GEOMETRIC_PRESENTATION_REPRESENTATION (  '', ( #122 ), #4 ) ;
#47 = CIRCLE ( 'NONE', #137, 0.1562500000000000000 ) ;
#48 = DIRECTION ( 'NONE',  ( -1.224646799147353207E-16, 1.000000000000000000, -0.000000000000000000 ) ) ;
#49 = FACE_OUTER_BOUND ( 'NONE', #145, .T. ) ;
#50 = SURFACE_STYLE_FILL_AREA ( #75 ) ;
#51 = CARTESIAN_POINT ( 'NONE',  ( 1.913510623667738539E-17, 0.1562500000000000000, 0.1562499999999999445 ) ) ;
#52 =( GEOMETRIC_REPRESENTATION_CONTEXT ( 3 ) GLOBAL_UNCERTAINTY_ASSIGNED_CONTEXT ( ( #151 ) ) GLOBAL_UNIT_ASSIGNED_CONTEXT ( ( #87, #282, #93 ) ) REPRESENTATION_CONTEXT ( 'NONE', 'WORKASPACE' ) );
#53 = PRODUCT_DEFINITION ( 'UNKNOWN', '', #334, #209 ) ;
#54 =( CONVERSION_BASED_UNIT ( 'INCH', #306 ) LENGTH_UNIT ( ) NAMED_UNIT ( #95 ) );
#55 = ORIENTED_EDGE ( 'NONE', *, *, #147, .T. ) ;
#56 = COLOUR_RGB ( '',1.000000000000000000, 0.000000000000000000, 0.000000000000000000 ) ;
#57 = ORIENTED_EDGE ( 'NONE', *, *, #99, .T. ) ;
#58 = ORIENTED_EDGE ( 'NONE', *, *, #257, .T. ) ;
#59 = DIRECTION ( 'NONE',  ( 0.000000000000000000, 0.000000000000000000, 1.000000000000000000 ) ) ;
#60 = DIMENSIONAL_EXPONENTS ( 1.000000000000000000, 0.000000000000000000, 0.000000000000000000, 0.000000000000000000, 0.000000000000000000, 0.000000000000000000, 0.000000000000000000 ) ;
#61 = EDGE_LOOP ( 'NONE', ( #108, #94, #168, #55 ) ) ;
#62 = VECTOR ( 'NONE', #40, 39.37007874015748143 ) ;
#63 = CARTESIAN_POINT ( 'NONE',  ( -9.567553118338697316E-18, 0.000000000000000000, 0.000000000000000000 ) ) ;
#64 = EDGE_CURVE ( 'NONE', #2, #319, #314, .T. ) ;
#65 = PLANE ( 'NONE',  #97 ) ;
#66 = PRODUCT_CONTEXT ( 'NONE', #224, 'mechanical' ) ;
#67 = CARTESIAN_POINT ( 'NONE',  ( -6.123233995736766036E-17, 2.500000000000000000, 0.000000000000000000 ) ) ;
#68 = CARTESIAN_POINT ( 'NONE',  ( 0.000000000000000000, 0.000000000000000000, 0.000000000000000000 ) ) ;
#69 = DIRECTION ( 'NONE',  ( 0.000000000000000000, 0.000000000000000000, -1.000000000000000000 ) ) ;
#70 = CIRCLE ( 'NONE', #232, 0.1562500000000000000 ) ;
#71 = PRESENTATION_LAYER_ASSIGNMENT (  '', '', ( #297 ) ) ;
#72 = COLOUR_RGB ( '',0.7921568627450980005, 0.8196078431372548767, 0.9333333333333333481 ) ;
#73 = STYLED_ITEM ( 'NONE', ( #116 ), #74 ) ;
#74 = ADVANCED_FACE ( 'NONE', ( #144 ), #125, .T. ) ;
#75 = FILL_AREA_STYLE ('',( #21 ) ) ;
#76 = FILL_AREA_STYLE ('',( #248 ) ) ;
#77 = ORIENTED_EDGE ( 'NONE', *, *, #64, .F. ) ;
#78 = SURFACE_STYLE_USAGE ( .BOTH. , #304 ) ;
#79 = FILL_AREA_STYLE ('',( #165 ) ) ;
#80 = ORIENTED_EDGE ( 'NONE', *, *, #257, .F. ) ;
#81 = SURFACE_STYLE_FILL_AREA ( #76 ) ;
#82 = EDGE_CURVE ( 'NONE', #203, #349, #240, .T. ) ;
#83 = AXIS2_PLACEMENT_3D ( 'NONE', #238, #318, #370 ) ;
#84 = MECHANICAL_DESIGN_GEOMETRIC_PRESENTATION_REPRESENTATION (  '', ( #264 ), #102 ) ;
#85 = EDGE_LOOP ( 'NONE', ( #57, #347, #182, #207, #213 ) ) ;
#86 =( CONVERSION_BASED_UNIT ( 'INCH', #225 ) LENGTH_UNIT ( ) NAMED_UNIT ( #300 ) );
#87 =( CONVERSION_BASED_UNIT ( 'INCH', #260 ) LENGTH_UNIT ( ) NAMED_UNIT ( #104 ) );
#88 = PRESENTATION_LAYER_ASSIGNMENT (  '', '', ( #264 ) ) ;
#89 = DIRECTION ( 'NONE',  ( -1.000000000000000000, 0.000000000000000000, 0.000000000000000000 ) ) ;
#90 =( NAMED_UNIT ( * ) SI_UNIT ( $, .STERADIAN. ) SOLID_ANGLE_UNIT ( ) );
#91 = VERTEX_POINT ( 'NONE', #338 ) ;
#92 =( NAMED_UNIT ( * ) PLANE_ANGLE_UNIT ( ) SI_UNIT ( $, .RADIAN. ) );
#93 =( NAMED_UNIT ( * ) SI_UNIT ( $, .STERADIAN. ) SOLID_ANGLE_UNIT ( ) );
#94 = ORIENTED_EDGE ( 'NONE', *, *, #64, .T. ) ;
#95 = DIMENSIONAL_EXPONENTS ( 1.000000000000000000, 0.000000000000000000, 0.000000000000000000, 0.000000000000000000, 0.000000000000000000, 0.000000000000000000, 0.000000000000000000 ) ;
#96 = DIRECTION ( 'NONE',  ( 0.000000000000000000, 0.000000000000000000, -1.000000000000000000 ) ) ;
#97 = AXIS2_PLACEMENT_3D ( 'NONE', #292, #37, #120 ) ;
#98 = CARTESIAN_POINT ( 'NONE',  ( -0.1562499999999999445, 2.500000000000000000, 0.000000000000000000 ) ) ;
#99 = EDGE_CURVE ( 'NONE', #219, #362, #276, .T. ) ;
#100 = PRESENTATION_STYLE_ASSIGNMENT (( #6 ) ) ;
#101 = CARTESIAN_POINT ( 'NONE',  ( 0.000000000000000000, 0.000000000000000000, 0.000000000000000000 ) ) ;
#102 =( GEOMETRIC_REPRESENTATION_CONTEXT ( 3 ) GLOBAL_UNCERTAINTY_ASSIGNED_CONTEXT ( ( #14 ) ) GLOBAL_UNIT_ASSIGNED_CONTEXT ( ( #317, #92, #237 ) ) REPRESENTATION_CONTEXT ( 'NONE', 'WORKASPACE' ) );
#103 =( GEOMETRIC_REPRESENTATION_CONTEXT ( 3 ) GLOBAL_UNCERTAINTY_ASSIGNED_CONTEXT ( ( #355 ) ) GLOBAL_UNIT_ASSIGNED_CONTEXT ( ( #54, #359, #107 ) ) REPRESENTATION_CONTEXT ( 'NONE', 'WORKASPACE' ) );
#104 = DIMENSIONAL_EXPONENTS ( 1.000000000000000000, 0.000000000000000000, 0.000000000000000000, 0.000000000000000000, 0.000000000000000000, 0.000000000000000000, 0.000000000000000000 ) ;
#105 = SURFACE_STYLE_FILL_AREA ( #79 ) ;
#106 = UNCERTAINTY_MEASURE_WITH_UNIT (LENGTH_MEASURE( 1.000000000000000082E-05 ), #286, 'distance_accuracy_value', 'NONE');
#107 =( NAMED_UNIT ( * ) SI_UNIT ( $, .STERADIAN. ) SOLID_ANGLE_UNIT ( ) );
#108 = ORIENTED_EDGE ( 'NONE', *, *, #323, .F. ) ;
#109 = FACE_OUTER_BOUND ( 'NONE', #166, .T. ) ;
#110 = PRESENTATION_LAYER_ASSIGNMENT (  '', '', ( #73 ) ) ;
#111 = FACE_OUTER_BOUND ( 'NONE', #320, .T. ) ;
#112 = CARTESIAN_POINT ( 'NONE',  ( -1.913510623667739463E-17, 0.1562500000000000000, 0.000000000000000000 ) ) ;
#113 =( LENGTH_UNIT ( ) NAMED_UNIT ( * ) SI_UNIT ( $, .METRE. ) );
#114 = PRESENTATION_STYLE_ASSIGNMENT (( #174 ) ) ;
#115 = ADVANCED_FACE ( 'NONE', ( #109 ), #250, .T. ) ;
#116 = PRESENTATION_STYLE_ASSIGNMENT (( #227 ) ) ;
#117 = FILL_AREA_STYLE_COLOUR ( '', #56 ) ;
#118 = ADVANCED_FACE ( 'NONE', ( #305 ), #278, .T. ) ;
#119 = ORIENTED_EDGE ( 'NONE', *, *, #190, .T. ) ;
#120 = DIRECTION ( 'NONE',  ( 1.000000000000000000, 1.224646799147353207E-16, 0.000000000000000000 ) ) ;
#121 = DIRECTION ( 'NONE',  ( 0.000000000000000000, 0.000000000000000000, -1.000000000000000000 ) ) ;
#122 = STYLED_ITEM ( 'NONE', ( #114 ), #39 ) ;
#123 = MECHANICAL_DESIGN_GEOMETRIC_PRESENTATION_REPRESENTATION (  '', ( #291 ), #363 ) ;
#124 = PRODUCT_RELATED_PRODUCT_CATEGORY ( 'part', '', ( #321 ) ) ;
#125 = SPHERICAL_SURFACE ( 'NONE', #336, 0.1562500000000000000 ) ;
#126 = FACE_OUTER_BOUND ( 'NONE', #330, .T. ) ;
#127 = UNCERTAINTY_MEASURE_WITH_UNIT (LENGTH_MEASURE( 1.000000000000000082E-05 ), #273, 'distance_accuracy_value', 'NONE');
#128 = PLANE ( 'NONE',  #198 ) ;
#129 = DIMENSIONAL_EXPONENTS ( 1.000000000000000000, 0.000000000000000000, 0.000000000000000000, 0.000000000000000000, 0.000000000000000000, 0.000000000000000000, 0.000000000000000000 ) ;
#130 = DIRECTION ( 'NONE',  ( 0.000000000000000000, 0.000000000000000000, -1.000000000000000000 ) ) ;
#131 = EDGE_CURVE ( 'NONE', #362, #349, #9, .T. ) ;
#132 = ORIENTED_EDGE ( 'NONE', *, *, #184, .F. ) ;
#133 = DIRECTION ( 'NONE',  ( -1.224646799147353207E-16, 1.000000000000000000, -0.000000000000000000 ) ) ;
#134 = PRESENTATION_STYLE_ASSIGNMENT (( #313 ) ) ;
#135 = CARTESIAN_POINT ( 'NONE',  ( 0.1562499999999998057, 2.500000000000000000, 1.913510623667737923E-17 ) ) ;
#136 = CLOSED_SHELL ( 'NONE', ( #365, #277, #12, #118, #74 ) ) ;
#137 = AXIS2_PLACEMENT_3D ( 'NONE', #112, #220, #364 ) ;
#138 =( LENGTH_UNIT ( ) NAMED_UNIT ( * ) SI_UNIT ( $, .METRE. ) );
#139 = ADVANCED_BREP_SHAPE_REPRESENTATION ( '83365', ( #39, #281, #327 ), #196 ) ;
#140 = SURFACE_STYLE_FILL_AREA ( #279 ) ;
#141 = DIRECTION ( 'NONE',  ( -1.224646799147353207E-16, 1.000000000000000000, -0.000000000000000000 ) ) ;
#142 = APPLICATION_PROTOCOL_DEFINITION ( 'draft international standard', 'automotive_design', 1998, #224 ) ;
#143 = CARTESIAN_POINT ( 'NONE',  ( 0.000000000000000000, 0.1562500000000000000, 0.000000000000000000 ) ) ;
#144 = FACE_OUTER_BOUND ( 'NONE', #61, .T. ) ;
#145 = EDGE_LOOP ( 'NONE', ( #344, #290 ) ) ;
#146 = PLANE ( 'NONE',  #284 ) ;
#147 = EDGE_CURVE ( 'NONE', #203, #31, #70, .T. ) ;
#148 = EDGE_LOOP ( 'NONE', ( #58, #258, #223, #285 ) ) ;
#149 = DIRECTION ( 'NONE',  ( -1.000000000000000000, 0.000000000000000000, 0.000000000000000000 ) ) ;
#150 = CARTESIAN_POINT ( 'NONE',  ( -0.1562500000000000000, 0.1562500000000000000, 1.913510623667738539E-17 ) ) ;
#151 = UNCERTAINTY_MEASURE_WITH_UNIT (LENGTH_MEASURE( 1.000000000000000082E-05 ), #87, 'distance_accuracy_value', 'NONE');
#152 = CARTESIAN_POINT ( 'NONE',  ( 0.000000000000000000, 0.1562500000000000000, 0.000000000000000000 ) ) ;
#153 = CIRCLE ( 'NONE', #160, 0.1562499999999999722 ) ;
#154 = DIRECTION ( 'NONE',  ( -1.224646799147353207E-16, 1.000000000000000000, -0.000000000000000000 ) ) ;
#155 = DIRECTION ( 'NONE',  ( -1.000000000000000000, 0.000000000000000000, 0.000000000000000000 ) ) ;
#156 = SURFACE_SIDE_STYLE ('',( #272 ) ) ;
#157 =( LENGTH_UNIT ( ) NAMED_UNIT ( * ) SI_UNIT ( $, .METRE. ) );
#158 = EDGE_CURVE ( 'NONE', #362, #219, #173, .T. ) ;
#159 = PRESENTATION_STYLE_ASSIGNMENT (( #78 ) ) ;
#160 = AXIS2_PLACEMENT_3D ( 'NONE', #67, #154, #335 ) ;
#161 = SURFACE_SIDE_STYLE ('',( #81 ) ) ;
#162 = DIRECTION ( 'NONE',  ( 0.000000000000000000, 0.000000000000000000, -1.000000000000000000 ) ) ;
#163 = ORIENTED_EDGE ( 'NONE', *, *, #38, .T. ) ;
#164 = CARTESIAN_POINT ( 'NONE',  ( 0.000000000000000000, 0.000000000000000000, -0.1562499999999999445 ) ) ;
#165 = FILL_AREA_STYLE_COLOUR ( '', #352 ) ;
#166 = EDGE_LOOP ( 'NONE', ( #235, #288, #366, #11 ) ) ;
#167 = CARTESIAN_POINT ( 'NONE',  ( -6.123233995736766036E-17, 2.500000000000000000, 0.000000000000000000 ) ) ;
#168 = ORIENTED_EDGE ( 'NONE', *, *, #178, .T. ) ;
#169 = VECTOR ( 'NONE', #256, 39.37007874015748143 ) ;
#170 = SURFACE_STYLE_FILL_AREA ( #1 ) ;
#171 = SHAPE_DEFINITION_REPRESENTATION ( #176, #139 ) ;
#172 = CARTESIAN_POINT ( 'NONE',  ( 0.000000000000000000, 0.1562500000000000000, 0.000000000000000000 ) ) ;
#173 = CIRCLE ( 'NONE', #15, 0.1562499999999999167 ) ;
#174 = SURFACE_STYLE_USAGE ( .BOTH. , #324 ) ;
#175 = ORIENTED_EDGE ( 'NONE', *, *, #5, .F. ) ;
#176 = PRODUCT_DEFINITION_SHAPE ( 'NONE', 'NONE',  #53 ) ;
#177 = CARTESIAN_POINT ( 'NONE',  ( -1.913510623667739463E-17, 0.1562500000000000000, 0.000000000000000000 ) ) ;
#178 = EDGE_CURVE ( 'NONE', #319, #203, #358, .T. ) ;
#179 = FILL_AREA_STYLE ('',( #8 ) ) ;
#180 = PRESENTATION_LAYER_ASSIGNMENT (  '', '', ( #371 ) ) ;
#181 = AXIS2_PLACEMENT_3D ( 'NONE', #101, #270, #96 ) ;
#182 = ORIENTED_EDGE ( 'NONE', *, *, #82, .F. ) ;
#183 = LINE ( 'NONE', #98, #62 ) ;
#184 = EDGE_CURVE ( 'NONE', #360, #339, #183, .T. ) ;
#185 = DIRECTION ( 'NONE',  ( -1.224646799147353207E-16, 1.000000000000000000, -0.000000000000000000 ) ) ;
#186 = CARTESIAN_POINT ( 'NONE',  ( -1.913510623667739463E-17, 0.1562500000000000000, 0.000000000000000000 ) ) ;
#187 = CYLINDRICAL_SURFACE ( 'NONE', #27, 0.1562499999999999445 ) ;
#188 = CARTESIAN_POINT ( 'NONE',  ( 0.000000000000000000, 0.7500000000000001110, 0.000000000000000000 ) ) ;
#189 = CIRCLE ( 'NONE', #83, 0.1562499999999997780 ) ;
#190 = EDGE_CURVE ( 'NONE', #308, #339, #333, .T. ) ;
#191 = DIRECTION ( 'NONE',  ( 1.000000000000000000, 0.000000000000000000, 0.000000000000000000 ) ) ;
#192 =( NAMED_UNIT ( * ) PLANE_ANGLE_UNIT ( ) SI_UNIT ( $, .RADIAN. ) );
#193 = FACE_OUTER_BOUND ( 'NONE', #148, .T. ) ;
#194 = CIRCLE ( 'NONE', #212, 0.1562499999999999445 ) ;
#195 = EDGE_LOOP ( 'NONE', ( #201, #119 ) ) ;
#196 =( GEOMETRIC_REPRESENTATION_CONTEXT ( 3 ) GLOBAL_UNCERTAINTY_ASSIGNED_CONTEXT ( ( #106 ) ) GLOBAL_UNIT_ASSIGNED_CONTEXT ( ( #286, #208, #90 ) ) REPRESENTATION_CONTEXT ( 'NONE', 'WORKASPACE' ) );
#197 = CARTESIAN_POINT ( 'NONE',  ( -1.913510623667739463E-17, 0.1562500000000000000, 0.000000000000000000 ) ) ;
#198 = AXIS2_PLACEMENT_3D ( 'NONE', #18, #28, #255 ) ;
#199 = COLOUR_RGB ( '',1.000000000000000000, 0.000000000000000000, 0.000000000000000000 ) ;
#200 =( NAMED_UNIT ( * ) SI_UNIT ( $, .STERADIAN. ) SOLID_ANGLE_UNIT ( ) );
#201 = ORIENTED_EDGE ( 'NONE', *, *, #5, .T. ) ;
#202 =( LENGTH_UNIT ( ) NAMED_UNIT ( * ) SI_UNIT ( $, .METRE. ) );
#203 = VERTEX_POINT ( 'NONE', #328 ) ;
#204 = PRESENTATION_LAYER_ASSIGNMENT (  '', '', ( #122 ) ) ;
#205 = DIRECTION ( 'NONE',  ( -0.000000000000000000, -1.000000000000000000, -0.000000000000000000 ) ) ;
#206 = SURFACE_STYLE_FILL_AREA ( #368 ) ;
#207 = ORIENTED_EDGE ( 'NONE', *, *, #178, .F. ) ;
#208 =( NAMED_UNIT ( * ) PLANE_ANGLE_UNIT ( ) SI_UNIT ( $, .RADIAN. ) );
#209 = PRODUCT_DEFINITION_CONTEXT ( 'detailed design', #214, 'design' ) ;
#210 = UNCERTAINTY_MEASURE_WITH_UNIT (LENGTH_MEASURE( 1.000000000000000082E-05 ), #343, 'distance_accuracy_value', 'NONE');
#211 = SURFACE_STYLE_USAGE ( .BOTH. , #23 ) ;
#212 = AXIS2_PLACEMENT_3D ( 'NONE', #241, #353, #162 ) ;
#213 = ORIENTED_EDGE ( 'NONE', *, *, #269, .F. ) ;
#214 = APPLICATION_CONTEXT ( 'automotive_design' ) ;
#215 = PRESENTATION_STYLE_ASSIGNMENT (( #341 ) ) ;
#216 =( LENGTH_UNIT ( ) NAMED_UNIT ( * ) SI_UNIT ( $, .METRE. ) );
#217 = PRESENTATION_STYLE_ASSIGNMENT (( #211 ) ) ;
#218 = CARTESIAN_POINT ( 'NONE',  ( -0.1562499999999996392, 0.7499999999999998890, 0.000000000000000000 ) ) ;
#219 = VERTEX_POINT ( 'NONE', #350 ) ;
#220 = DIRECTION ( 'NONE',  ( 1.224646799147353207E-16, -0.000000000000000000, 1.000000000000000000 ) ) ;
#221 = PRESENTATION_LAYER_ASSIGNMENT (  '', '', ( #291 ) ) ;
#222 =( LENGTH_UNIT ( ) NAMED_UNIT ( * ) SI_UNIT ( $, .METRE. ) );
#223 = ORIENTED_EDGE ( 'NONE', *, *, #147, .F. ) ;
#224 = APPLICATION_CONTEXT ( 'automotive_design' ) ;
#225 = LENGTH_MEASURE_WITH_UNIT ( LENGTH_MEASURE( 0.02539999999999999897 ), #113 );
#226 = LENGTH_MEASURE_WITH_UNIT ( LENGTH_MEASURE( 0.02539999999999999897 ), #157 );
#227 = SURFACE_STYLE_USAGE ( .BOTH. , #234 ) ;
#228 = CARTESIAN_POINT ( 'NONE',  ( 1.913510623667738231E-17, 0.7500000000000001110, 0.1562499999999999167 ) ) ;
#229 = ORIENTED_EDGE ( 'NONE', *, *, #25, .F. ) ;
#230 = DIRECTION ( 'NONE',  ( 1.000000000000000000, 0.000000000000000000, 0.000000000000000000 ) ) ;
#231 = AXIS2_PLACEMENT_3D ( 'NONE', #152, #205, #121 ) ;
#232 = AXIS2_PLACEMENT_3D ( 'NONE', #177, #130, #294 ) ;
#233 = AXIS2_PLACEMENT_3D ( 'NONE', #197, #34, #230 ) ;
#234 = SURFACE_SIDE_STYLE ('',( #206 ) ) ;
#235 = ORIENTED_EDGE ( 'NONE', *, *, #307, .F. ) ;
#236 = CARTESIAN_POINT ( 'NONE',  ( 1.530808498934191817E-16, 0.7499999999999998890, 0.000000000000000000 ) ) ;
#237 =( NAMED_UNIT ( * ) SI_UNIT ( $, .STERADIAN. ) SOLID_ANGLE_UNIT ( ) );
#238 = CARTESIAN_POINT ( 'NONE',  ( 1.530808498934191817E-16, 0.7499999999999998890, 0.000000000000000000 ) ) ;
#239 = ADVANCED_FACE ( 'NONE', ( #301 ), #65, .F. ) ;
#240 = CIRCLE ( 'NONE', #372, 0.1562499999999999445 ) ;
#241 = CARTESIAN_POINT ( 'NONE',  ( 0.000000000000000000, 0.1562500000000000000, 0.000000000000000000 ) ) ;
#242 = CARTESIAN_POINT ( 'NONE',  ( 0.000000000000000000, 0.7500000000000001110, 0.000000000000000000 ) ) ;
#243 = DIRECTION ( 'NONE',  ( -0.000000000000000000, -1.000000000000000000, -0.000000000000000000 ) ) ;
#244 = COLOUR_RGB ( '',0.7921568627450980005, 0.8196078431372548767, 0.9333333333333333481 ) ;
#245 = FACE_OUTER_BOUND ( 'NONE', #85, .T. ) ;
#246 = COLOUR_RGB ( '',1.000000000000000000, 0.000000000000000000, 0.000000000000000000 ) ;
#247 = VECTOR ( 'NONE', #303, 39.37007874015748143 ) ;
#248 = FILL_AREA_STYLE_COLOUR ( '', #7 ) ;
#249 = ADVANCED_FACE ( 'NONE', ( #126 ), #146, .F. ) ;
#250 = CYLINDRICAL_SURFACE ( 'NONE', #316, 0.1562499999999998612 ) ;
#251 = CARTESIAN_POINT ( 'NONE',  ( -0.1562500000000000278, 2.500000000000000000, 0.000000000000000000 ) ) ;
#252 = CIRCLE ( 'NONE', #356, 0.1562499999999997780 ) ;
#253 = CARTESIAN_POINT ( 'NONE',  ( 0.1562499999999999167, 2.500000000000000000, 1.913510623667738231E-17 ) ) ;
#254 = AXIS2_PLACEMENT_3D ( 'NONE', #167, #133, #280 ) ;
#255 = DIRECTION ( 'NONE',  ( 0.000000000000000000, -0.000000000000000000, 1.000000000000000000 ) ) ;
#256 = DIRECTION ( 'NONE',  ( -1.224646799147353207E-16, 1.000000000000000000, -0.000000000000000000 ) ) ;
#257 = EDGE_CURVE ( 'NONE', #349, #2, #194, .T. ) ;
#258 = ORIENTED_EDGE ( 'NONE', *, *, #323, .T. ) ;
#259 =( NAMED_UNIT ( * ) PLANE_ANGLE_UNIT ( ) SI_UNIT ( $, .RADIAN. ) );
#260 = LENGTH_MEASURE_WITH_UNIT ( LENGTH_MEASURE( 0.02539999999999999897 ), #329 );
#261 = APPLICATION_PROTOCOL_DEFINITION ( 'draft international standard', 'automotive_design', 1998, #214 ) ;
#262 = DIRECTION ( 'NONE',  ( -0.000000000000000000, -1.000000000000000000, -0.000000000000000000 ) ) ;
#263 = MECHANICAL_DESIGN_GEOMETRIC_PRESENTATION_REPRESENTATION (  '', ( #371 ), #309 ) ;
#264 = STYLED_ITEM ( 'NONE', ( #217 ), #118 ) ;
#265 = ORIENTED_EDGE ( 'NONE', *, *, #269, .T. ) ;
#266 =( NAMED_UNIT ( * ) PLANE_ANGLE_UNIT ( ) SI_UNIT ( $, .RADIAN. ) );
#267 = DIRECTION ( 'NONE',  ( -1.224646799147353207E-16, 1.000000000000000000, 0.000000000000000000 ) ) ;
#268 = FILL_AREA_STYLE_COLOUR ( '', #244 ) ;
#269 = EDGE_CURVE ( 'NONE', #219, #319, #337, .T. ) ;
#270 = DIRECTION ( 'NONE',  ( -0.000000000000000000, -1.000000000000000000, -0.000000000000000000 ) ) ;
#271 = MECHANICAL_DESIGN_GEOMETRIC_PRESENTATION_REPRESENTATION (  '', ( #297 ), #103 ) ;
#272 = SURFACE_STYLE_FILL_AREA ( #179 ) ;
#273 =( CONVERSION_BASED_UNIT ( 'INCH', #342 ) LENGTH_UNIT ( ) NAMED_UNIT ( #348 ) );
#274 = ORIENTED_EDGE ( 'NONE', *, *, #38, .F. ) ;
#275 = DIRECTION ( 'NONE',  ( -0.000000000000000000, -1.000000000000000000, -0.000000000000000000 ) ) ;
#276 = CIRCLE ( 'NONE', #345, 0.1562499999999999167 ) ;
#277 = ADVANCED_FACE ( 'NONE', ( #245 ), #187, .T. ) ;
#278 = CYLINDRICAL_SURFACE ( 'NONE', #181, 0.1562499999999999445 ) ;
#279 = FILL_AREA_STYLE ('',( #268 ) ) ;
#280 = DIRECTION ( 'NONE',  ( -1.000000000000000000, 0.000000000000000000, 0.000000000000000000 ) ) ;
#281 = MANIFOLD_SOLID_BREP ( 'Revolve - Tool Body (Straight Shanked)', #351 ) ;
#282 =( NAMED_UNIT ( * ) PLANE_ANGLE_UNIT ( ) SI_UNIT ( $, .RADIAN. ) );
#283 = LINE ( 'NONE', #135, #169 ) ;
#284 = AXIS2_PLACEMENT_3D ( 'NONE', #331, #267, #298 ) ;
#285 = ORIENTED_EDGE ( 'NONE', *, *, #82, .T. ) ;
#286 =( CONVERSION_BASED_UNIT ( 'INCH', #315 ) LENGTH_UNIT ( ) NAMED_UNIT ( #346 ) );
#287 = LENGTH_MEASURE_WITH_UNIT ( LENGTH_MEASURE( 0.02539999999999999897 ), #138 );
#288 = ORIENTED_EDGE ( 'NONE', *, *, #25, .T. ) ;
#289 = ORIENTED_EDGE ( 'NONE', *, *, #131, .F. ) ;
#290 = ORIENTED_EDGE ( 'NONE', *, *, #158, .F. ) ;
#291 = STYLED_ITEM ( 'NONE', ( #134 ), #281 ) ;
#292 = CARTESIAN_POINT ( 'NONE',  ( 0.1562499999999999167, 2.500000000000000000, 0.000000000000000000 ) ) ;
#293 = LENGTH_MEASURE_WITH_UNIT ( LENGTH_MEASURE( 0.02539999999999999897 ), #216 );
#294 = DIRECTION ( 'NONE',  ( -1.000000000000000000, 0.000000000000000000, 0.000000000000000000 ) ) ;
#295 = ADVANCED_FACE ( 'NONE', ( #111 ), #44, .T. ) ;
#296 = MECHANICAL_DESIGN_GEOMETRIC_PRESENTATION_REPRESENTATION (  '', ( #73 ), #52 ) ;
#297 = STYLED_ITEM ( 'NONE', ( #215 ), #365 ) ;
#298 = DIRECTION ( 'NONE',  ( -1.000000000000000000, -1.224646799147353207E-16, 0.000000000000000000 ) ) ;
#299 = UNCERTAINTY_MEASURE_WITH_UNIT (LENGTH_MEASURE( 1.000000000000000082E-05 ), #86, 'distance_accuracy_value', 'NONE');
#300 = DIMENSIONAL_EXPONENTS ( 1.000000000000000000, 0.000000000000000000, 0.000000000000000000, 0.000000000000000000, 0.000000000000000000, 0.000000000000000000, 0.000000000000000000 ) ;
#301 = FACE_OUTER_BOUND ( 'NONE', #195, .T. ) ;
#302 = DIRECTION ( 'NONE',  ( -0.000000000000000000, -1.000000000000000000, -0.000000000000000000 ) ) ;
#303 = DIRECTION ( 'NONE',  ( -0.000000000000000000, -1.000000000000000000, -0.000000000000000000 ) ) ;
#304 = SURFACE_SIDE_STYLE ('',( #50 ) ) ;
#305 = FACE_OUTER_BOUND ( 'NONE', #36, .T. ) ;
#306 = LENGTH_MEASURE_WITH_UNIT ( LENGTH_MEASURE( 0.02539999999999999897 ), #222 );
#307 = EDGE_CURVE ( 'NONE', #91, #308, #283, .T. ) ;
#308 = VERTEX_POINT ( 'NONE', #253 ) ;
#309 =( GEOMETRIC_REPRESENTATION_CONTEXT ( 3 ) GLOBAL_UNCERTAINTY_ASSIGNED_CONTEXT ( ( #127 ) ) GLOBAL_UNIT_ASSIGNED_CONTEXT ( ( #273, #192, #311 ) ) REPRESENTATION_CONTEXT ( 'NONE', 'WORKASPACE' ) );
#310 = DIRECTION ( 'NONE',  ( 0.000000000000000000, 0.000000000000000000, -1.000000000000000000 ) ) ;
#311 =( NAMED_UNIT ( * ) SI_UNIT ( $, .STERADIAN. ) SOLID_ANGLE_UNIT ( ) );
#312 = SPHERICAL_SURFACE ( 'NONE', #233, 0.1562500000000000000 ) ;
#313 = SURFACE_STYLE_USAGE ( .BOTH. , #24 ) ;
#314 = CIRCLE ( 'NONE', #357, 0.1562499999999999445 ) ;
#315 = LENGTH_MEASURE_WITH_UNIT ( LENGTH_MEASURE( 0.02539999999999999897 ), #202 );
#316 = AXIS2_PLACEMENT_3D ( 'NONE', #361, #48, #155 ) ;
#317 =( CONVERSION_BASED_UNIT ( 'INCH', #226 ) LENGTH_UNIT ( ) NAMED_UNIT ( #129 ) );
#318 = DIRECTION ( 'NONE',  ( -1.224646799147353207E-16, 1.000000000000000000, -0.000000000000000000 ) ) ;
#319 = VERTEX_POINT ( 'NONE', #369 ) ;
#320 = EDGE_LOOP ( 'NONE', ( #163, #19, #175, #132 ) ) ;
#321 = PRODUCT ( '83365', '83365', '', ( #66 ) ) ;
#322 = CARTESIAN_POINT ( 'NONE',  ( 0.000000000000000000, 0.000000000000000000, 0.000000000000000000 ) ) ;
#323 = EDGE_CURVE ( 'NONE', #2, #31, #47, .T. ) ;
#324 = SURFACE_SIDE_STYLE ('',( #170 ) ) ;
#325 = ORIENTED_EDGE ( 'NONE', *, *, #158, .T. ) ;
#326 = MECHANICAL_DESIGN_GEOMETRIC_PRESENTATION_REPRESENTATION (  '', ( #42 ), #32 ) ;
#327 = AXIS2_PLACEMENT_3D ( 'NONE', #322, #59, #3 ) ;
#328 = CARTESIAN_POINT ( 'NONE',  ( 0.1562499999999999445, 0.1562500000000000000, 0.000000000000000000 ) ) ;
#329 =( LENGTH_UNIT ( ) NAMED_UNIT ( * ) SI_UNIT ( $, .METRE. ) );
#330 = EDGE_LOOP ( 'NONE', ( #274, #229 ) ) ;
#331 = CARTESIAN_POINT ( 'NONE',  ( 1.530808498934191817E-16, 0.7500000000000001110, 0.000000000000000000 ) ) ;
#332 =( NAMED_UNIT ( * ) PLANE_ANGLE_UNIT ( ) SI_UNIT ( $, .RADIAN. ) );
#333 = CIRCLE ( 'NONE', #20, 0.1562499999999999722 ) ;
#334 = PRODUCT_DEFINITION_FORMATION_WITH_SPECIFIED_SOURCE ( 'ANY', '', #321, .NOT_KNOWN. ) ;
#335 = DIRECTION ( 'NONE',  ( -1.000000000000000000, 0.000000000000000000, 0.000000000000000000 ) ) ;
#336 = AXIS2_PLACEMENT_3D ( 'NONE', #186, #10, #191 ) ;
#337 = LINE ( 'NONE', #164, #247 ) ;
#338 = CARTESIAN_POINT ( 'NONE',  ( 0.1562499999999999167, 0.7499999999999998890, 1.913510623667738231E-17 ) ) ;
#339 = VERTEX_POINT ( 'NONE', #251 ) ;
#340 = PRESENTATION_LAYER_ASSIGNMENT (  '', '', ( #42 ) ) ;
#341 = SURFACE_STYLE_USAGE ( .BOTH. , #161 ) ;
#342 = LENGTH_MEASURE_WITH_UNIT ( LENGTH_MEASURE( 0.02539999999999999897 ), #41 );
#343 =( CONVERSION_BASED_UNIT ( 'INCH', #287 ) LENGTH_UNIT ( ) NAMED_UNIT ( #354 ) );
#344 = ORIENTED_EDGE ( 'NONE', *, *, #99, .F. ) ;
#345 = AXIS2_PLACEMENT_3D ( 'NONE', #188, #302, #310 ) ;
#346 = DIMENSIONAL_EXPONENTS ( 1.000000000000000000, 0.000000000000000000, 0.000000000000000000, 0.000000000000000000, 0.000000000000000000, 0.000000000000000000, 0.000000000000000000 ) ;
#347 = ORIENTED_EDGE ( 'NONE', *, *, #131, .T. ) ;
#348 = DIMENSIONAL_EXPONENTS ( 1.000000000000000000, 0.000000000000000000, 0.000000000000000000, 0.000000000000000000, 0.000000000000000000, 0.000000000000000000, 0.000000000000000000 ) ;
#349 = VERTEX_POINT ( 'NONE', #51 ) ;
#350 = CARTESIAN_POINT ( 'NONE',  ( 0.000000000000000000, 0.7500000000000001110, -0.1562499999999999167 ) ) ;
#351 = CLOSED_SHELL ( 'NONE', ( #295, #249, #115, #239 ) ) ;
#352 = COLOUR_RGB ( '',1.000000000000000000, 0.000000000000000000, 0.000000000000000000 ) ;
#353 = DIRECTION ( 'NONE',  ( -0.000000000000000000, -1.000000000000000000, -0.000000000000000000 ) ) ;
#354 = DIMENSIONAL_EXPONENTS ( 1.000000000000000000, 0.000000000000000000, 0.000000000000000000, 0.000000000000000000, 0.000000000000000000, 0.000000000000000000, 0.000000000000000000 ) ;
#355 = UNCERTAINTY_MEASURE_WITH_UNIT (LENGTH_MEASURE( 1.000000000000000082E-05 ), #54, 'distance_accuracy_value', 'NONE');
#356 = AXIS2_PLACEMENT_3D ( 'NONE', #236, #141, #89 ) ;
#357 = AXIS2_PLACEMENT_3D ( 'NONE', #143, #262, #373 ) ;
#358 = CIRCLE ( 'NONE', #231, 0.1562499999999999445 ) ;
#359 =( NAMED_UNIT ( * ) PLANE_ANGLE_UNIT ( ) SI_UNIT ( $, .RADIAN. ) );
#360 = VERTEX_POINT ( 'NONE', #218 ) ;
#361 = CARTESIAN_POINT ( 'NONE',  ( -6.123233995736766036E-17, 2.500000000000000000, 0.000000000000000000 ) ) ;
#362 = VERTEX_POINT ( 'NONE', #228 ) ;
#363 =( GEOMETRIC_REPRESENTATION_CONTEXT ( 3 ) GLOBAL_UNCERTAINTY_ASSIGNED_CONTEXT ( ( #299 ) ) GLOBAL_UNIT_ASSIGNED_CONTEXT ( ( #86, #259, #200 ) ) REPRESENTATION_CONTEXT ( 'NONE', 'WORKASPACE' ) );
#364 = DIRECTION ( 'NONE',  ( 1.000000000000000000, 0.000000000000000000, -1.224646799147353207E-16 ) ) ;
#365 = ADVANCED_FACE ( 'NONE', ( #193 ), #312, .T. ) ;
#366 = ORIENTED_EDGE ( 'NONE', *, *, #184, .T. ) ;
#367 = DIRECTION ( 'NONE',  ( 0.000000000000000000, 0.000000000000000000, -1.000000000000000000 ) ) ;
#368 = FILL_AREA_STYLE ('',( #117 ) ) ;
#369 = CARTESIAN_POINT ( 'NONE',  ( 0.000000000000000000, 0.1562500000000000000, -0.1562499999999999445 ) ) ;
#370 = DIRECTION ( 'NONE',  ( -1.000000000000000000, 0.000000000000000000, 0.000000000000000000 ) ) ;
#371 = STYLED_ITEM ( 'NONE', ( #100 ), #12 ) ;
#372 = AXIS2_PLACEMENT_3D ( 'NONE', #172, #275, #16 ) ;
#373 = DIRECTION ( 'NONE',  ( 0.000000000000000000, 0.000000000000000000, -1.000000000000000000 ) ) ;
ENDSEC;
END-ISO-10303-21;
