ISO-10303-21;
HEADER;
/* Generated by software containing ST-Developer
 * from STEP Tools, Inc. (www.steptools.com) 
 */

FILE_DESCRIPTION(
/* description */ (''),
/* implementation_level */ '2;1');

FILE_NAME(
/* name */ 'Helical_86292.step',
/* time_stamp */ '2023-07-10T15:25:08-04:00',
/* author */ (''),
/* organization */ (''),
/* preprocessor_version */ 'ST-DEVELOPER v19.2',
/* originating_system */ 'Autodesk Translation Framework v12.6.0.85',
/* authorisation */ '');

FILE_SCHEMA (('AUTOMOTIVE_DESIGN { 1 0 10303 214 3 1 1 }'));
ENDSEC;

DATA;
#10=MECHANICAL_DESIGN_GEOMETRIC_PRESENTATION_REPRESENTATION('',(#13),#171);
#11=SHAPE_REPRESENTATION_RELATIONSHIP('SRR','None',#181,#12);
#12=ADVANCED_BREP_SHAPE_REPRESENTATION('',(#14),#170);
#13=STYLED_ITEM('',(#190),#14);
#14=MANIFOLD_SOLID_BREP('Body1',#73);
#15=(
BOUNDED_SURFACE()
B_SPLINE_SURFACE(2,2,((#140,#141,#142,#143,#144,#145,#146,#147,#148),(#149,
#150,#151,#152,#153,#154,#155,#156,#157),(#158,#159,#160,#161,#162,#163,
#164,#165,#166)),.UNSPECIFIED.,.F.,.T.,.F.)
B_SPLINE_SURFACE_WITH_KNOTS((3,3),(3,2,2,2,3),(0.25203852923761,0.271560400878704),
(-3.14159265358979,-1.5707963267949,0.,1.5707963267949,3.14159265358979),
 .UNSPECIFIED.)
GEOMETRIC_REPRESENTATION_ITEM()
RATIONAL_B_SPLINE_SURFACE(((1.,0.707106781186548,1.,0.707106781186548,1.,
0.707106781186548,1.,0.707106781186548,1.),(0.999952362444181,0.707073096347789,
0.999952362444181,0.707073096347789,0.999952362444181,0.707073096347789,
0.999952362444181,0.707073096347789,0.999952362444181),(1.,0.707106781186548,
1.,0.707106781186548,1.,0.707106781186548,1.,0.707106781186548,1.)))
REPRESENTATION_ITEM('')
SURFACE()
);
#16=LINE('',#134,#17);
#17=VECTOR('',#112,0.250000000931322);
#18=CYLINDRICAL_SURFACE('',#91,0.250000000931322);
#19=PLANE('',#89);
#20=FACE_OUTER_BOUND('',#25,.T.);
#21=FACE_OUTER_BOUND('',#26,.T.);
#22=FACE_OUTER_BOUND('',#27,.T.);
#23=FACE_OUTER_BOUND('',#28,.T.);
#24=FACE_OUTER_BOUND('',#29,.T.);
#25=EDGE_LOOP('',(#50));
#26=EDGE_LOOP('',(#51));
#27=EDGE_LOOP('',(#52,#53,#54,#55,#56));
#28=EDGE_LOOP('',(#57,#58,#59,#60,#61));
#29=EDGE_LOOP('',(#62,#63,#64,#65));
#30=CIRCLE('',#88,0.0602095949272828);
#31=CIRCLE('',#90,0.250000000931322);
#32=CIRCLE('',#92,0.250000000931322);
#33=CIRCLE('',#93,0.250000000931322);
#34=CIRCLE('',#95,0.250000000931323);
#35=CIRCLE('',#96,0.24210151806428);
#36=CIRCLE('',#97,36.0000001341105);
#37=VERTEX_POINT('',#125);
#38=VERTEX_POINT('',#128);
#39=VERTEX_POINT('',#131);
#40=VERTEX_POINT('',#132);
#41=VERTEX_POINT('',#137);
#42=EDGE_CURVE('',#37,#37,#30,.T.);
#43=EDGE_CURVE('',#38,#38,#31,.T.);
#44=EDGE_CURVE('',#39,#40,#32,.T.);
#45=EDGE_CURVE('',#39,#38,#16,.T.);
#46=EDGE_CURVE('',#40,#39,#33,.T.);
#47=EDGE_CURVE('',#40,#41,#34,.T.);
#48=EDGE_CURVE('',#41,#41,#35,.T.);
#49=EDGE_CURVE('',#37,#41,#36,.T.);
#50=ORIENTED_EDGE('',*,*,#42,.T.);
#51=ORIENTED_EDGE('',*,*,#43,.F.);
#52=ORIENTED_EDGE('',*,*,#44,.F.);
#53=ORIENTED_EDGE('',*,*,#45,.T.);
#54=ORIENTED_EDGE('',*,*,#43,.T.);
#55=ORIENTED_EDGE('',*,*,#45,.F.);
#56=ORIENTED_EDGE('',*,*,#46,.F.);
#57=ORIENTED_EDGE('',*,*,#44,.T.);
#58=ORIENTED_EDGE('',*,*,#47,.T.);
#59=ORIENTED_EDGE('',*,*,#48,.F.);
#60=ORIENTED_EDGE('',*,*,#47,.F.);
#61=ORIENTED_EDGE('',*,*,#46,.T.);
#62=ORIENTED_EDGE('',*,*,#42,.F.);
#63=ORIENTED_EDGE('',*,*,#49,.T.);
#64=ORIENTED_EDGE('',*,*,#48,.T.);
#65=ORIENTED_EDGE('',*,*,#49,.F.);
#66=SPHERICAL_SURFACE('',#87,0.0625000002328307);
#67=SPHERICAL_SURFACE('',#94,0.250000000931323);
#68=ADVANCED_FACE('',(#20),#66,.T.);
#69=ADVANCED_FACE('',(#21),#19,.T.);
#70=ADVANCED_FACE('',(#22),#18,.T.);
#71=ADVANCED_FACE('',(#23),#67,.T.);
#72=ADVANCED_FACE('',(#24),#15,.F.);
#73=CLOSED_SHELL('',(#68,#69,#70,#71,#72));
#74=DERIVED_UNIT_ELEMENT(#76,1.);
#75=DERIVED_UNIT_ELEMENT(#175,-3.);
#76=(
MASS_UNIT()
NAMED_UNIT(*)
SI_UNIT(.KILO.,.GRAM.)
);
#77=DERIVED_UNIT((#74,#75));
#78=MEASURE_REPRESENTATION_ITEM('density measure',
POSITIVE_RATIO_MEASURE(7850.),#77);
#79=PROPERTY_DEFINITION_REPRESENTATION(#84,#81);
#80=PROPERTY_DEFINITION_REPRESENTATION(#85,#82);
#81=REPRESENTATION('material name',(#83),#170);
#82=REPRESENTATION('density',(#78),#170);
#83=DESCRIPTIVE_REPRESENTATION_ITEM('Steel','Steel');
#84=PROPERTY_DEFINITION('material property','material name',#183);
#85=PROPERTY_DEFINITION('material property','density of part',#183);
#86=AXIS2_PLACEMENT_3D('',#123,#98,#99);
#87=AXIS2_PLACEMENT_3D('',#124,#100,#101);
#88=AXIS2_PLACEMENT_3D('',#126,#102,#103);
#89=AXIS2_PLACEMENT_3D('',#127,#104,#105);
#90=AXIS2_PLACEMENT_3D('',#129,#106,#107);
#91=AXIS2_PLACEMENT_3D('',#130,#108,#109);
#92=AXIS2_PLACEMENT_3D('',#133,#110,#111);
#93=AXIS2_PLACEMENT_3D('',#135,#113,#114);
#94=AXIS2_PLACEMENT_3D('',#136,#115,#116);
#95=AXIS2_PLACEMENT_3D('',#138,#117,#118);
#96=AXIS2_PLACEMENT_3D('',#139,#119,#120);
#97=AXIS2_PLACEMENT_3D('',#167,#121,#122);
#98=DIRECTION('axis',(0.,0.,1.));
#99=DIRECTION('refdir',(1.,0.,0.));
#100=DIRECTION('center_axis',(6.12323399573677E-17,0.,1.));
#101=DIRECTION('ref_axis',(1.,0.,0.));
#102=DIRECTION('center_axis',(1.E-16,-1.,0.));
#103=DIRECTION('ref_axis',(1.,1.E-16,0.));
#104=DIRECTION('center_axis',(-1.E-16,1.,0.));
#105=DIRECTION('ref_axis',(0.,0.,1.));
#106=DIRECTION('center_axis',(1.E-16,-1.,0.));
#107=DIRECTION('ref_axis',(1.,1.E-16,0.));
#108=DIRECTION('center_axis',(1.E-16,-1.,0.));
#109=DIRECTION('ref_axis',(1.,0.,0.));
#110=DIRECTION('center_axis',(1.E-16,-1.,0.));
#111=DIRECTION('ref_axis',(1.,1.E-16,0.));
#112=DIRECTION('',(-1.E-16,1.,0.));
#113=DIRECTION('center_axis',(1.E-16,-1.,0.));
#114=DIRECTION('ref_axis',(1.,1.E-16,0.));
#115=DIRECTION('center_axis',(0.,1.,-6.12323399573677E-17));
#116=DIRECTION('ref_axis',(0.,0.,-1.));
#117=DIRECTION('center_axis',(1.,0.,-1.22464679914735E-16));
#118=DIRECTION('ref_axis',(1.22464679914735E-16,0.,1.));
#119=DIRECTION('center_axis',(1.E-16,-1.,0.));
#120=DIRECTION('ref_axis',(1.,1.E-16,0.));
#121=DIRECTION('center_axis',(-1.,-1.E-16,-1.22464679914735E-16));
#122=DIRECTION('ref_axis',(-1.22464679914735E-16,0.,1.));
#123=CARTESIAN_POINT('',(0.,0.,0.));
#124=CARTESIAN_POINT('Origin',(0.,0.0625000002328285,0.));
#125=CARTESIAN_POINT('',(-1.19470801606868E-17,0.0457353139012156,0.0602095949272828));
#126=CARTESIAN_POINT('Origin',(-4.57353139012158E-18,0.0457353139012156,
0.));
#127=CARTESIAN_POINT('Origin',(0.250000000931322,3.,0.));
#128=CARTESIAN_POINT('',(-0.250000000931322,3.,-3.06161700927379E-17));
#129=CARTESIAN_POINT('Origin',(-3.E-16,3.,0.));
#130=CARTESIAN_POINT('Origin',(-1.89345482650842E-16,1.89345482650842,0.));
#131=CARTESIAN_POINT('',(-0.250000000931322,0.786909653016834,-3.06161700927379E-17));
#132=CARTESIAN_POINT('',(-4.69383829907262E-16,0.786909653016834,0.250000000931322));
#133=CARTESIAN_POINT('Origin',(-7.86909653016835E-17,0.786909653016834,
0.));
#134=CARTESIAN_POINT('',(-0.250000000931322,1.89345482650842,-3.06161700927379E-17));
#135=CARTESIAN_POINT('Origin',(-7.86909653016835E-17,0.786909653016834,
0.));
#136=CARTESIAN_POINT('Origin',(-5.E-16,0.786909653016834,0.));
#137=CARTESIAN_POINT('',(-4.70351115083386E-16,0.724565002752073,0.24210151806428));
#138=CARTESIAN_POINT('Origin',(-5.E-16,0.786909653016834,0.));
#139=CARTESIAN_POINT('Origin',(-7.24565002752074E-17,0.724565002752073,
0.));
#140=CARTESIAN_POINT('Ctrl Pts',(-7.24565002752079E-17,0.724565002752079,
0.242101518064281));
#141=CARTESIAN_POINT('Ctrl Pts',(-0.242101518064281,0.724565002752079,0.242101518064281));
#142=CARTESIAN_POINT('Ctrl Pts',(-0.242101518064281,0.724565002752078,4.46731280543973E-32));
#143=CARTESIAN_POINT('Ctrl Pts',(-0.242101518064281,0.724565002752078,-0.242101518064281));
#144=CARTESIAN_POINT('Ctrl Pts',(-7.24565002752079E-17,0.724565002752078,
-0.242101518064281));
#145=CARTESIAN_POINT('Ctrl Pts',(0.242101518064281,0.724565002752078,-0.242101518064281));
#146=CARTESIAN_POINT('Ctrl Pts',(0.242101518064281,0.724565002752078,-4.46731280543973E-32));
#147=CARTESIAN_POINT('Ctrl Pts',(0.242101518064281,0.724565002752079,0.242101518064281));
#148=CARTESIAN_POINT('Ctrl Pts',(-7.24565002752079E-17,0.724565002752079,
0.242101518064281));
#149=CARTESIAN_POINT('Ctrl Pts',(-3.84262412438876E-17,0.384262412438875,
0.154468668229293));
#150=CARTESIAN_POINT('Ctrl Pts',(-0.154468668229293,0.384262412438875,0.154468668229293));
#151=CARTESIAN_POINT('Ctrl Pts',(-0.154468668229293,0.384262412438874,-4.31579156429398E-32));
#152=CARTESIAN_POINT('Ctrl Pts',(-0.154468668229293,0.384262412438874,-0.154468668229293));
#153=CARTESIAN_POINT('Ctrl Pts',(-3.84262412438874E-17,0.384262412438874,
-0.154468668229293));
#154=CARTESIAN_POINT('Ctrl Pts',(0.154468668229293,0.384262412438874,-0.154468668229293));
#155=CARTESIAN_POINT('Ctrl Pts',(0.154468668229293,0.384262412438874,4.31579156429398E-32));
#156=CARTESIAN_POINT('Ctrl Pts',(0.154468668229293,0.384262412438875,0.154468668229293));
#157=CARTESIAN_POINT('Ctrl Pts',(-3.84262412438876E-17,0.384262412438875,
0.154468668229293));
#158=CARTESIAN_POINT('Ctrl Pts',(-4.57353139012163E-18,0.045735313901217,
0.060209594927281));
#159=CARTESIAN_POINT('Ctrl Pts',(-0.060209594927281,0.045735313901217,0.060209594927281));
#160=CARTESIAN_POINT('Ctrl Pts',(-0.060209594927281,0.045735313901217,4.71893724299529E-32));
#161=CARTESIAN_POINT('Ctrl Pts',(-0.060209594927281,0.0457353139012171,
-0.060209594927281));
#162=CARTESIAN_POINT('Ctrl Pts',(-4.57353139012173E-18,0.0457353139012171,
-0.060209594927281));
#163=CARTESIAN_POINT('Ctrl Pts',(0.060209594927281,0.0457353139012171,-0.060209594927281));
#164=CARTESIAN_POINT('Ctrl Pts',(0.060209594927281,0.045735313901217,-4.71893724299529E-32));
#165=CARTESIAN_POINT('Ctrl Pts',(0.060209594927281,0.045735313901217,0.060209594927281));
#166=CARTESIAN_POINT('Ctrl Pts',(-4.57353139012163E-18,0.045735313901217,
0.060209594927281));
#167=CARTESIAN_POINT('Origin',(3.26957107898367E-15,9.70219464090954,-34.620517083183));
#168=UNCERTAINTY_MEASURE_WITH_UNIT(LENGTH_MEASURE(0.000393700787401575),
#173,'DISTANCE_ACCURACY_VALUE',
'Maximum model space distance between geometric entities at asserted c
onnectivities');
#169=UNCERTAINTY_MEASURE_WITH_UNIT(LENGTH_MEASURE(0.000393700787401575),
#173,'DISTANCE_ACCURACY_VALUE',
'Maximum model space distance between geometric entities at asserted c
onnectivities');
#170=(
GEOMETRIC_REPRESENTATION_CONTEXT(3)
GLOBAL_UNCERTAINTY_ASSIGNED_CONTEXT((#168))
GLOBAL_UNIT_ASSIGNED_CONTEXT((#173,#177,#178))
REPRESENTATION_CONTEXT('','3D')
);
#171=(
GEOMETRIC_REPRESENTATION_CONTEXT(3)
GLOBAL_UNCERTAINTY_ASSIGNED_CONTEXT((#169))
GLOBAL_UNIT_ASSIGNED_CONTEXT((#173,#177,#178))
REPRESENTATION_CONTEXT('','3D')
);
#172=DIMENSIONAL_EXPONENTS(1.,0.,0.,0.,0.,0.,0.);
#173=(
CONVERSION_BASED_UNIT('inch',#176)
LENGTH_UNIT()
NAMED_UNIT(#172)
);
#174=(
LENGTH_UNIT()
NAMED_UNIT(*)
SI_UNIT(.MILLI.,.METRE.)
);
#175=(
LENGTH_UNIT()
NAMED_UNIT(*)
SI_UNIT($,.METRE.)
);
#176=LENGTH_MEASURE_WITH_UNIT(LENGTH_MEASURE(25.4),#174);
#177=(
NAMED_UNIT(*)
PLANE_ANGLE_UNIT()
SI_UNIT($,.RADIAN.)
);
#178=(
NAMED_UNIT(*)
SI_UNIT($,.STERADIAN.)
SOLID_ANGLE_UNIT()
);
#179=SHAPE_DEFINITION_REPRESENTATION(#180,#181);
#180=PRODUCT_DEFINITION_SHAPE('',$,#183);
#181=SHAPE_REPRESENTATION('',(#86),#170);
#182=PRODUCT_DEFINITION_CONTEXT('part definition',#187,'design');
#183=PRODUCT_DEFINITION('(Unsaved)','(Unsaved)',#184,#182);
#184=PRODUCT_DEFINITION_FORMATION('',$,#189);
#185=PRODUCT_RELATED_PRODUCT_CATEGORY('(Unsaved)','(Unsaved)',(#189));
#186=APPLICATION_PROTOCOL_DEFINITION('international standard',
'automotive_design',2009,#187);
#187=APPLICATION_CONTEXT(
'Core Data for Automotive Mechanical Design Process');
#188=PRODUCT_CONTEXT('part definition',#187,'mechanical');
#189=PRODUCT('(Unsaved)','(Unsaved)',$,(#188));
#190=PRESENTATION_STYLE_ASSIGNMENT((#191));
#191=SURFACE_STYLE_USAGE(.BOTH.,#192);
#192=SURFACE_SIDE_STYLE('',(#193));
#193=SURFACE_STYLE_FILL_AREA(#194);
#194=FILL_AREA_STYLE('Steel - Satin',(#195));
#195=FILL_AREA_STYLE_COLOUR('Steel - Satin',#196);
#196=COLOUR_RGB('Steel - Satin',0.627450980392157,0.627450980392157,0.627450980392157);
ENDSEC;
END-ISO-10303-21;
