ISO-10303-21;
HEADER;
FILE_DESCRIPTION (( 'STEP AP214' ),
    '1' );
FILE_NAME ('Micro_GEM-156-4X.STEP',
    '2021-09-01T19:53:40',
    ( '' ),
    ( '' ),
    'SwSTEP 2.0',
    'SolidWorks 2020',
    '' );
FILE_SCHEMA (( 'AUTOMOTIVE_DESIGN' ));
ENDSEC;

DATA;
#1 = EDGE_CURVE ( 'NONE', #286, #12, #83, .T. ) ;
#2 = DIRECTION ( 'NONE',  ( 0.0000000000000000000, 0.0000000000000000000, 1.000000000000000000 ) ) ;
#3 = DIRECTION ( 'NONE',  ( 0.0000000000000000000, 0.0000000000000000000, -1.000000000000000000 ) ) ;
#4 = VECTOR ( 'NONE', #208, 39.37007874015748143 ) ;
#5 =( NAMED_UNIT ( * ) SI_UNIT ( $, .STERADIAN. ) SOLID_ANGLE_UNIT ( ) );
#6 = ADVANCED_FACE ( 'NONE', ( #87 ), #105, .T. ) ;
#7 =( LENGTH_UNIT ( ) NAMED_UNIT ( * ) SI_UNIT ( $, .METRE. ) );
#8 = ORIENTED_EDGE ( 'NONE', *, *, #29, .T. ) ;
#9 = DIRECTION ( 'NONE',  ( 0.0000000000000000000, 0.0000000000000000000, 1.000000000000000000 ) ) ;
#10 =( GEOMETRIC_REPRESENTATION_CONTEXT ( 3 ) GLOBAL_UNCERTAINTY_ASSIGNED_CONTEXT ( ( #98 ) ) GLOBAL_UNIT_ASSIGNED_CONTEXT ( ( #133, #37, #225 ) ) REPRESENTATION_CONTEXT ( 'NONE', 'WORKASPACE' ) );
#11 = MECHANICAL_DESIGN_GEOMETRIC_PRESENTATION_REPRESENTATION (  '', ( #206 ), #234 ) ;
#12 = VERTEX_POINT ( 'NONE', #82 ) ;
#13 = CARTESIAN_POINT ( 'NONE',  ( 0.09375000000000009714, 1.148106374200644787E-17, 0.6521984875871288390 ) ) ;
#14 = ORIENTED_EDGE ( 'NONE', *, *, #250, .T. ) ;
#15 = CARTESIAN_POINT ( 'NONE',  ( 0.0000000000000000000, 0.0000000000000000000, 2.000000000000000000 ) ) ;
#16 = AXIS2_PLACEMENT_3D ( 'NONE', #38, #63, #288 ) ;
#17 = PLANE ( 'NONE',  #240 ) ;
#18 = DIRECTION ( 'NONE',  ( -1.224646799147353207E-16, -0.0000000000000000000, -1.000000000000000000 ) ) ;
#19 = EDGE_LOOP ( 'NONE', ( #36, #152, #243, #289 ) ) ;
#20 = DIRECTION ( 'NONE',  ( 1.000000000000000000, 0.0000000000000000000, 0.0000000000000000000 ) ) ;
#21 = ORIENTED_EDGE ( 'NONE', *, *, #233, .F. ) ;
#22 = DIRECTION ( 'NONE',  ( 1.000000000000000000, 0.0000000000000000000, 0.0000000000000000000 ) ) ;
#23 = AXIS2_PLACEMENT_3D ( 'NONE', #113, #85, #245 ) ;
#24 = LINE ( 'NONE', #232, #4 ) ;
#25 = CIRCLE ( 'NONE', #213, 0.07802190000000000514 ) ;
#26 = UNCERTAINTY_MEASURE_WITH_UNIT (LENGTH_MEASURE( 1.000000000000000082E-05 ), #169, 'distance_accuracy_value', 'NONE');
#27 = FACE_OUTER_BOUND ( 'NONE', #19, .T. ) ;
#28 =( NAMED_UNIT ( * ) SI_UNIT ( $, .STERADIAN. ) SOLID_ANGLE_UNIT ( ) );
#29 = EDGE_CURVE ( 'NONE', #67, #86, #290, .T. ) ;
#30 = VECTOR ( 'NONE', #93, 39.37007874015748143 ) ;
#31 = STYLED_ITEM ( 'NONE', ( #42 ), #58 ) ;
#32 = AXIS2_PLACEMENT_3D ( 'NONE', #33, #9, #192 ) ;
#33 = CARTESIAN_POINT ( 'NONE',  ( 0.0000000000000000000, 0.0000000000000000000, 0.0000000000000000000 ) ) ;
#34 = ORIENTED_EDGE ( 'NONE', *, *, #178, .T. ) ;
#35 = CIRCLE ( 'NONE', #258, 0.09375000000000001388 ) ;
#36 = ORIENTED_EDGE ( 'NONE', *, *, #120, .F. ) ;
#37 =( NAMED_UNIT ( * ) PLANE_ANGLE_UNIT ( ) SI_UNIT ( $, .RADIAN. ) );
#38 = CARTESIAN_POINT ( 'NONE',  ( 7.987127902323220081E-17, 0.0000000000000000000, 0.6521984875871288390 ) ) ;
#39 = ORIENTED_EDGE ( 'NONE', *, *, #256, .F. ) ;
#40 = SURFACE_STYLE_FILL_AREA ( #61 ) ;
#41 = VERTEX_POINT ( 'NONE', #13 ) ;
#42 = PRESENTATION_STYLE_ASSIGNMENT (( #176 ) ) ;
#43 = CIRCLE ( 'NONE', #217, 0.07802190000000000514 ) ;
#44 = CARTESIAN_POINT ( 'NONE',  ( 6.894761479199598081E-17, 0.0000000000000000000, 0.5629999999999999449 ) ) ;
#45 = ORIENTED_EDGE ( 'NONE', *, *, #55, .F. ) ;
#46 = CARTESIAN_POINT ( 'NONE',  ( -0.07802190000000000514, 0.0000000000000000000, 1.910985401967897770E-17 ) ) ;
#47 = CARTESIAN_POINT ( 'NONE',  ( 0.07802190000000007453, 0.0000000000000000000, 0.5629999999999999449 ) ) ;
#48 = FACE_OUTER_BOUND ( 'NONE', #259, .T. ) ;
#49 = AXIS2_PLACEMENT_3D ( 'NONE', #189, #72, #142 ) ;
#50 = CARTESIAN_POINT ( 'NONE',  ( -0.07874999999999980627, 0.0000000000000000000, 2.000000000000000000 ) ) ;
#51 = LINE ( 'NONE', #164, #30 ) ;
#52 = PRODUCT_DEFINITION_CONTEXT ( 'detailed design', #214, 'design' ) ;
#53 = DIRECTION ( 'NONE',  ( -0.1736481776669311639, 2.126576849575782392E-17, 0.9848077530122080203 ) ) ;
#54 = AXIS2_PLACEMENT_3D ( 'NONE', #44, #131, #136 ) ;
#55 = EDGE_CURVE ( 'NONE', #12, #276, #150, .T. ) ;
#56 = ORIENTED_EDGE ( 'NONE', *, *, #106, .T. ) ;
#57 = VECTOR ( 'NONE', #268, 39.37007874015748143 ) ;
#58 = MANIFOLD_SOLID_BREP ( 'Cut-Revolve1', #78 ) ;
#59 = VERTEX_POINT ( 'NONE', #291 ) ;
#60 = VECTOR ( 'NONE', #274, 39.37007874015748143 ) ;
#61 = FILL_AREA_STYLE ('',( #287 ) ) ;
#62 = ORIENTED_EDGE ( 'NONE', *, *, #233, .T. ) ;
#63 = DIRECTION ( 'NONE',  ( -1.224646799147353207E-16, -0.0000000000000000000, -1.000000000000000000 ) ) ;
#64 = ORIENTED_EDGE ( 'NONE', *, *, #250, .F. ) ;
#65 = DIRECTION ( 'NONE',  ( 1.000000000000000000, 0.0000000000000000000, -0.0000000000000000000 ) ) ;
#66 = DIMENSIONAL_EXPONENTS ( 1.000000000000000000, 0.0000000000000000000, 0.0000000000000000000, 0.0000000000000000000, 0.0000000000000000000, 0.0000000000000000000, 0.0000000000000000000 ) ;
#67 = VERTEX_POINT ( 'NONE', #111 ) ;
#68 = FACE_OUTER_BOUND ( 'NONE', #247, .T. ) ;
#69 = ORIENTED_EDGE ( 'NONE', *, *, #279, .F. ) ;
#70 = CARTESIAN_POINT ( 'NONE',  ( 0.0000000000000000000, 0.0000000000000000000, 2.000000000000000000 ) ) ;
#71 = AXIS2_PLACEMENT_3D ( 'NONE', #143, #139, #74 ) ;
#72 = DIRECTION ( 'NONE',  ( -0.0000000000000000000, -0.0000000000000000000, -1.000000000000000000 ) ) ;
#73 = ADVANCED_FACE ( 'NONE', ( #198 ), #237, .T. ) ;
#74 = DIRECTION ( 'NONE',  ( -1.000000000000000000, 0.0000000000000000000, 1.224646799147353207E-16 ) ) ;
#75 = VECTOR ( 'NONE', #155, 39.37007874015748143 ) ;
#76 = ADVANCED_FACE ( 'NONE', ( #68 ), #297, .T. ) ;
#77 = SURFACE_SIDE_STYLE ('',( #102 ) ) ;
#78 = CLOSED_SHELL ( 'NONE', ( #182, #76, #6, #80, #236, #239, #285, #73, #272, #196 ) ) ;
#79 = EDGE_LOOP ( 'NONE', ( #201, #226 ) ) ;
#80 = ADVANCED_FACE ( 'NONE', ( #222 ), #108, .T. ) ;
#81 = CARTESIAN_POINT ( 'NONE',  ( 0.0000000000000000000, 0.0000000000000000000, 1.984999999999999654 ) ) ;
#82 = CARTESIAN_POINT ( 'NONE',  ( -0.09375000000000001388, 0.0000000000000000000, 1.984999999999999654 ) ) ;
#83 = CIRCLE ( 'NONE', #126, 0.09375000000000001388 ) ;
#84 = ORIENTED_EDGE ( 'NONE', *, *, #1, .T. ) ;
#85 = DIRECTION ( 'NONE',  ( -1.224646799147353207E-16, -0.0000000000000000000, -1.000000000000000000 ) ) ;
#86 = VERTEX_POINT ( 'NONE', #129 ) ;
#87 = FACE_OUTER_BOUND ( 'NONE', #130, .T. ) ;
#88 = DIRECTION ( 'NONE',  ( -1.224646799147353207E-16, -0.0000000000000000000, -1.000000000000000000 ) ) ;
#89 = ORIENTED_EDGE ( 'NONE', *, *, #106, .F. ) ;
#90 = DIRECTION ( 'NONE',  ( 0.0000000000000000000, 0.0000000000000000000, 1.000000000000000000 ) ) ;
#91 = AXIS2_PLACEMENT_3D ( 'NONE', #223, #203, #20 ) ;
#92 = FACE_OUTER_BOUND ( 'NONE', #180, .T. ) ;
#93 = DIRECTION ( 'NONE',  ( -0.0000000000000000000, -0.0000000000000000000, -1.000000000000000000 ) ) ;
#94 = CARTESIAN_POINT ( 'NONE',  ( 1.170141077868652023E-33, 0.0000000000000000000, 9.554927009839488851E-18 ) ) ;
#95 = VECTOR ( 'NONE', #107, 39.37007874015748143 ) ;
#96 =( CONVERSION_BASED_UNIT ( 'INCH', #210 ) LENGTH_UNIT ( ) NAMED_UNIT ( #66 ) );
#97 = CARTESIAN_POINT ( 'NONE',  ( 0.09375000000000001388, 1.148106374200643863E-17, 1.984999999999999654 ) ) ;
#98 = UNCERTAINTY_MEASURE_WITH_UNIT (LENGTH_MEASURE( 1.000000000000000082E-05 ), #133, 'distance_accuracy_value', 'NONE');
#99 = CARTESIAN_POINT ( 'NONE',  ( -0.09374999999999991673, 0.0000000000000000000, 0.6521984875871288390 ) ) ;
#100 = EDGE_CURVE ( 'NONE', #224, #67, #168, .T. ) ;
#101 = PRESENTATION_LAYER_ASSIGNMENT (  '', '', ( #31 ) ) ;
#102 = SURFACE_STYLE_FILL_AREA ( #216 ) ;
#103 = EDGE_LOOP ( 'NONE', ( #62, #14, #89, #45 ) ) ;
#104 = APPLICATION_PROTOCOL_DEFINITION ( 'draft international standard', 'automotive_design', 1998, #214 ) ;
#105 = CONICAL_SURFACE ( 'NONE', #190, 0.07874999999999980627, 0.7853981633974466137 ) ;
#106 = EDGE_CURVE ( 'NONE', #276, #41, #144, .T. ) ;
#107 = DIRECTION ( 'NONE',  ( -1.224646799147353207E-16, -0.0000000000000000000, -1.000000000000000000 ) ) ;
#108 = CYLINDRICAL_SURFACE ( 'NONE', #209, 0.09375000000000001388 ) ;
#109 = CIRCLE ( 'NONE', #280, 0.09375000000000001388 ) ;
#110 = DIRECTION ( 'NONE',  ( 0.0000000000000000000, 0.0000000000000000000, -1.000000000000000000 ) ) ;
#111 = CARTESIAN_POINT ( 'NONE',  ( 0.07802190000000007453, 0.0000000000000000000, 0.5629999999999999449 ) ) ;
#112 = ORIENTED_EDGE ( 'NONE', *, *, #261, .F. ) ;
#113 = CARTESIAN_POINT ( 'NONE',  ( 6.894761479199598081E-17, 0.0000000000000000000, 0.5629999999999999449 ) ) ;
#114 = FACE_OUTER_BOUND ( 'NONE', #79, .T. ) ;
#115 = EDGE_CURVE ( 'NONE', #86, #179, #43, .T. ) ;
#116 = MECHANICAL_DESIGN_GEOMETRIC_PRESENTATION_REPRESENTATION (  '', ( #31 ), #10 ) ;
#117 = DIRECTION ( 'NONE',  ( -1.000000000000000000, 0.0000000000000000000, 0.0000000000000000000 ) ) ;
#118 = APPLICATION_PROTOCOL_DEFINITION ( 'draft international standard', 'automotive_design', 1998, #153 ) ;
#119 = FACE_OUTER_BOUND ( 'NONE', #124, .T. ) ;
#120 = EDGE_CURVE ( 'NONE', #59, #286, #157, .T. ) ;
#121 = CARTESIAN_POINT ( 'NONE',  ( -0.07802189999999993575, 9.554927009839488851E-18, 0.5629999999999999449 ) ) ;
#122 = COLOUR_RGB ( '',0.7921568627450980005, 0.8196078431372548767, 0.9333333333333333481 ) ;
#123 = DIRECTION ( 'NONE',  ( -1.000000000000000000, 0.0000000000000000000, 0.0000000000000000000 ) ) ;
#124 = EDGE_LOOP ( 'NONE', ( #172, #147, #295, #292 ) ) ;
#125 =( NAMED_UNIT ( * ) PLANE_ANGLE_UNIT ( ) SI_UNIT ( $, .RADIAN. ) );
#126 = AXIS2_PLACEMENT_3D ( 'NONE', #81, #154, #264 ) ;
#127 = EDGE_CURVE ( 'NONE', #67, #41, #199, .T. ) ;
#128 = ORIENTED_EDGE ( 'NONE', *, *, #279, .T. ) ;
#129 = CARTESIAN_POINT ( 'NONE',  ( 0.07802190000000000514, 9.554927009839488851E-18, 0.0000000000000000000 ) ) ;
#130 = EDGE_LOOP ( 'NONE', ( #204, #270, #21, #39 ) ) ;
#131 = DIRECTION ( 'NONE',  ( -1.224646799147353207E-16, -0.0000000000000000000, -1.000000000000000000 ) ) ;
#132 = AXIS2_PLACEMENT_3D ( 'NONE', #163, #160, #251 ) ;
#133 =( CONVERSION_BASED_UNIT ( 'INCH', #221 ) LENGTH_UNIT ( ) NAMED_UNIT ( #151 ) );
#134 = CARTESIAN_POINT ( 'NONE',  ( 0.0000000000000000000, 0.0000000000000000000, 2.000000000000000000 ) ) ;
#135 = ORIENTED_EDGE ( 'NONE', *, *, #127, .F. ) ;
#136 = DIRECTION ( 'NONE',  ( -1.000000000000000000, 0.0000000000000000000, 0.0000000000000000000 ) ) ;
#137 = CARTESIAN_POINT ( 'NONE',  ( 0.0000000000000000000, 0.0000000000000000000, 2.000000000000000000 ) ) ;
#138 = CIRCLE ( 'NONE', #91, 0.07874999999999980627 ) ;
#139 = DIRECTION ( 'NONE',  ( -1.224646799147353207E-16, -0.0000000000000000000, -1.000000000000000000 ) ) ;
#140 = PRODUCT_RELATED_PRODUCT_CATEGORY ( 'part', '', ( #255 ) ) ;
#141 = ORIENTED_EDGE ( 'NONE', *, *, #191, .T. ) ;
#142 = DIRECTION ( 'NONE',  ( -1.000000000000000000, 0.0000000000000000000, 0.0000000000000000000 ) ) ;
#143 = CARTESIAN_POINT ( 'NONE',  ( 0.0000000000000000000, 0.0000000000000000000, 0.0000000000000000000 ) ) ;
#144 = CIRCLE ( 'NONE', #16, 0.09375000000000001388 ) ;
#145 = DIRECTION ( 'NONE',  ( -1.224646799147353207E-16, -0.0000000000000000000, -1.000000000000000000 ) ) ;
#146 = PRODUCT_CONTEXT ( 'NONE', #153, 'mechanical' ) ;
#147 = ORIENTED_EDGE ( 'NONE', *, *, #148, .T. ) ;
#148 = EDGE_CURVE ( 'NONE', #67, #224, #149, .T. ) ;
#149 = CIRCLE ( 'NONE', #23, 0.07802190000000000514 ) ;
#150 = LINE ( 'NONE', #171, #57 ) ;
#151 = DIMENSIONAL_EXPONENTS ( 1.000000000000000000, 0.0000000000000000000, 0.0000000000000000000, 0.0000000000000000000, 0.0000000000000000000, 0.0000000000000000000, 0.0000000000000000000 ) ;
#152 = ORIENTED_EDGE ( 'NONE', *, *, #191, .F. ) ;
#153 = APPLICATION_CONTEXT ( 'automotive_design' ) ;
#154 = DIRECTION ( 'NONE',  ( 0.0000000000000000000, 0.0000000000000000000, -1.000000000000000000 ) ) ;
#155 = DIRECTION ( 'NONE',  ( 0.7071067811865463515, 8.659560562354916834E-17, -0.7071067811865486830 ) ) ;
#156 = ORIENTED_EDGE ( 'NONE', *, *, #100, .T. ) ;
#157 = LINE ( 'NONE', #248, #75 ) ;
#158 = CONICAL_SURFACE ( 'NONE', #193, 0.07874999999999980627, 0.7853981633974466137 ) ;
#159 = CARTESIAN_POINT ( 'NONE',  ( -0.07802190000000000514, 0.0000000000000000000, 9.554927009839488851E-18 ) ) ;
#160 = DIRECTION ( 'NONE',  ( 1.224646799147353207E-16, 0.0000000000000000000, 1.000000000000000000 ) ) ;
#161 = FILL_AREA_STYLE_COLOUR ( '', #229 ) ;
#162 = ORIENTED_EDGE ( 'NONE', *, *, #100, .F. ) ;
#163 = CARTESIAN_POINT ( 'NONE',  ( 6.894761479199598081E-17, 0.0000000000000000000, 0.5629999999999999449 ) ) ;
#164 = CARTESIAN_POINT ( 'NONE',  ( 0.09375000000000001388, 1.148106374200643863E-17, 2.000000000000000000 ) ) ;
#165 = AXIS2_PLACEMENT_3D ( 'NONE', #252, #2, #186 ) ;
#166 = LINE ( 'NONE', #121, #187 ) ;
#167 = CIRCLE ( 'NONE', #246, 0.07874999999999980627 ) ;
#168 = CIRCLE ( 'NONE', #54, 0.07802190000000000514 ) ;
#169 =( CONVERSION_BASED_UNIT ( 'INCH', #284 ) LENGTH_UNIT ( ) NAMED_UNIT ( #195 ) );
#170 = PRESENTATION_STYLE_ASSIGNMENT (( #260 ) ) ;
#171 = CARTESIAN_POINT ( 'NONE',  ( -0.09375000000000001388, 0.0000000000000000000, 2.000000000000000000 ) ) ;
#172 = ORIENTED_EDGE ( 'NONE', *, *, #29, .F. ) ;
#173 =( LENGTH_UNIT ( ) NAMED_UNIT ( * ) SI_UNIT ( $, .METRE. ) );
#174 = CARTESIAN_POINT ( 'NONE',  ( 0.0000000000000000000, 0.0000000000000000000, 0.0000000000000000000 ) ) ;
#175 = ORIENTED_EDGE ( 'NONE', *, *, #148, .F. ) ;
#176 = SURFACE_STYLE_USAGE ( .BOTH. , #244 ) ;
#177 = DIRECTION ( 'NONE',  ( 0.0000000000000000000, 0.0000000000000000000, 1.000000000000000000 ) ) ;
#178 = EDGE_CURVE ( 'NONE', #59, #262, #138, .T. ) ;
#179 = VERTEX_POINT ( 'NONE', #46 ) ;
#180 = EDGE_LOOP ( 'NONE', ( #156, #8, #112, #197 ) ) ;
#181 = DIRECTION ( 'NONE',  ( 0.0000000000000000000, 0.0000000000000000000, -1.000000000000000000 ) ) ;
#182 = ADVANCED_FACE ( 'NONE', ( #92 ), #184, .T. ) ;
#183 = ORIENTED_EDGE ( 'NONE', *, *, #127, .T. ) ;
#184 = CYLINDRICAL_SURFACE ( 'NONE', #200, 0.07802190000000000514 ) ;
#185 = CARTESIAN_POINT ( 'NONE',  ( 7.987127902323220081E-17, 0.0000000000000000000, 0.6521984875871288390 ) ) ;
#186 = DIRECTION ( 'NONE',  ( 1.000000000000000000, 0.0000000000000000000, -0.0000000000000000000 ) ) ;
#187 = VECTOR ( 'NONE', #53, 39.37007874015747433 ) ;
#188 =( GEOMETRIC_REPRESENTATION_CONTEXT ( 3 ) GLOBAL_UNCERTAINTY_ASSIGNED_CONTEXT ( ( #282 ) ) GLOBAL_UNIT_ASSIGNED_CONTEXT ( ( #96, #253, #5 ) ) REPRESENTATION_CONTEXT ( 'NONE', 'WORKASPACE' ) );
#189 = CARTESIAN_POINT ( 'NONE',  ( 0.0000000000000000000, 0.0000000000000000000, 2.000000000000000000 ) ) ;
#190 = AXIS2_PLACEMENT_3D ( 'NONE', #15, #110, #241 ) ;
#191 = EDGE_CURVE ( 'NONE', #262, #59, #167, .T. ) ;
#192 = DIRECTION ( 'NONE',  ( 1.000000000000000000, 0.0000000000000000000, 0.0000000000000000000 ) ) ;
#193 = AXIS2_PLACEMENT_3D ( 'NONE', #137, #3, #123 ) ;
#194 = SHAPE_DEFINITION_REPRESENTATION ( #294, #257 ) ;
#195 = DIMENSIONAL_EXPONENTS ( 1.000000000000000000, 0.0000000000000000000, 0.0000000000000000000, 0.0000000000000000000, 0.0000000000000000000, 0.0000000000000000000, 0.0000000000000000000 ) ;
#196 = ADVANCED_FACE ( 'NONE', ( #114 ), #17, .F. ) ;
#197 = ORIENTED_EDGE ( 'NONE', *, *, #212, .F. ) ;
#198 = FACE_OUTER_BOUND ( 'NONE', #231, .T. ) ;
#199 = LINE ( 'NONE', #47, #283 ) ;
#200 = AXIS2_PLACEMENT_3D ( 'NONE', #174, #18, #277 ) ;
#201 = ORIENTED_EDGE ( 'NONE', *, *, #261, .T. ) ;
#202 = DIRECTION ( 'NONE',  ( -1.000000000000000000, 0.0000000000000000000, 1.224646799147353207E-16 ) ) ;
#203 = DIRECTION ( 'NONE',  ( 0.0000000000000000000, 0.0000000000000000000, 1.000000000000000000 ) ) ;
#204 = ORIENTED_EDGE ( 'NONE', *, *, #178, .F. ) ;
#205 = CARTESIAN_POINT ( 'NONE',  ( -0.07802189999999993575, 1.051799537592296220E-17, 0.5629999999999999449 ) ) ;
#206 = STYLED_ITEM ( 'NONE', ( #170 ), #257 ) ;
#207 = DIRECTION ( 'NONE',  ( 1.224646799147353207E-16, 0.0000000000000000000, 1.000000000000000000 ) ) ;
#208 = DIRECTION ( 'NONE',  ( -0.7071067811865463515, 0.0000000000000000000, -0.7071067811865486830 ) ) ;
#209 = AXIS2_PLACEMENT_3D ( 'NONE', #134, #298, #117 ) ;
#210 = LENGTH_MEASURE_WITH_UNIT ( LENGTH_MEASURE( 0.02539999999999999897 ), #211 );
#211 =( LENGTH_UNIT ( ) NAMED_UNIT ( * ) SI_UNIT ( $, .METRE. ) );
#212 = EDGE_CURVE ( 'NONE', #224, #179, #269, .T. ) ;
#213 = AXIS2_PLACEMENT_3D ( 'NONE', #94, #145, #235 ) ;
#214 = APPLICATION_CONTEXT ( 'automotive_design' ) ;
#215 = ORIENTED_EDGE ( 'NONE', *, *, #254, .T. ) ;
#216 = FILL_AREA_STYLE ('',( #161 ) ) ;
#217 = AXIS2_PLACEMENT_3D ( 'NONE', #220, #88, #202 ) ;
#218 = PRESENTATION_LAYER_ASSIGNMENT (  '', '', ( #206 ) ) ;
#219 = CARTESIAN_POINT ( 'NONE',  ( 0.07802190000000000514, 9.554927009839488851E-18, -9.554927009839488851E-18 ) ) ;
#220 = CARTESIAN_POINT ( 'NONE',  ( 1.170141077868652023E-33, 0.0000000000000000000, 9.554927009839488851E-18 ) ) ;
#221 = LENGTH_MEASURE_WITH_UNIT ( LENGTH_MEASURE( 0.02539999999999999897 ), #173 );
#222 = FACE_OUTER_BOUND ( 'NONE', #103, .T. ) ;
#223 = CARTESIAN_POINT ( 'NONE',  ( 0.0000000000000000000, 0.0000000000000000000, 2.000000000000000000 ) ) ;
#224 = VERTEX_POINT ( 'NONE', #205 ) ;
#225 =( NAMED_UNIT ( * ) SI_UNIT ( $, .STERADIAN. ) SOLID_ANGLE_UNIT ( ) );
#226 = ORIENTED_EDGE ( 'NONE', *, *, #115, .T. ) ;
#227 = DIRECTION ( 'NONE',  ( 0.1736481776669313304, 0.0000000000000000000, 0.9848077530122077983 ) ) ;
#228 = CYLINDRICAL_SURFACE ( 'NONE', #49, 0.09375000000000001388 ) ;
#229 = COLOUR_RGB ( '',0.7921568627450980005, 0.8196078431372548767, 0.9333333333333333481 ) ;
#230 = DIRECTION ( 'NONE',  ( -1.224646799147353207E-16, -0.0000000000000000000, -1.000000000000000000 ) ) ;
#231 = EDGE_LOOP ( 'NONE', ( #273, #175, #183, #128 ) ) ;
#232 = CARTESIAN_POINT ( 'NONE',  ( -0.07874999999999980627, 0.0000000000000000000, 2.000000000000000000 ) ) ;
#233 = EDGE_CURVE ( 'NONE', #12, #286, #35, .T. ) ;
#234 =( GEOMETRIC_REPRESENTATION_CONTEXT ( 3 ) GLOBAL_UNCERTAINTY_ASSIGNED_CONTEXT ( ( #26 ) ) GLOBAL_UNIT_ASSIGNED_CONTEXT ( ( #169, #125, #28 ) ) REPRESENTATION_CONTEXT ( 'NONE', 'WORKASPACE' ) );
#235 = DIRECTION ( 'NONE',  ( -1.000000000000000000, 0.0000000000000000000, 1.224646799147353207E-16 ) ) ;
#236 = ADVANCED_FACE ( 'NONE', ( #48 ), #228, .T. ) ;
#237 = CONICAL_SURFACE ( 'NONE', #265, 0.07802190000000000514, 0.1745329251994338360 ) ;
#238 = PRODUCT_DEFINITION_FORMATION_WITH_SPECIFIED_SOURCE ( 'ANY', '', #255, .NOT_KNOWN. ) ;
#239 = ADVANCED_FACE ( 'NONE', ( #299 ), #281, .T. ) ;
#240 = AXIS2_PLACEMENT_3D ( 'NONE', #271, #177, #65 ) ;
#241 = DIRECTION ( 'NONE',  ( -1.000000000000000000, 0.0000000000000000000, 0.0000000000000000000 ) ) ;
#242 = DIRECTION ( 'NONE',  ( 1.000000000000000000, 0.0000000000000000000, 0.0000000000000000000 ) ) ;
#243 = ORIENTED_EDGE ( 'NONE', *, *, #256, .T. ) ;
#244 = SURFACE_SIDE_STYLE ('',( #40 ) ) ;
#245 = DIRECTION ( 'NONE',  ( -1.000000000000000000, 0.0000000000000000000, 0.0000000000000000000 ) ) ;
#246 = AXIS2_PLACEMENT_3D ( 'NONE', #70, #90, #242 ) ;
#247 = EDGE_LOOP ( 'NONE', ( #162, #215, #56, #135 ) ) ;
#248 = CARTESIAN_POINT ( 'NONE',  ( 0.07874999999999980627, 9.644093543285380530E-18, 2.000000000000000000 ) ) ;
#249 = ORIENTED_EDGE ( 'NONE', *, *, #55, .T. ) ;
#250 = EDGE_CURVE ( 'NONE', #286, #41, #51, .T. ) ;
#251 = DIRECTION ( 'NONE',  ( 1.000000000000000000, 0.0000000000000000000, 0.0000000000000000000 ) ) ;
#252 = CARTESIAN_POINT ( 'NONE',  ( 0.0000000000000000000, 0.0000000000000000000, 2.000000000000000000 ) ) ;
#253 =( NAMED_UNIT ( * ) PLANE_ANGLE_UNIT ( ) SI_UNIT ( $, .RADIAN. ) );
#254 = EDGE_CURVE ( 'NONE', #224, #276, #166, .T. ) ;
#255 = PRODUCT ( 'Micro_GEM-156-4X', 'Micro_GEM-156-4X', '', ( #146 ) ) ;
#256 = EDGE_CURVE ( 'NONE', #262, #12, #24, .T. ) ;
#257 = ADVANCED_BREP_SHAPE_REPRESENTATION ( 'Micro_GEM-156-4X', ( #58, #32 ), #188 ) ;
#258 = AXIS2_PLACEMENT_3D ( 'NONE', #296, #181, #22 ) ;
#259 = EDGE_LOOP ( 'NONE', ( #64, #84, #249, #69 ) ) ;
#260 = SURFACE_STYLE_USAGE ( .BOTH. , #77 ) ;
#261 = EDGE_CURVE ( 'NONE', #179, #86, #25, .T. ) ;
#262 = VERTEX_POINT ( 'NONE', #50 ) ;
#263 = PRODUCT_DEFINITION ( 'UNKNOWN', '', #238, #52 ) ;
#264 = DIRECTION ( 'NONE',  ( 1.000000000000000000, 0.0000000000000000000, 0.0000000000000000000 ) ) ;
#265 = AXIS2_PLACEMENT_3D ( 'NONE', #293, #207, #267 ) ;
#266 = EDGE_LOOP ( 'NONE', ( #141, #34 ) ) ;
#267 = DIRECTION ( 'NONE',  ( 1.000000000000000000, 0.0000000000000000000, 0.0000000000000000000 ) ) ;
#268 = DIRECTION ( 'NONE',  ( -0.0000000000000000000, -0.0000000000000000000, -1.000000000000000000 ) ) ;
#269 = LINE ( 'NONE', #159, #60 ) ;
#270 = ORIENTED_EDGE ( 'NONE', *, *, #120, .T. ) ;
#271 = CARTESIAN_POINT ( 'NONE',  ( 0.0000000000000000000, 0.0000000000000000000, 0.0000000000000000000 ) ) ;
#272 = ADVANCED_FACE ( 'NONE', ( #119 ), #275, .T. ) ;
#273 = ORIENTED_EDGE ( 'NONE', *, *, #254, .F. ) ;
#274 = DIRECTION ( 'NONE',  ( -1.224646799147353207E-16, -0.0000000000000000000, -1.000000000000000000 ) ) ;
#275 = CYLINDRICAL_SURFACE ( 'NONE', #71, 0.07802190000000000514 ) ;
#276 = VERTEX_POINT ( 'NONE', #99 ) ;
#277 = DIRECTION ( 'NONE',  ( -1.000000000000000000, 0.0000000000000000000, 1.224646799147353207E-16 ) ) ;
#278 = DIRECTION ( 'NONE',  ( 1.000000000000000000, 0.0000000000000000000, 0.0000000000000000000 ) ) ;
#279 = EDGE_CURVE ( 'NONE', #41, #276, #109, .T. ) ;
#280 = AXIS2_PLACEMENT_3D ( 'NONE', #185, #230, #278 ) ;
#281 = PLANE ( 'NONE',  #165 ) ;
#282 = UNCERTAINTY_MEASURE_WITH_UNIT (LENGTH_MEASURE( 1.000000000000000082E-05 ), #96, 'distance_accuracy_value', 'NONE');
#283 = VECTOR ( 'NONE', #227, 39.37007874015748143 ) ;
#284 = LENGTH_MEASURE_WITH_UNIT ( LENGTH_MEASURE( 0.02539999999999999897 ), #7 );
#285 = ADVANCED_FACE ( 'NONE', ( #27 ), #158, .T. ) ;
#286 = VERTEX_POINT ( 'NONE', #97 ) ;
#287 = FILL_AREA_STYLE_COLOUR ( '', #122 ) ;
#288 = DIRECTION ( 'NONE',  ( 1.000000000000000000, 0.0000000000000000000, 0.0000000000000000000 ) ) ;
#289 = ORIENTED_EDGE ( 'NONE', *, *, #1, .F. ) ;
#290 = LINE ( 'NONE', #219, #95 ) ;
#291 = CARTESIAN_POINT ( 'NONE',  ( 0.07874999999999980627, 1.056257864264590573E-17, 2.000000000000000000 ) ) ;
#292 = ORIENTED_EDGE ( 'NONE', *, *, #115, .F. ) ;
#293 = CARTESIAN_POINT ( 'NONE',  ( 6.894761479199598081E-17, 0.0000000000000000000, 0.5629999999999999449 ) ) ;
#294 = PRODUCT_DEFINITION_SHAPE ( 'NONE', 'NONE',  #263 ) ;
#295 = ORIENTED_EDGE ( 'NONE', *, *, #212, .T. ) ;
#296 = CARTESIAN_POINT ( 'NONE',  ( 0.0000000000000000000, 0.0000000000000000000, 1.984999999999999654 ) ) ;
#297 = CONICAL_SURFACE ( 'NONE', #132, 0.07802190000000000514, 0.1745329251994338360 ) ;
#298 = DIRECTION ( 'NONE',  ( -0.0000000000000000000, -0.0000000000000000000, -1.000000000000000000 ) ) ;
#299 = FACE_OUTER_BOUND ( 'NONE', #266, .T. ) ;
ENDSEC;
END-ISO-10303-21;
