ISO-10303-21;
HEADER;
FILE_DESCRIPTION (( 'STEP AP214' ),
    '1' );
FILE_NAME ('Micro_EMHM-080-4X.STEP',
    '2021-09-01T17:23:30',
    ( '' ),
    ( '' ),
    'SwSTEP 2.0',
    'SolidWorks 2020',
    '' );
FILE_SCHEMA (( 'AUTOMOTIVE_DESIGN' ));
ENDSEC;

DATA;
#1 = ADVANCED_FACE ( 'NONE', ( #18 ), #256, .T. ) ;
#2 = DIRECTION ( 'NONE',  ( 1.224646799147353207E-16, 0.0000000000000000000, 1.000000000000000000 ) ) ;
#3 = SURFACE_STYLE_FILL_AREA ( #198 ) ;
#4 = CARTESIAN_POINT ( 'NONE',  ( 9.642893389422242582E-17, 0.0000000000000000000, 0.7874019999999999353 ) ) ;
#5 = CARTESIAN_POINT ( 'NONE',  ( 0.1574805000000000788, 1.928579902531248645E-17, 0.7882951162965942116 ) ) ;
#6 = DIRECTION ( 'NONE',  ( 0.0000000000000000000, 0.0000000000000000000, 1.000000000000000000 ) ) ;
#7 = DIRECTION ( 'NONE',  ( -1.000000000000000000, 0.0000000000000000000, 1.224646799147353454E-16 ) ) ;
#8 = DIRECTION ( 'NONE',  ( 1.000000000000000000, 0.0000000000000000000, 0.0000000000000000000 ) ) ;
#9 = ORIENTED_EDGE ( 'NONE', *, *, #124, .F. ) ;
#10 = VECTOR ( 'NONE', #91, 39.37007874015748143 ) ;
#11 = EDGE_CURVE ( 'NONE', #60, #155, #43, .T. ) ;
#12 = VERTEX_POINT ( 'NONE', #51 ) ;
#13 = ORIENTED_EDGE ( 'NONE', *, *, #45, .F. ) ;
#14 = EDGE_LOOP ( 'NONE', ( #9, #100, #58, #36 ) ) ;
#15 = CONICAL_SURFACE ( 'NONE', #243, 0.1573230194999999942, 0.1745329251994339748 ) ;
#16 = PRODUCT_RELATED_PRODUCT_CATEGORY ( 'part', '', ( #266 ) ) ;
#17 = DIRECTION ( 'NONE',  ( 0.0000000000000000000, 0.0000000000000000000, 1.000000000000000000 ) ) ;
#18 = FACE_OUTER_BOUND ( 'NONE', #56, .T. ) ;
#19 = EDGE_CURVE ( 'NONE', #60, #270, #97, .T. ) ;
#20 = AXIS2_PLACEMENT_3D ( 'NONE', #24, #276, #188 ) ;
#21 = DIRECTION ( 'NONE',  ( -1.000000000000000000, 0.0000000000000000000, 1.224646799147353454E-16 ) ) ;
#22 = DIRECTION ( 'NONE',  ( 1.000000000000000000, 0.0000000000000000000, 0.0000000000000000000 ) ) ;
#23 = CARTESIAN_POINT ( 'NONE',  ( -0.1574804999999999955, 0.0000000000000000000, 2.465314999999999923 ) ) ;
#24 = CARTESIAN_POINT ( 'NONE',  ( 0.0000000000000000000, 0.0000000000000000000, 2.480315000000000047 ) ) ;
#25 = CARTESIAN_POINT ( 'NONE',  ( 9.642893389422242582E-17, 0.0000000000000000000, 0.7874019999999999353 ) ) ;
#26 =( LENGTH_UNIT ( ) NAMED_UNIT ( * ) SI_UNIT ( $, .METRE. ) );
#27 = FILL_AREA_STYLE ('',( #148 ) ) ;
#28 = CARTESIAN_POINT ( 'NONE',  ( -0.1573230194999999942, 0.0000000000000000000, 3.853302645257433254E-17 ) ) ;
#29 = SURFACE_STYLE_USAGE ( .BOTH. , #73 ) ;
#30 = DIRECTION ( 'NONE',  ( 0.0000000000000000000, 0.0000000000000000000, -1.000000000000000000 ) ) ;
#31 = APPLICATION_PROTOCOL_DEFINITION ( 'draft international standard', 'automotive_design', 1998, #82 ) ;
#32 = EDGE_CURVE ( 'NONE', #270, #81, #78, .T. ) ;
#33 = ORIENTED_EDGE ( 'NONE', *, *, #118, .F. ) ;
#34 = VECTOR ( 'NONE', #117, 39.37007874015748143 ) ;
#35 = EDGE_LOOP ( 'NONE', ( #176, #54, #177, #265 ) ) ;
#36 = ORIENTED_EDGE ( 'NONE', *, *, #251, .F. ) ;
#37 = ORIENTED_EDGE ( 'NONE', *, *, #65, .F. ) ;
#38 = AXIS2_PLACEMENT_3D ( 'NONE', #216, #170, #235 ) ;
#39 = AXIS2_PLACEMENT_3D ( 'NONE', #44, #107, #21 ) ;
#40 = ORIENTED_EDGE ( 'NONE', *, *, #45, .T. ) ;
#41 = ADVANCED_FACE ( 'NONE', ( #98 ), #278, .T. ) ;
#42 = FACE_OUTER_BOUND ( 'NONE', #201, .T. ) ;
#43 = CIRCLE ( 'NONE', #59, 0.1574804999999999955 ) ;
#44 = CARTESIAN_POINT ( 'NONE',  ( 0.0000000000000000000, 0.0000000000000000000, 0.0000000000000000000 ) ) ;
#45 = EDGE_CURVE ( 'NONE', #288, #270, #172, .T. ) ;
#46 = LINE ( 'NONE', #262, #10 ) ;
#47 = CIRCLE ( 'NONE', #106, 0.1573230194999999942 ) ;
#48 = LINE ( 'NONE', #93, #128 ) ;
#49 = DIRECTION ( 'NONE',  ( -1.224646799147353207E-16, -0.0000000000000000000, -1.000000000000000000 ) ) ;
#50 = PLANE ( 'NONE',  #38 ) ;
#51 = CARTESIAN_POINT ( 'NONE',  ( 0.1424804999999990940, 1.836731392595189962E-17, 2.480315000000000047 ) ) ;
#52 = AXIS2_PLACEMENT_3D ( 'NONE', #238, #6, #57 ) ;
#53 =( NAMED_UNIT ( * ) PLANE_ANGLE_UNIT ( ) SI_UNIT ( $, .RADIAN. ) );
#54 = ORIENTED_EDGE ( 'NONE', *, *, #132, .T. ) ;
#55 = EDGE_CURVE ( 'NONE', #180, #81, #48, .T. ) ;
#56 = EDGE_LOOP ( 'NONE', ( #80, #40, #104, #77 ) ) ;
#57 = DIRECTION ( 'NONE',  ( 1.000000000000000000, 0.0000000000000000000, 0.0000000000000000000 ) ) ;
#58 = ORIENTED_EDGE ( 'NONE', *, *, #11, .F. ) ;
#59 = AXIS2_PLACEMENT_3D ( 'NONE', #212, #174, #281 ) ;
#60 = VERTEX_POINT ( 'NONE', #23 ) ;
#61 = DIRECTION ( 'NONE',  ( 1.224646799147353207E-16, 0.0000000000000000000, 1.000000000000000000 ) ) ;
#62 = DIRECTION ( 'NONE',  ( -1.224646799147353207E-16, -0.0000000000000000000, -1.000000000000000000 ) ) ;
#63 = LINE ( 'NONE', #68, #217 ) ;
#64 = DIRECTION ( 'NONE',  ( -0.7071067811865627828, 0.0000000000000000000, -0.7071067811865321406 ) ) ;
#65 = EDGE_CURVE ( 'NONE', #81, #270, #109, .T. ) ;
#66 = FACE_OUTER_BOUND ( 'NONE', #242, .T. ) ;
#67 = CARTESIAN_POINT ( 'NONE',  ( 0.1573230194999999942, 1.926651322628716627E-17, -1.926651322628716627E-17 ) ) ;
#68 = CARTESIAN_POINT ( 'NONE',  ( 0.1424804999999990940, 1.744882882659133128E-17, 2.480315000000000047 ) ) ;
#69 = DIRECTION ( 'NONE',  ( -1.224646799147353207E-16, -0.0000000000000000000, -1.000000000000000000 ) ) ;
#70 = EDGE_CURVE ( 'NONE', #288, #180, #299, .T. ) ;
#71 = DIRECTION ( 'NONE',  ( 1.000000000000000000, 0.0000000000000000000, 0.0000000000000000000 ) ) ;
#72 =( CONVERSION_BASED_UNIT ( 'INCH', #199 ) LENGTH_UNIT ( ) NAMED_UNIT ( #134 ) );
#73 = SURFACE_SIDE_STYLE ('',( #94 ) ) ;
#74 = AXIS2_PLACEMENT_3D ( 'NONE', #25, #144, #253 ) ;
#75 =( GEOMETRIC_REPRESENTATION_CONTEXT ( 3 ) GLOBAL_UNCERTAINTY_ASSIGNED_CONTEXT ( ( #103 ) ) GLOBAL_UNIT_ASSIGNED_CONTEXT ( ( #154, #53, #121 ) ) REPRESENTATION_CONTEXT ( 'NONE', 'WORKASPACE' ) );
#76 = ORIENTED_EDGE ( 'NONE', *, *, #87, .T. ) ;
#77 = ORIENTED_EDGE ( 'NONE', *, *, #55, .F. ) ;
#78 = CIRCLE ( 'NONE', #292, 0.1574804999999999955 ) ;
#79 = CIRCLE ( 'NONE', #115, 0.1424804999999990940 ) ;
#80 = ORIENTED_EDGE ( 'NONE', *, *, #70, .F. ) ;
#81 = VERTEX_POINT ( 'NONE', #5 ) ;
#82 = APPLICATION_CONTEXT ( 'automotive_design' ) ;
#83 = EDGE_CURVE ( 'NONE', #288, #126, #283, .T. ) ;
#84 =( GEOMETRIC_REPRESENTATION_CONTEXT ( 3 ) GLOBAL_UNCERTAINTY_ASSIGNED_CONTEXT ( ( #219 ) ) GLOBAL_UNIT_ASSIGNED_CONTEXT ( ( #252, #211, #166 ) ) REPRESENTATION_CONTEXT ( 'NONE', 'WORKASPACE' ) );
#85 = DIRECTION ( 'NONE',  ( 0.0000000000000000000, 0.0000000000000000000, -1.000000000000000000 ) ) ;
#86 = DIRECTION ( 'NONE',  ( -1.000000000000000000, 0.0000000000000000000, 0.0000000000000000000 ) ) ;
#87 = EDGE_CURVE ( 'NONE', #180, #245, #285, .T. ) ;
#88 = AXIS2_PLACEMENT_3D ( 'NONE', #165, #30, #151 ) ;
#89 = DIRECTION ( 'NONE',  ( -1.000000000000000000, 0.0000000000000000000, 1.224646799147353454E-16 ) ) ;
#90 = AXIS2_PLACEMENT_3D ( 'NONE', #130, #17, #158 ) ;
#91 = DIRECTION ( 'NONE',  ( -0.0000000000000000000, -0.0000000000000000000, -1.000000000000000000 ) ) ;
#92 = CYLINDRICAL_SURFACE ( 'NONE', #250, 0.1573230194999999942 ) ;
#93 = CARTESIAN_POINT ( 'NONE',  ( 0.1573230195000001053, 0.0000000000000000000, 0.7874019999999999353 ) ) ;
#94 = SURFACE_STYLE_FILL_AREA ( #27 ) ;
#95 =( GEOMETRIC_REPRESENTATION_CONTEXT ( 3 ) GLOBAL_UNCERTAINTY_ASSIGNED_CONTEXT ( ( #268 ) ) GLOBAL_UNIT_ASSIGNED_CONTEXT ( ( #72, #135, #274 ) ) REPRESENTATION_CONTEXT ( 'NONE', 'WORKASPACE' ) );
#96 = PLANE ( 'NONE',  #90 ) ;
#97 = LINE ( 'NONE', #116, #34 ) ;
#98 = FACE_OUTER_BOUND ( 'NONE', #159, .T. ) ;
#99 = ADVANCED_FACE ( 'NONE', ( #66 ), #50, .F. ) ;
#100 = ORIENTED_EDGE ( 'NONE', *, *, #289, .T. ) ;
#101 = VECTOR ( 'NONE', #231, 39.37007874015748143 ) ;
#102 = ORIENTED_EDGE ( 'NONE', *, *, #232, .T. ) ;
#103 = UNCERTAINTY_MEASURE_WITH_UNIT (LENGTH_MEASURE( 1.000000000000000082E-05 ), #154, 'distance_accuracy_value', 'NONE');
#104 = ORIENTED_EDGE ( 'NONE', *, *, #32, .T. ) ;
#105 = CARTESIAN_POINT ( 'NONE',  ( 9.642893389422242582E-17, 0.0000000000000000000, 0.7874019999999999353 ) ) ;
#106 = AXIS2_PLACEMENT_3D ( 'NONE', #192, #49, #86 ) ;
#107 = DIRECTION ( 'NONE',  ( -1.224646799147353207E-16, -0.0000000000000000000, -1.000000000000000000 ) ) ;
#108 = CARTESIAN_POINT ( 'NONE',  ( 2.359467375330272285E-33, 0.0000000000000000000, 1.926651322628716627E-17 ) ) ;
#109 = CIRCLE ( 'NONE', #228, 0.1574804999999999955 ) ;
#110 = CARTESIAN_POINT ( 'NONE',  ( -0.1424804999999990940, 0.0000000000000000000, 2.480315000000000047 ) ) ;
#111 = CARTESIAN_POINT ( 'NONE',  ( 9.653830909561145841E-17, 0.0000000000000000000, 0.7882951162965942116 ) ) ;
#112 = FACE_OUTER_BOUND ( 'NONE', #182, .T. ) ;
#113 = DIRECTION ( 'NONE',  ( 1.000000000000000000, 0.0000000000000000000, 0.0000000000000000000 ) ) ;
#114 = DIRECTION ( 'NONE',  ( -1.224646799147353207E-16, -0.0000000000000000000, -1.000000000000000000 ) ) ;
#115 = AXIS2_PLACEMENT_3D ( 'NONE', #277, #162, #284 ) ;
#116 = CARTESIAN_POINT ( 'NONE',  ( -0.1574804999999999955, 0.0000000000000000000, 2.480315000000000047 ) ) ;
#117 = DIRECTION ( 'NONE',  ( -0.0000000000000000000, -0.0000000000000000000, -1.000000000000000000 ) ) ;
#118 = EDGE_CURVE ( 'NONE', #126, #245, #209, .T. ) ;
#119 = APPLICATION_PROTOCOL_DEFINITION ( 'draft international standard', 'automotive_design', 1998, #197 ) ;
#120 = ORIENTED_EDGE ( 'NONE', *, *, #222, .F. ) ;
#121 =( NAMED_UNIT ( * ) SI_UNIT ( $, .STERADIAN. ) SOLID_ANGLE_UNIT ( ) );
#122 = ORIENTED_EDGE ( 'NONE', *, *, #70, .T. ) ;
#123 = PRESENTATION_LAYER_ASSIGNMENT (  '', '', ( #204 ) ) ;
#124 = EDGE_CURVE ( 'NONE', #12, #293, #273, .T. ) ;
#125 = ORIENTED_EDGE ( 'NONE', *, *, #289, .F. ) ;
#126 = VERTEX_POINT ( 'NONE', #28 ) ;
#127 = ORIENTED_EDGE ( 'NONE', *, *, #83, .T. ) ;
#128 = VECTOR ( 'NONE', #196, 39.37007874015748143 ) ;
#129 = PRESENTATION_LAYER_ASSIGNMENT (  '', '', ( #185 ) ) ;
#130 = CARTESIAN_POINT ( 'NONE',  ( 0.0000000000000000000, 0.0000000000000000000, 2.480315000000000047 ) ) ;
#131 = EDGE_LOOP ( 'NONE', ( #203, #102, #127, #120 ) ) ;
#132 = EDGE_CURVE ( 'NONE', #155, #81, #46, .T. ) ;
#133 = CYLINDRICAL_SURFACE ( 'NONE', #294, 0.1574804999999999955 ) ;
#134 = DIMENSIONAL_EXPONENTS ( 1.000000000000000000, 0.0000000000000000000, 0.0000000000000000000, 0.0000000000000000000, 0.0000000000000000000, 0.0000000000000000000, 0.0000000000000000000 ) ;
#135 =( NAMED_UNIT ( * ) PLANE_ANGLE_UNIT ( ) SI_UNIT ( $, .RADIAN. ) );
#136 = CARTESIAN_POINT ( 'NONE',  ( 0.1573230194999999942, 1.926651322628716627E-17, 0.0000000000000000000 ) ) ;
#137 = MANIFOLD_SOLID_BREP ( 'Cut-Revolve1', #261 ) ;
#138 = CARTESIAN_POINT ( 'NONE',  ( -0.1573230194999999110, 1.927615612579982019E-17, 0.7874019999999999353 ) ) ;
#139 = SURFACE_STYLE_USAGE ( .BOTH. , #234 ) ;
#140 = ADVANCED_FACE ( 'NONE', ( #241 ), #96, .T. ) ;
#141 = AXIS2_PLACEMENT_3D ( 'NONE', #286, #167, #8 ) ;
#142 = FACE_OUTER_BOUND ( 'NONE', #221, .T. ) ;
#143 = CIRCLE ( 'NONE', #223, 0.1574804999999999955 ) ;
#144 = DIRECTION ( 'NONE',  ( -1.224646799147353207E-16, -0.0000000000000000000, -1.000000000000000000 ) ) ;
#145 = CYLINDRICAL_SURFACE ( 'NONE', #39, 0.1573230194999999942 ) ;
#146 = DIRECTION ( 'NONE',  ( -1.224646799147353207E-16, -0.0000000000000000000, -1.000000000000000000 ) ) ;
#147 = CARTESIAN_POINT ( 'NONE',  ( -0.1573230194999999110, 1.926651322628716627E-17, 0.7874019999999999353 ) ) ;
#148 = FILL_AREA_STYLE_COLOUR ( '', #169 ) ;
#149 = VECTOR ( 'NONE', #215, 39.37007874015748143 ) ;
#150 = ADVANCED_FACE ( 'NONE', ( #248 ), #133, .T. ) ;
#151 = DIRECTION ( 'NONE',  ( -1.000000000000000000, 0.0000000000000000000, 0.0000000000000000000 ) ) ;
#152 = EDGE_LOOP ( 'NONE', ( #181, #272 ) ) ;
#153 = ORIENTED_EDGE ( 'NONE', *, *, #19, .T. ) ;
#154 =( CONVERSION_BASED_UNIT ( 'INCH', #236 ) LENGTH_UNIT ( ) NAMED_UNIT ( #275 ) );
#155 = VERTEX_POINT ( 'NONE', #280 ) ;
#156 = MECHANICAL_DESIGN_GEOMETRIC_PRESENTATION_REPRESENTATION (  '', ( #185 ), #95 ) ;
#157 = ORIENTED_EDGE ( 'NONE', *, *, #132, .F. ) ;
#158 = DIRECTION ( 'NONE',  ( 1.000000000000000000, 0.0000000000000000000, -0.0000000000000000000 ) ) ;
#159 = EDGE_LOOP ( 'NONE', ( #125, #267, #218, #202 ) ) ;
#160 = VECTOR ( 'NONE', #64, 39.37007874015748854 ) ;
#161 = CARTESIAN_POINT ( 'NONE',  ( 0.0000000000000000000, 0.0000000000000000000, 2.480315000000000047 ) ) ;
#162 = DIRECTION ( 'NONE',  ( 0.0000000000000000000, 0.0000000000000000000, 1.000000000000000000 ) ) ;
#163 = AXIS2_PLACEMENT_3D ( 'NONE', #108, #296, #89 ) ;
#164 = DIRECTION ( 'NONE',  ( 0.7071067811865627828, 8.659560562355118980E-17, -0.7071067811865321406 ) ) ;
#165 = CARTESIAN_POINT ( 'NONE',  ( 0.0000000000000000000, 0.0000000000000000000, 2.480315000000000047 ) ) ;
#166 =( NAMED_UNIT ( * ) SI_UNIT ( $, .STERADIAN. ) SOLID_ANGLE_UNIT ( ) );
#167 = DIRECTION ( 'NONE',  ( 0.0000000000000000000, 0.0000000000000000000, 1.000000000000000000 ) ) ;
#168 =( LENGTH_UNIT ( ) NAMED_UNIT ( * ) SI_UNIT ( $, .METRE. ) );
#169 = COLOUR_RGB ( '',0.7921568627450980005, 0.8196078431372548767, 0.9333333333333333481 ) ;
#170 = DIRECTION ( 'NONE',  ( 0.0000000000000000000, 0.0000000000000000000, 1.000000000000000000 ) ) ;
#171 = SHAPE_DEFINITION_REPRESENTATION ( #205, #183 ) ;
#172 = LINE ( 'NONE', #147, #149 ) ;
#173 = ADVANCED_FACE ( 'NONE', ( #226 ), #189, .T. ) ;
#174 = DIRECTION ( 'NONE',  ( 0.0000000000000000000, 0.0000000000000000000, -1.000000000000000000 ) ) ;
#175 = VECTOR ( 'NONE', #69, 39.37007874015748143 ) ;
#176 = ORIENTED_EDGE ( 'NONE', *, *, #11, .T. ) ;
#177 = ORIENTED_EDGE ( 'NONE', *, *, #32, .F. ) ;
#178 = ADVANCED_FACE ( 'NONE', ( #42 ), #145, .T. ) ;
#179 = ORIENTED_EDGE ( 'NONE', *, *, #65, .T. ) ;
#180 = VERTEX_POINT ( 'NONE', #254 ) ;
#181 = ORIENTED_EDGE ( 'NONE', *, *, #247, .T. ) ;
#182 = EDGE_LOOP ( 'NONE', ( #157, #264, #153, #37 ) ) ;
#183 = ADVANCED_BREP_SHAPE_REPRESENTATION ( 'Micro_EMHM-080-4X', ( #137, #52 ), #84 ) ;
#184 = COLOUR_RGB ( '',0.7921568627450980005, 0.8196078431372548767, 0.9333333333333333481 ) ;
#185 = STYLED_ITEM ( 'NONE', ( #194 ), #137 ) ;
#186 = ADVANCED_FACE ( 'NONE', ( #112 ), #187, .T. ) ;
#187 = CYLINDRICAL_SURFACE ( 'NONE', #190, 0.1574804999999999955 ) ;
#188 = DIRECTION ( 'NONE',  ( -1.000000000000000000, 0.0000000000000000000, 0.0000000000000000000 ) ) ;
#189 = CONICAL_SURFACE ( 'NONE', #20, 0.1424804999999990940, 0.7853981633974699283 ) ;
#190 = AXIS2_PLACEMENT_3D ( 'NONE', #213, #208, #257 ) ;
#191 = DIRECTION ( 'NONE',  ( -1.000000000000000000, 0.0000000000000000000, 0.0000000000000000000 ) ) ;
#192 = CARTESIAN_POINT ( 'NONE',  ( 9.642893389422242582E-17, 0.0000000000000000000, 0.7874019999999999353 ) ) ;
#193 = ADVANCED_FACE ( 'NONE', ( #142 ), #15, .T. ) ;
#194 = PRESENTATION_STYLE_ASSIGNMENT (( #139 ) ) ;
#195 = CARTESIAN_POINT ( 'NONE',  ( 0.0000000000000000000, 0.0000000000000000000, 0.0000000000000000000 ) ) ;
#196 = DIRECTION ( 'NONE',  ( 0.1736481776669314692, 0.0000000000000000000, 0.9848077530122077983 ) ) ;
#197 = APPLICATION_CONTEXT ( 'automotive_design' ) ;
#198 = FILL_AREA_STYLE ('',( #258 ) ) ;
#199 = LENGTH_MEASURE_WITH_UNIT ( LENGTH_MEASURE( 0.02539999999999999897 ), #26 );
#200 = PRODUCT_DEFINITION ( 'UNKNOWN', '', #210, #291 ) ;
#201 = EDGE_LOOP ( 'NONE', ( #122, #76, #33, #290 ) ) ;
#202 = ORIENTED_EDGE ( 'NONE', *, *, #220, .F. ) ;
#203 = ORIENTED_EDGE ( 'NONE', *, *, #87, .F. ) ;
#204 = STYLED_ITEM ( 'NONE', ( #263 ), #183 ) ;
#205 = PRODUCT_DEFINITION_SHAPE ( 'NONE', 'NONE',  #200 ) ;
#206 = ADVANCED_FACE ( 'NONE', ( #233 ), #92, .T. ) ;
#207 = DIRECTION ( 'NONE',  ( -0.0000000000000000000, -0.0000000000000000000, -1.000000000000000000 ) ) ;
#208 = DIRECTION ( 'NONE',  ( -0.0000000000000000000, -0.0000000000000000000, -1.000000000000000000 ) ) ;
#209 = CIRCLE ( 'NONE', #246, 0.1573230194999999942 ) ;
#210 = PRODUCT_DEFINITION_FORMATION_WITH_SPECIFIED_SOURCE ( 'ANY', '', #266, .NOT_KNOWN. ) ;
#211 =( NAMED_UNIT ( * ) PLANE_ANGLE_UNIT ( ) SI_UNIT ( $, .RADIAN. ) );
#212 = CARTESIAN_POINT ( 'NONE',  ( 0.0000000000000000000, 0.0000000000000000000, 2.465314999999999923 ) ) ;
#213 = CARTESIAN_POINT ( 'NONE',  ( 0.0000000000000000000, 0.0000000000000000000, 2.480315000000000047 ) ) ;
#214 = CARTESIAN_POINT ( 'NONE',  ( -0.1573230194999999942, 0.0000000000000000000, 1.926651322628716627E-17 ) ) ;
#215 = DIRECTION ( 'NONE',  ( -0.1736481776669312471, 2.126576849575783933E-17, 0.9848077530122077983 ) ) ;
#216 = CARTESIAN_POINT ( 'NONE',  ( 0.0000000000000000000, 0.0000000000000000000, 0.0000000000000000000 ) ) ;
#217 = VECTOR ( 'NONE', #164, 39.37007874015748854 ) ;
#218 = ORIENTED_EDGE ( 'NONE', *, *, #251, .T. ) ;
#219 = UNCERTAINTY_MEASURE_WITH_UNIT (LENGTH_MEASURE( 1.000000000000000082E-05 ), #252, 'distance_accuracy_value', 'NONE');
#220 = EDGE_CURVE ( 'NONE', #155, #60, #143, .T. ) ;
#221 = EDGE_LOOP ( 'NONE', ( #13, #271, #244, #179 ) ) ;
#222 = EDGE_CURVE ( 'NONE', #245, #126, #279, .T. ) ;
#223 = AXIS2_PLACEMENT_3D ( 'NONE', #224, #85, #295 ) ;
#224 = CARTESIAN_POINT ( 'NONE',  ( 0.0000000000000000000, 0.0000000000000000000, 2.465314999999999923 ) ) ;
#225 = CARTESIAN_POINT ( 'NONE',  ( -0.1424804999999990940, 0.0000000000000000000, 2.480315000000000047 ) ) ;
#226 = FACE_OUTER_BOUND ( 'NONE', #14, .T. ) ;
#227 = CARTESIAN_POINT ( 'NONE',  ( 9.653830909561145841E-17, 0.0000000000000000000, 0.7882951162965942116 ) ) ;
#228 = AXIS2_PLACEMENT_3D ( 'NONE', #111, #237, #255 ) ;
#229 = MECHANICAL_DESIGN_GEOMETRIC_PRESENTATION_REPRESENTATION (  '', ( #204 ), #75 ) ;
#230 = LINE ( 'NONE', #110, #160 ) ;
#231 = DIRECTION ( 'NONE',  ( -1.224646799147353207E-16, -0.0000000000000000000, -1.000000000000000000 ) ) ;
#232 = EDGE_CURVE ( 'NONE', #180, #288, #47, .T. ) ;
#233 = FACE_OUTER_BOUND ( 'NONE', #131, .T. ) ;
#234 = SURFACE_SIDE_STYLE ('',( #3 ) ) ;
#235 = DIRECTION ( 'NONE',  ( 1.000000000000000000, 0.0000000000000000000, -0.0000000000000000000 ) ) ;
#236 = LENGTH_MEASURE_WITH_UNIT ( LENGTH_MEASURE( 0.02539999999999999897 ), #260 );
#237 = DIRECTION ( 'NONE',  ( -1.224646799147353207E-16, -0.0000000000000000000, -1.000000000000000000 ) ) ;
#238 = CARTESIAN_POINT ( 'NONE',  ( 0.0000000000000000000, 0.0000000000000000000, 0.0000000000000000000 ) ) ;
#239 = PRODUCT_CONTEXT ( 'NONE', #82, 'mechanical' ) ;
#240 = ORIENTED_EDGE ( 'NONE', *, *, #222, .T. ) ;
#241 = FACE_OUTER_BOUND ( 'NONE', #152, .T. ) ;
#242 = EDGE_LOOP ( 'NONE', ( #287, #240 ) ) ;
#243 = AXIS2_PLACEMENT_3D ( 'NONE', #4, #2, #22 ) ;
#244 = ORIENTED_EDGE ( 'NONE', *, *, #55, .T. ) ;
#245 = VERTEX_POINT ( 'NONE', #136 ) ;
#246 = AXIS2_PLACEMENT_3D ( 'NONE', #259, #114, #7 ) ;
#247 = EDGE_CURVE ( 'NONE', #293, #12, #79, .T. ) ;
#248 = FACE_OUTER_BOUND ( 'NONE', #35, .T. ) ;
#249 = DIRECTION ( 'NONE',  ( -1.000000000000000000, 0.0000000000000000000, 1.224646799147353454E-16 ) ) ;
#250 = AXIS2_PLACEMENT_3D ( 'NONE', #195, #62, #249 ) ;
#251 = EDGE_CURVE ( 'NONE', #293, #60, #230, .T. ) ;
#252 =( CONVERSION_BASED_UNIT ( 'INCH', #297 ) LENGTH_UNIT ( ) NAMED_UNIT ( #298 ) );
#253 = DIRECTION ( 'NONE',  ( -1.000000000000000000, 0.0000000000000000000, 0.0000000000000000000 ) ) ;
#254 = CARTESIAN_POINT ( 'NONE',  ( 0.1573230195000001053, 0.0000000000000000000, 0.7874019999999999353 ) ) ;
#255 = DIRECTION ( 'NONE',  ( 1.000000000000000000, 0.0000000000000000000, 0.0000000000000000000 ) ) ;
#256 = CONICAL_SURFACE ( 'NONE', #269, 0.1573230194999999942, 0.1745329251994339748 ) ;
#257 = DIRECTION ( 'NONE',  ( -1.000000000000000000, 0.0000000000000000000, 0.0000000000000000000 ) ) ;
#258 = FILL_AREA_STYLE_COLOUR ( '', #184 ) ;
#259 = CARTESIAN_POINT ( 'NONE',  ( 2.359467375330272285E-33, 0.0000000000000000000, 1.926651322628716627E-17 ) ) ;
#260 =( LENGTH_UNIT ( ) NAMED_UNIT ( * ) SI_UNIT ( $, .METRE. ) );
#261 = CLOSED_SHELL ( 'NONE', ( #178, #1, #173, #150, #186, #140, #41, #193, #206, #99 ) ) ;
#262 = CARTESIAN_POINT ( 'NONE',  ( 0.1574804999999999955, 1.928579902531247412E-17, 2.480315000000000047 ) ) ;
#263 = PRESENTATION_STYLE_ASSIGNMENT (( #29 ) ) ;
#264 = ORIENTED_EDGE ( 'NONE', *, *, #220, .T. ) ;
#265 = ORIENTED_EDGE ( 'NONE', *, *, #19, .F. ) ;
#266 = PRODUCT ( 'Micro_EMHM-080-4X', 'Micro_EMHM-080-4X', '', ( #239 ) ) ;
#267 = ORIENTED_EDGE ( 'NONE', *, *, #247, .F. ) ;
#268 = UNCERTAINTY_MEASURE_WITH_UNIT (LENGTH_MEASURE( 1.000000000000000082E-05 ), #72, 'distance_accuracy_value', 'NONE');
#269 = AXIS2_PLACEMENT_3D ( 'NONE', #105, #61, #71 ) ;
#270 = VERTEX_POINT ( 'NONE', #282 ) ;
#271 = ORIENTED_EDGE ( 'NONE', *, *, #232, .F. ) ;
#272 = ORIENTED_EDGE ( 'NONE', *, *, #124, .T. ) ;
#273 = CIRCLE ( 'NONE', #141, 0.1424804999999990940 ) ;
#274 =( NAMED_UNIT ( * ) SI_UNIT ( $, .STERADIAN. ) SOLID_ANGLE_UNIT ( ) );
#275 = DIMENSIONAL_EXPONENTS ( 1.000000000000000000, 0.0000000000000000000, 0.0000000000000000000, 0.0000000000000000000, 0.0000000000000000000, 0.0000000000000000000, 0.0000000000000000000 ) ;
#276 = DIRECTION ( 'NONE',  ( 0.0000000000000000000, 0.0000000000000000000, -1.000000000000000000 ) ) ;
#277 = CARTESIAN_POINT ( 'NONE',  ( 0.0000000000000000000, 0.0000000000000000000, 2.480315000000000047 ) ) ;
#278 = CONICAL_SURFACE ( 'NONE', #88, 0.1424804999999990940, 0.7853981633974699283 ) ;
#279 = CIRCLE ( 'NONE', #163, 0.1573230194999999942 ) ;
#280 = CARTESIAN_POINT ( 'NONE',  ( 0.1574804999999999955, 1.928579902531247412E-17, 2.465314999999999923 ) ) ;
#281 = DIRECTION ( 'NONE',  ( 1.000000000000000000, 0.0000000000000000000, 0.0000000000000000000 ) ) ;
#282 = CARTESIAN_POINT ( 'NONE',  ( -0.1574804999999998845, 0.0000000000000000000, 0.7882951162965942116 ) ) ;
#283 = LINE ( 'NONE', #214, #101 ) ;
#284 = DIRECTION ( 'NONE',  ( 1.000000000000000000, 0.0000000000000000000, 0.0000000000000000000 ) ) ;
#285 = LINE ( 'NONE', #67, #175 ) ;
#286 = CARTESIAN_POINT ( 'NONE',  ( 0.0000000000000000000, 0.0000000000000000000, 2.480315000000000047 ) ) ;
#287 = ORIENTED_EDGE ( 'NONE', *, *, #118, .T. ) ;
#288 = VERTEX_POINT ( 'NONE', #138 ) ;
#289 = EDGE_CURVE ( 'NONE', #12, #155, #63, .T. ) ;
#290 = ORIENTED_EDGE ( 'NONE', *, *, #83, .F. ) ;
#291 = PRODUCT_DEFINITION_CONTEXT ( 'detailed design', #197, 'design' ) ;
#292 = AXIS2_PLACEMENT_3D ( 'NONE', #227, #146, #113 ) ;
#293 = VERTEX_POINT ( 'NONE', #225 ) ;
#294 = AXIS2_PLACEMENT_3D ( 'NONE', #161, #207, #191 ) ;
#295 = DIRECTION ( 'NONE',  ( 1.000000000000000000, 0.0000000000000000000, 0.0000000000000000000 ) ) ;
#296 = DIRECTION ( 'NONE',  ( -1.224646799147353207E-16, -0.0000000000000000000, -1.000000000000000000 ) ) ;
#297 = LENGTH_MEASURE_WITH_UNIT ( LENGTH_MEASURE( 0.02539999999999999897 ), #168 );
#298 = DIMENSIONAL_EXPONENTS ( 1.000000000000000000, 0.0000000000000000000, 0.0000000000000000000, 0.0000000000000000000, 0.0000000000000000000, 0.0000000000000000000, 0.0000000000000000000 ) ;
#299 = CIRCLE ( 'NONE', #74, 0.1573230194999999942 ) ;
ENDSEC;
END-ISO-10303-21;
