ISO-10303-21;
HEADER;
FILE_DESCRIPTION (( 'STEP AP214' ),
    '1' );
FILE_NAME ('44362W.STEP',
    '2023-06-22T20:19:29',
    ( '' ),
    ( '' ),
    'SwSTEP 2.0',
    'SolidWorks 2023',
    '' );
FILE_SCHEMA (( 'AUTOMOTIVE_DESIGN' ));
ENDSEC;

DATA;
#1 = CYLINDRICAL_SURFACE ( 'NONE', #260, 0.3749999999999998890 ) ;
#2 = EDGE_CURVE ( 'NONE', #247, #161, #38, .T. ) ;
#3 = EDGE_LOOP ( 'NONE', ( #35, #148, #125, #62 ) ) ;
#4 = CARTESIAN_POINT ( 'NONE',  ( 0.3750000000000001665, 3.000000000000000444, 4.592425496802572986E-17 ) ) ;
#5 = FACE_OUTER_BOUND ( 'NONE', #66, .T. ) ;
#6 = EDGE_LOOP ( 'NONE', ( #153, #12, #294, #53 ) ) ;
#7 = DIRECTION ( 'NONE',  ( 0.000000000000000000, 0.000000000000000000, -1.000000000000000000 ) ) ;
#8 = FACE_OUTER_BOUND ( 'NONE', #203, .T. ) ;
#9 =( NAMED_UNIT ( * ) PLANE_ANGLE_UNIT ( ) SI_UNIT ( $, .RADIAN. ) );
#10 = PRESENTATION_LAYER_ASSIGNMENT (  '', '', ( #44 ) ) ;
#11 = ORIENTED_EDGE ( 'NONE', *, *, #295, .F. ) ;
#12 = ORIENTED_EDGE ( 'NONE', *, *, #295, .T. ) ;
#13 = CARTESIAN_POINT ( 'NONE',  ( 0.000000000000000000, 0.000000000000000000, 0.000000000000000000 ) ) ;
#14 = VERTEX_POINT ( 'NONE', #71 ) ;
#15 = PRESENTATION_LAYER_ASSIGNMENT (  '', '', ( #242 ) ) ;
#16 = CARTESIAN_POINT ( 'NONE',  ( 4.592425496802575451E-17, 0.000000000000000000, 0.3750000000000000555 ) ) ;
#17 = CARTESIAN_POINT ( 'NONE',  ( 0.000000000000000000, 0.000000000000000000, 0.000000000000000000 ) ) ;
#18 = SURFACE_STYLE_USAGE ( .BOTH. , #88 ) ;
#19 = CLOSED_SHELL ( 'NONE', ( #188, #259, #60, #277 ) ) ;
#20 =( LENGTH_UNIT ( ) NAMED_UNIT ( * ) SI_UNIT ( $, .METRE. ) );
#21 =( GEOMETRIC_REPRESENTATION_CONTEXT ( 3 ) GLOBAL_UNCERTAINTY_ASSIGNED_CONTEXT ( ( #149 ) ) GLOBAL_UNIT_ASSIGNED_CONTEXT ( ( #280, #209, #300 ) ) REPRESENTATION_CONTEXT ( 'NONE', 'WORKASPACE' ) );
#22 = LENGTH_MEASURE_WITH_UNIT ( LENGTH_MEASURE( 0.02539999999999999897 ), #45 );
#23 = FILL_AREA_STYLE_COLOUR ( '', #72 ) ;
#24 = APPLICATION_CONTEXT ( 'automotive_design' ) ;
#25 = ADVANCED_FACE ( 'NONE', ( #234 ), #89, .T. ) ;
#26 = FACE_OUTER_BOUND ( 'NONE', #3, .T. ) ;
#27 = COLOUR_RGB ( '',1.000000000000000000, 0.000000000000000000, 0.000000000000000000 ) ;
#28 = UNCERTAINTY_MEASURE_WITH_UNIT (LENGTH_MEASURE( 1.000000000000000082E-05 ), #215, 'distance_accuracy_value', 'NONE');
#29 = FILL_AREA_STYLE ('',( #197 ) ) ;
#30 = DIRECTION ( 'NONE',  ( 1.224646799147352961E-16, 1.000000000000000000, -0.000000000000000000 ) ) ;
#31 = ORIENTED_EDGE ( 'NONE', *, *, #159, .T. ) ;
#32 = CARTESIAN_POINT ( 'NONE',  ( 0.3750000000000000555, 3.000000000000000444, 0.000000000000000000 ) ) ;
#33 = DIRECTION ( 'NONE',  ( -0.000000000000000000, -1.000000000000000000, -0.000000000000000000 ) ) ;
#34 = AXIS2_PLACEMENT_3D ( 'NONE', #83, #119, #122 ) ;
#35 = ORIENTED_EDGE ( 'NONE', *, *, #254, .T. ) ;
#36 = DIRECTION ( 'NONE',  ( 1.224646799147352961E-16, 1.000000000000000000, -0.000000000000000000 ) ) ;
#37 = APPLICATION_CONTEXT ( 'automotive_design' ) ;
#38 = CIRCLE ( 'NONE', #292, 0.3750000000000000555 ) ;
#39 = ORIENTED_EDGE ( 'NONE', *, *, #116, .T. ) ;
#40 = SURFACE_STYLE_FILL_AREA ( #251 ) ;
#41 = CARTESIAN_POINT ( 'NONE',  ( -3.032960542342103792E-32, 1.000000000000000000, 0.000000000000000000 ) ) ;
#42 = DIRECTION ( 'NONE',  ( 0.000000000000000000, 0.000000000000000000, 1.000000000000000000 ) ) ;
#43 = SURFACE_SIDE_STYLE ('',( #278 ) ) ;
#44 = STYLED_ITEM ( 'NONE', ( #272 ), #277 ) ;
#45 =( LENGTH_UNIT ( ) NAMED_UNIT ( * ) SI_UNIT ( $, .METRE. ) );
#46 =( NAMED_UNIT ( * ) PLANE_ANGLE_UNIT ( ) SI_UNIT ( $, .RADIAN. ) );
#47 = SURFACE_SIDE_STYLE ('',( #164 ) ) ;
#48 = DIMENSIONAL_EXPONENTS ( 1.000000000000000000, 0.000000000000000000, 0.000000000000000000, 0.000000000000000000, 0.000000000000000000, 0.000000000000000000, 0.000000000000000000 ) ;
#49 = FACE_OUTER_BOUND ( 'NONE', #56, .T. ) ;
#50 = EDGE_CURVE ( 'NONE', #98, #14, #137, .T. ) ;
#51 = CYLINDRICAL_SURFACE ( 'NONE', #52, 0.3750000000000000555 ) ;
#52 = AXIS2_PLACEMENT_3D ( 'NONE', #167, #144, #235 ) ;
#53 = ORIENTED_EDGE ( 'NONE', *, *, #189, .F. ) ;
#54 = DIRECTION ( 'NONE',  ( 1.224646799147352961E-16, 1.000000000000000000, -0.000000000000000000 ) ) ;
#55 = DIRECTION ( 'NONE',  ( 1.224646799147352961E-16, 1.000000000000000000, -0.000000000000000000 ) ) ;
#56 = EDGE_LOOP ( 'NONE', ( #200, #252 ) ) ;
#57 = FILL_AREA_STYLE_COLOUR ( '', #243 ) ;
#58 = PRESENTATION_LAYER_ASSIGNMENT (  '', '', ( #275 ) ) ;
#59 =( NAMED_UNIT ( * ) PLANE_ANGLE_UNIT ( ) SI_UNIT ( $, .RADIAN. ) );
#60 = ADVANCED_FACE ( 'NONE', ( #143 ), #107, .T. ) ;
#61 = MANIFOLD_SOLID_BREP ( 'Revolve - Cutting Edge', #19 ) ;
#62 = ORIENTED_EDGE ( 'NONE', *, *, #90, .F. ) ;
#63 = CARTESIAN_POINT ( 'NONE',  ( 2.449293598294705921E-16, 3.000000000000000444, 0.000000000000000000 ) ) ;
#64 = EDGE_LOOP ( 'NONE', ( #121, #31, #198, #113 ) ) ;
#65 =( GEOMETRIC_REPRESENTATION_CONTEXT ( 3 ) GLOBAL_UNCERTAINTY_ASSIGNED_CONTEXT ( ( #100 ) ) GLOBAL_UNIT_ASSIGNED_CONTEXT ( ( #299, #305, #182 ) ) REPRESENTATION_CONTEXT ( 'NONE', 'WORKASPACE' ) );
#66 = EDGE_LOOP ( 'NONE', ( #291, #274 ) ) ;
#67 = DIMENSIONAL_EXPONENTS ( 1.000000000000000000, 0.000000000000000000, 0.000000000000000000, 0.000000000000000000, 0.000000000000000000, 0.000000000000000000, 0.000000000000000000 ) ;
#68 = MANIFOLD_SOLID_BREP ( 'Revolve - Tool Body (Straight Shanked)', #151 ) ;
#69 =( CONVERSION_BASED_UNIT ( 'INCH', #22 ) LENGTH_UNIT ( ) NAMED_UNIT ( #67 ) );
#70 = APPLICATION_PROTOCOL_DEFINITION ( 'draft international standard', 'automotive_design', 1998, #24 ) ;
#71 = CARTESIAN_POINT ( 'NONE',  ( 4.592425496802575451E-17, 0.000000000000000000, 0.3750000000000000555 ) ) ;
#72 = COLOUR_RGB ( '',1.000000000000000000, 0.000000000000000000, 0.000000000000000000 ) ;
#73 =( NAMED_UNIT ( * ) PLANE_ANGLE_UNIT ( ) SI_UNIT ( $, .RADIAN. ) );
#74 = DIRECTION ( 'NONE',  ( 0.000000000000000000, 0.000000000000000000, -1.000000000000000000 ) ) ;
#75 = SURFACE_STYLE_USAGE ( .BOTH. , #101 ) ;
#76 = LENGTH_MEASURE_WITH_UNIT ( LENGTH_MEASURE( 0.02539999999999999897 ), #99 );
#77 = VERTEX_POINT ( 'NONE', #192 ) ;
#78 = VECTOR ( 'NONE', #54, 39.37007874015748143 ) ;
#79 =( NAMED_UNIT ( * ) SI_UNIT ( $, .STERADIAN. ) SOLID_ANGLE_UNIT ( ) );
#80 = ORIENTED_EDGE ( 'NONE', *, *, #2, .T. ) ;
#81 =( CONVERSION_BASED_UNIT ( 'INCH', #76 ) LENGTH_UNIT ( ) NAMED_UNIT ( #48 ) );
#82 = VERTEX_POINT ( 'NONE', #210 ) ;
#83 = CARTESIAN_POINT ( 'NONE',  ( 0.000000000000000000, 1.000000000000000000, 0.000000000000000000 ) ) ;
#84 = EDGE_LOOP ( 'NONE', ( #226, #245 ) ) ;
#85 = DIMENSIONAL_EXPONENTS ( 1.000000000000000000, 0.000000000000000000, 0.000000000000000000, 0.000000000000000000, 0.000000000000000000, 0.000000000000000000, 0.000000000000000000 ) ;
#86 = LENGTH_MEASURE_WITH_UNIT ( LENGTH_MEASURE( 0.02539999999999999897 ), #181 );
#87 = DIRECTION ( 'NONE',  ( 1.224646799147352961E-16, 1.000000000000000000, -0.000000000000000000 ) ) ;
#88 = SURFACE_SIDE_STYLE ('',( #40 ) ) ;
#89 = CYLINDRICAL_SURFACE ( 'NONE', #166, 0.3749999999999998890 ) ;
#90 = EDGE_CURVE ( 'NONE', #308, #221, #298, .T. ) ;
#91 = SURFACE_STYLE_FILL_AREA ( #29 ) ;
#92 = AXIS2_PLACEMENT_3D ( 'NONE', #289, #33, #132 ) ;
#93 = LINE ( 'NONE', #97, #78 ) ;
#94 = UNCERTAINTY_MEASURE_WITH_UNIT (LENGTH_MEASURE( 1.000000000000000082E-05 ), #81, 'distance_accuracy_value', 'NONE');
#95 = DIRECTION ( 'NONE',  ( -0.000000000000000000, -1.000000000000000000, -0.000000000000000000 ) ) ;
#96 = AXIS2_PLACEMENT_3D ( 'NONE', #163, #105, #207 ) ;
#97 = CARTESIAN_POINT ( 'NONE',  ( -0.3749999999999996114, 3.000000000000000444, 0.000000000000000000 ) ) ;
#98 = VERTEX_POINT ( 'NONE', #307 ) ;
#99 =( LENGTH_UNIT ( ) NAMED_UNIT ( * ) SI_UNIT ( $, .METRE. ) );
#100 = UNCERTAINTY_MEASURE_WITH_UNIT (LENGTH_MEASURE( 1.000000000000000082E-05 ), #299, 'distance_accuracy_value', 'NONE');
#101 = SURFACE_SIDE_STYLE ('',( #267 ) ) ;
#102 = AXIS2_PLACEMENT_3D ( 'NONE', #240, #165, #194 ) ;
#103 = DIRECTION ( 'NONE',  ( 0.000000000000000000, -1.000000000000000000, -0.000000000000000000 ) ) ;
#104 = MECHANICAL_DESIGN_GEOMETRIC_PRESENTATION_REPRESENTATION (  '', ( #242 ), #65 ) ;
#105 = DIRECTION ( 'NONE',  ( 1.224646799147352961E-16, 1.000000000000000000, -0.000000000000000000 ) ) ;
#106 = MECHANICAL_DESIGN_GEOMETRIC_PRESENTATION_REPRESENTATION (  '', ( #178 ), #21 ) ;
#107 = CYLINDRICAL_SURFACE ( 'NONE', #248, 0.3750000000000000555 ) ;
#108 = PRESENTATION_STYLE_ASSIGNMENT (( #140 ) ) ;
#109 = FACE_OUTER_BOUND ( 'NONE', #84, .T. ) ;
#110 = CARTESIAN_POINT ( 'NONE',  ( 0.000000000000000000, 0.000000000000000000, 0.000000000000000000 ) ) ;
#111 = AXIS2_PLACEMENT_3D ( 'NONE', #32, #169, #287 ) ;
#112 = STYLED_ITEM ( 'NONE', ( #290 ), #259 ) ;
#113 = ORIENTED_EDGE ( 'NONE', *, *, #116, .F. ) ;
#114 = CARTESIAN_POINT ( 'NONE',  ( -0.3750000000000000555, 1.000000000000000000, 0.000000000000000000 ) ) ;
#115 = SURFACE_STYLE_USAGE ( .BOTH. , #211 ) ;
#116 = EDGE_CURVE ( 'NONE', #161, #77, #93, .T. ) ;
#117 = MECHANICAL_DESIGN_GEOMETRIC_PRESENTATION_REPRESENTATION (  '', ( #112 ), #255 ) ;
#118 = LENGTH_MEASURE_WITH_UNIT ( LENGTH_MEASURE( 0.02539999999999999897 ), #216 );
#119 = DIRECTION ( 'NONE',  ( 0.000000000000000000, 1.000000000000000000, 0.000000000000000000 ) ) ;
#120 = SURFACE_SIDE_STYLE ('',( #127 ) ) ;
#121 = ORIENTED_EDGE ( 'NONE', *, *, #296, .T. ) ;
#122 = DIRECTION ( 'NONE',  ( 0.000000000000000000, -0.000000000000000000, 1.000000000000000000 ) ) ;
#123 = AXIS2_PLACEMENT_3D ( 'NONE', #63, #36, #250 ) ;
#124 = DIMENSIONAL_EXPONENTS ( 1.000000000000000000, 0.000000000000000000, 0.000000000000000000, 0.000000000000000000, 0.000000000000000000, 0.000000000000000000, 0.000000000000000000 ) ;
#125 = ORIENTED_EDGE ( 'NONE', *, *, #217, .F. ) ;
#126 = PRODUCT_DEFINITION_CONTEXT ( 'detailed design', #37, 'design' ) ;
#127 = SURFACE_STYLE_FILL_AREA ( #150 ) ;
#128 = ORIENTED_EDGE ( 'NONE', *, *, #254, .F. ) ;
#129 = PRESENTATION_STYLE_ASSIGNMENT (( #18 ) ) ;
#130 = EDGE_CURVE ( 'NONE', #77, #82, #170, .T. ) ;
#131 = ADVANCED_FACE ( 'NONE', ( #109 ), #168, .F. ) ;
#132 = DIRECTION ( 'NONE',  ( 0.000000000000000000, 0.000000000000000000, -1.000000000000000000 ) ) ;
#133 = VECTOR ( 'NONE', #30, 39.37007874015748143 ) ;
#134 = PRODUCT_DEFINITION_FORMATION_WITH_SPECIFIED_SOURCE ( 'ANY', '', #212, .NOT_KNOWN. ) ;
#135 = SURFACE_STYLE_USAGE ( .BOTH. , #43 ) ;
#136 = DIRECTION ( 'NONE',  ( 0.000000000000000000, 0.000000000000000000, -1.000000000000000000 ) ) ;
#137 = LINE ( 'NONE', #16, #206 ) ;
#138 = AXIS2_PLACEMENT_3D ( 'NONE', #283, #263, #142 ) ;
#139 = CIRCLE ( 'NONE', #92, 0.3750000000000000555 ) ;
#140 = SURFACE_STYLE_USAGE ( .BOTH. , #47 ) ;
#141 = UNCERTAINTY_MEASURE_WITH_UNIT (LENGTH_MEASURE( 1.000000000000000082E-05 ), #173, 'distance_accuracy_value', 'NONE');
#142 = DIRECTION ( 'NONE',  ( -1.000000000000000000, 0.000000000000000000, 0.000000000000000000 ) ) ;
#143 = FACE_OUTER_BOUND ( 'NONE', #6, .T. ) ;
#144 = DIRECTION ( 'NONE',  ( -0.000000000000000000, -1.000000000000000000, -0.000000000000000000 ) ) ;
#145 = ADVANCED_FACE ( 'NONE', ( #49 ), #236, .F. ) ;
#146 = PRESENTATION_LAYER_ASSIGNMENT (  '', '', ( #178 ) ) ;
#147 = LENGTH_MEASURE_WITH_UNIT ( LENGTH_MEASURE( 0.02539999999999999897 ), #233 );
#148 = ORIENTED_EDGE ( 'NONE', *, *, #50, .T. ) ;
#149 = UNCERTAINTY_MEASURE_WITH_UNIT (LENGTH_MEASURE( 1.000000000000000082E-05 ), #280, 'distance_accuracy_value', 'NONE');
#150 = FILL_AREA_STYLE ('',( #57 ) ) ;
#151 = CLOSED_SHELL ( 'NONE', ( #25, #131, #231, #145 ) ) ;
#152 = MECHANICAL_DESIGN_GEOMETRIC_PRESENTATION_REPRESENTATION (  '', ( #44 ), #184 ) ;
#153 = ORIENTED_EDGE ( 'NONE', *, *, #50, .F. ) ;
#154 = UNCERTAINTY_MEASURE_WITH_UNIT (LENGTH_MEASURE( 1.000000000000000082E-05 ), #69, 'distance_accuracy_value', 'NONE');
#155 = SURFACE_STYLE_USAGE ( .BOTH. , #120 ) ;
#156 = CIRCLE ( 'NONE', #123, 0.3749999999999997780 ) ;
#157 = AXIS2_PLACEMENT_3D ( 'NONE', #17, #42, #297 ) ;
#158 = PLANE ( 'NONE',  #237 ) ;
#159 = EDGE_CURVE ( 'NONE', #247, #82, #285, .T. ) ;
#160 = FILL_AREA_STYLE_COLOUR ( '', #208 ) ;
#161 = VERTEX_POINT ( 'NONE', #114 ) ;
#162 = CARTESIAN_POINT ( 'NONE',  ( 2.449293598294705921E-16, 3.000000000000000444, 0.000000000000000000 ) ) ;
#163 = CARTESIAN_POINT ( 'NONE',  ( -3.032960542342103792E-32, 1.000000000000000000, 0.000000000000000000 ) ) ;
#164 = SURFACE_STYLE_FILL_AREA ( #258 ) ;
#165 = DIRECTION ( 'NONE',  ( 1.224646799147352961E-16, 1.000000000000000000, -0.000000000000000000 ) ) ;
#166 = AXIS2_PLACEMENT_3D ( 'NONE', #162, #253, #187 ) ;
#167 = CARTESIAN_POINT ( 'NONE',  ( 0.000000000000000000, 0.000000000000000000, 0.000000000000000000 ) ) ;
#168 = PLANE ( 'NONE',  #102 ) ;
#169 = DIRECTION ( 'NONE',  ( -1.224646799147352961E-16, -1.000000000000000000, 0.000000000000000000 ) ) ;
#170 = CIRCLE ( 'NONE', #138, 0.3749999999999997780 ) ;
#171 = AXIS2_PLACEMENT_3D ( 'NONE', #264, #95, #74 ) ;
#172 = CARTESIAN_POINT ( 'NONE',  ( 2.449293598294705921E-16, 3.000000000000000444, 0.000000000000000000 ) ) ;
#173 =( CONVERSION_BASED_UNIT ( 'INCH', #199 ) LENGTH_UNIT ( ) NAMED_UNIT ( #186 ) );
#174 = MECHANICAL_DESIGN_GEOMETRIC_PRESENTATION_REPRESENTATION (  '', ( #306 ), #302 ) ;
#175 = CIRCLE ( 'NONE', #196, 0.3750000000000000555 ) ;
#176 = ORIENTED_EDGE ( 'NONE', *, *, #159, .F. ) ;
#177 = FILL_AREA_STYLE_COLOUR ( '', #303 ) ;
#178 = STYLED_ITEM ( 'NONE', ( #129 ), #68 ) ;
#179 =( NAMED_UNIT ( * ) SI_UNIT ( $, .STERADIAN. ) SOLID_ANGLE_UNIT ( ) );
#180 = DIRECTION ( 'NONE',  ( -0.000000000000000000, -1.000000000000000000, -0.000000000000000000 ) ) ;
#181 =( LENGTH_UNIT ( ) NAMED_UNIT ( * ) SI_UNIT ( $, .METRE. ) );
#182 =( NAMED_UNIT ( * ) SI_UNIT ( $, .STERADIAN. ) SOLID_ANGLE_UNIT ( ) );
#183 = CIRCLE ( 'NONE', #222, 0.3750000000000000555 ) ;
#184 =( GEOMETRIC_REPRESENTATION_CONTEXT ( 3 ) GLOBAL_UNCERTAINTY_ASSIGNED_CONTEXT ( ( #141 ) ) GLOBAL_UNIT_ASSIGNED_CONTEXT ( ( #173, #202, #293 ) ) REPRESENTATION_CONTEXT ( 'NONE', 'WORKASPACE' ) );
#185 = SHAPE_DEFINITION_REPRESENTATION ( #219, #284 ) ;
#186 = DIMENSIONAL_EXPONENTS ( 1.000000000000000000, 0.000000000000000000, 0.000000000000000000, 0.000000000000000000, 0.000000000000000000, 0.000000000000000000, 0.000000000000000000 ) ;
#187 = DIRECTION ( 'NONE',  ( -1.000000000000000000, 0.000000000000000000, 0.000000000000000000 ) ) ;
#188 = ADVANCED_FACE ( 'NONE', ( #26 ), #51, .T. ) ;
#189 = EDGE_CURVE ( 'NONE', #14, #221, #183, .T. ) ;
#190 = DIRECTION ( 'NONE',  ( -0.000000000000000000, -1.000000000000000000, -0.000000000000000000 ) ) ;
#191 = MECHANICAL_DESIGN_GEOMETRIC_PRESENTATION_REPRESENTATION (  '', ( #275 ), #227 ) ;
#192 = CARTESIAN_POINT ( 'NONE',  ( -0.3749999999999995004, 3.000000000000000444, 0.000000000000000000 ) ) ;
#193 = CARTESIAN_POINT ( 'NONE',  ( 0.000000000000000000, 0.000000000000000000, -0.3750000000000000555 ) ) ;
#194 = DIRECTION ( 'NONE',  ( -1.000000000000000000, 1.224646799147352961E-16, 0.000000000000000000 ) ) ;
#195 = VECTOR ( 'NONE', #190, 39.37007874015748143 ) ;
#196 = AXIS2_PLACEMENT_3D ( 'NONE', #268, #241, #218 ) ;
#197 = FILL_AREA_STYLE_COLOUR ( '', #27 ) ;
#198 = ORIENTED_EDGE ( 'NONE', *, *, #130, .F. ) ;
#199 = LENGTH_MEASURE_WITH_UNIT ( LENGTH_MEASURE( 0.02539999999999999897 ), #270 );
#200 = ORIENTED_EDGE ( 'NONE', *, *, #130, .T. ) ;
#201 = CARTESIAN_POINT ( 'NONE',  ( 0.3750000000000000555, 1.000000000000000000, 4.592425496802573602E-17 ) ) ;
#202 =( NAMED_UNIT ( * ) PLANE_ANGLE_UNIT ( ) SI_UNIT ( $, .RADIAN. ) );
#203 = EDGE_LOOP ( 'NONE', ( #128, #11 ) ) ;
#204 = PRODUCT_DEFINITION ( 'UNKNOWN', '', #134, #126 ) ;
#205 = PRODUCT_CONTEXT ( 'NONE', #24, 'mechanical' ) ;
#206 = VECTOR ( 'NONE', #180, 39.37007874015748143 ) ;
#207 = DIRECTION ( 'NONE',  ( -1.000000000000000000, 0.000000000000000000, 0.000000000000000000 ) ) ;
#208 = COLOUR_RGB ( '',0.7921568627450980005, 0.8196078431372548767, 0.9333333333333333481 ) ;
#209 =( NAMED_UNIT ( * ) PLANE_ANGLE_UNIT ( ) SI_UNIT ( $, .RADIAN. ) );
#210 = CARTESIAN_POINT ( 'NONE',  ( 0.3750000000000000555, 3.000000000000000444, 4.592425496802573602E-17 ) ) ;
#211 = SURFACE_SIDE_STYLE ('',( #91 ) ) ;
#212 = PRODUCT ( '44362W', '44362W', '', ( #205 ) ) ;
#213 =( NAMED_UNIT ( * ) SI_UNIT ( $, .STERADIAN. ) SOLID_ANGLE_UNIT ( ) );
#214 = FACE_OUTER_BOUND ( 'NONE', #239, .T. ) ;
#215 =( CONVERSION_BASED_UNIT ( 'INCH', #147 ) LENGTH_UNIT ( ) NAMED_UNIT ( #85 ) );
#216 =( LENGTH_UNIT ( ) NAMED_UNIT ( * ) SI_UNIT ( $, .METRE. ) );
#217 = EDGE_CURVE ( 'NONE', #221, #14, #286, .T. ) ;
#218 = DIRECTION ( 'NONE',  ( 0.000000000000000000, 0.000000000000000000, -1.000000000000000000 ) ) ;
#219 = PRODUCT_DEFINITION_SHAPE ( 'NONE', 'NONE',  #204 ) ;
#220 = DIRECTION ( 'NONE',  ( -1.000000000000000000, 0.000000000000000000, 0.000000000000000000 ) ) ;
#221 = VERTEX_POINT ( 'NONE', #193 ) ;
#222 = AXIS2_PLACEMENT_3D ( 'NONE', #110, #238, #309 ) ;
#223 = FILL_AREA_STYLE ('',( #177 ) ) ;
#224 = DIMENSIONAL_EXPONENTS ( 1.000000000000000000, 0.000000000000000000, 0.000000000000000000, 0.000000000000000000, 0.000000000000000000, 0.000000000000000000, 0.000000000000000000 ) ;
#225 = PLANE ( 'NONE',  #34 ) ;
#226 = ORIENTED_EDGE ( 'NONE', *, *, #296, .F. ) ;
#227 =( GEOMETRIC_REPRESENTATION_CONTEXT ( 3 ) GLOBAL_UNCERTAINTY_ASSIGNED_CONTEXT ( ( #249 ) ) GLOBAL_UNIT_ASSIGNED_CONTEXT ( ( #273, #9, #79 ) ) REPRESENTATION_CONTEXT ( 'NONE', 'WORKASPACE' ) );
#228 = DIRECTION ( 'NONE',  ( -1.000000000000000000, 0.000000000000000000, 0.000000000000000000 ) ) ;
#229 = FILL_AREA_STYLE_COLOUR ( '', #282 ) ;
#230 = CIRCLE ( 'NONE', #96, 0.3750000000000000555 ) ;
#231 = ADVANCED_FACE ( 'NONE', ( #214 ), #1, .T. ) ;
#232 = PRESENTATION_STYLE_ASSIGNMENT (( #135 ) ) ;
#233 =( LENGTH_UNIT ( ) NAMED_UNIT ( * ) SI_UNIT ( $, .METRE. ) );
#234 = FACE_OUTER_BOUND ( 'NONE', #64, .T. ) ;
#235 = DIRECTION ( 'NONE',  ( 0.000000000000000000, 0.000000000000000000, -1.000000000000000000 ) ) ;
#236 = PLANE ( 'NONE',  #111 ) ;
#237 = AXIS2_PLACEMENT_3D ( 'NONE', #13, #103, #7 ) ;
#238 = DIRECTION ( 'NONE',  ( -0.000000000000000000, -1.000000000000000000, -0.000000000000000000 ) ) ;
#239 = EDGE_LOOP ( 'NONE', ( #176, #80, #39, #271 ) ) ;
#240 = CARTESIAN_POINT ( 'NONE',  ( 2.812049592490981988E-33, 1.000000000000000000, 0.000000000000000000 ) ) ;
#241 = DIRECTION ( 'NONE',  ( -0.000000000000000000, -1.000000000000000000, -0.000000000000000000 ) ) ;
#242 = STYLED_ITEM ( 'NONE', ( #232 ), #60 ) ;
#243 = COLOUR_RGB ( '',1.000000000000000000, 0.000000000000000000, 0.000000000000000000 ) ;
#244 = EDGE_CURVE ( 'NONE', #82, #77, #156, .T. ) ;
#245 = ORIENTED_EDGE ( 'NONE', *, *, #2, .F. ) ;
#246 =( NAMED_UNIT ( * ) SI_UNIT ( $, .STERADIAN. ) SOLID_ANGLE_UNIT ( ) );
#247 = VERTEX_POINT ( 'NONE', #201 ) ;
#248 = AXIS2_PLACEMENT_3D ( 'NONE', #301, #257, #136 ) ;
#249 = UNCERTAINTY_MEASURE_WITH_UNIT (LENGTH_MEASURE( 1.000000000000000082E-05 ), #273, 'distance_accuracy_value', 'NONE');
#250 = DIRECTION ( 'NONE',  ( -1.000000000000000000, 0.000000000000000000, 0.000000000000000000 ) ) ;
#251 = FILL_AREA_STYLE ('',( #160 ) ) ;
#252 = ORIENTED_EDGE ( 'NONE', *, *, #244, .T. ) ;
#253 = DIRECTION ( 'NONE',  ( 1.224646799147352961E-16, 1.000000000000000000, -0.000000000000000000 ) ) ;
#254 = EDGE_CURVE ( 'NONE', #308, #98, #175, .T. ) ;
#255 =( GEOMETRIC_REPRESENTATION_CONTEXT ( 3 ) GLOBAL_UNCERTAINTY_ASSIGNED_CONTEXT ( ( #94 ) ) GLOBAL_UNIT_ASSIGNED_CONTEXT ( ( #81, #59, #246 ) ) REPRESENTATION_CONTEXT ( 'NONE', 'WORKASPACE' ) );
#256 = CARTESIAN_POINT ( 'NONE',  ( 0.000000000000000000, 1.000000000000000000, -0.3750000000000000555 ) ) ;
#257 = DIRECTION ( 'NONE',  ( -0.000000000000000000, -1.000000000000000000, -0.000000000000000000 ) ) ;
#258 = FILL_AREA_STYLE ('',( #229 ) ) ;
#259 = ADVANCED_FACE ( 'NONE', ( #8 ), #225, .T. ) ;
#260 = AXIS2_PLACEMENT_3D ( 'NONE', #172, #55, #220 ) ;
#261 = CARTESIAN_POINT ( 'NONE',  ( 0.000000000000000000, 0.000000000000000000, -0.3750000000000000555 ) ) ;
#262 = LENGTH_MEASURE_WITH_UNIT ( LENGTH_MEASURE( 0.02539999999999999897 ), #20 );
#263 = DIRECTION ( 'NONE',  ( 1.224646799147352961E-16, 1.000000000000000000, -0.000000000000000000 ) ) ;
#264 = CARTESIAN_POINT ( 'NONE',  ( 0.000000000000000000, 0.000000000000000000, 0.000000000000000000 ) ) ;
#265 = PRESENTATION_LAYER_ASSIGNMENT (  '', '', ( #306 ) ) ;
#266 = PRESENTATION_STYLE_ASSIGNMENT (( #115 ) ) ;
#267 = SURFACE_STYLE_FILL_AREA ( #223 ) ;
#268 = CARTESIAN_POINT ( 'NONE',  ( 0.000000000000000000, 1.000000000000000000, 0.000000000000000000 ) ) ;
#269 =( GEOMETRIC_REPRESENTATION_CONTEXT ( 3 ) GLOBAL_UNCERTAINTY_ASSIGNED_CONTEXT ( ( #154 ) ) GLOBAL_UNIT_ASSIGNED_CONTEXT ( ( #69, #46, #179 ) ) REPRESENTATION_CONTEXT ( 'NONE', 'WORKASPACE' ) );
#270 =( LENGTH_UNIT ( ) NAMED_UNIT ( * ) SI_UNIT ( $, .METRE. ) );
#271 = ORIENTED_EDGE ( 'NONE', *, *, #244, .F. ) ;
#272 = PRESENTATION_STYLE_ASSIGNMENT (( #75 ) ) ;
#273 =( CONVERSION_BASED_UNIT ( 'INCH', #118 ) LENGTH_UNIT ( ) NAMED_UNIT ( #276 ) );
#274 = ORIENTED_EDGE ( 'NONE', *, *, #189, .T. ) ;
#275 = STYLED_ITEM ( 'NONE', ( #108 ), #61 ) ;
#276 = DIMENSIONAL_EXPONENTS ( 1.000000000000000000, 0.000000000000000000, 0.000000000000000000, 0.000000000000000000, 0.000000000000000000, 0.000000000000000000, 0.000000000000000000 ) ;
#277 = ADVANCED_FACE ( 'NONE', ( #5 ), #158, .T. ) ;
#278 = SURFACE_STYLE_FILL_AREA ( #281 ) ;
#279 = PRESENTATION_LAYER_ASSIGNMENT (  '', '', ( #112 ) ) ;
#280 =( CONVERSION_BASED_UNIT ( 'INCH', #86 ) LENGTH_UNIT ( ) NAMED_UNIT ( #224 ) );
#281 = FILL_AREA_STYLE ('',( #23 ) ) ;
#282 = COLOUR_RGB ( '',0.7921568627450980005, 0.8196078431372548767, 0.9333333333333333481 ) ;
#283 = CARTESIAN_POINT ( 'NONE',  ( 2.449293598294705921E-16, 3.000000000000000444, 0.000000000000000000 ) ) ;
#284 = ADVANCED_BREP_SHAPE_REPRESENTATION ( '44362W', ( #61, #68, #157 ), #269 ) ;
#285 = LINE ( 'NONE', #4, #133 ) ;
#286 = CIRCLE ( 'NONE', #171, 0.3750000000000000555 ) ;
#287 = DIRECTION ( 'NONE',  ( 1.000000000000000000, -1.224646799147352961E-16, 0.000000000000000000 ) ) ;
#288 = PRODUCT_RELATED_PRODUCT_CATEGORY ( 'part', '', ( #212 ) ) ;
#289 = CARTESIAN_POINT ( 'NONE',  ( 0.000000000000000000, 1.000000000000000000, 0.000000000000000000 ) ) ;
#290 = PRESENTATION_STYLE_ASSIGNMENT (( #155 ) ) ;
#291 = ORIENTED_EDGE ( 'NONE', *, *, #217, .T. ) ;
#292 = AXIS2_PLACEMENT_3D ( 'NONE', #41, #87, #228 ) ;
#293 =( NAMED_UNIT ( * ) SI_UNIT ( $, .STERADIAN. ) SOLID_ANGLE_UNIT ( ) );
#294 = ORIENTED_EDGE ( 'NONE', *, *, #90, .T. ) ;
#295 = EDGE_CURVE ( 'NONE', #98, #308, #139, .T. ) ;
#296 = EDGE_CURVE ( 'NONE', #161, #247, #230, .T. ) ;
#297 = DIRECTION ( 'NONE',  ( 1.000000000000000000, 0.000000000000000000, 0.000000000000000000 ) ) ;
#298 = LINE ( 'NONE', #261, #195 ) ;
#299 =( CONVERSION_BASED_UNIT ( 'INCH', #262 ) LENGTH_UNIT ( ) NAMED_UNIT ( #124 ) );
#300 =( NAMED_UNIT ( * ) SI_UNIT ( $, .STERADIAN. ) SOLID_ANGLE_UNIT ( ) );
#301 = CARTESIAN_POINT ( 'NONE',  ( 0.000000000000000000, 0.000000000000000000, 0.000000000000000000 ) ) ;
#302 =( GEOMETRIC_REPRESENTATION_CONTEXT ( 3 ) GLOBAL_UNCERTAINTY_ASSIGNED_CONTEXT ( ( #28 ) ) GLOBAL_UNIT_ASSIGNED_CONTEXT ( ( #215, #73, #213 ) ) REPRESENTATION_CONTEXT ( 'NONE', 'WORKASPACE' ) );
#303 = COLOUR_RGB ( '',1.000000000000000000, 0.000000000000000000, 0.000000000000000000 ) ;
#304 = APPLICATION_PROTOCOL_DEFINITION ( 'draft international standard', 'automotive_design', 1998, #37 ) ;
#305 =( NAMED_UNIT ( * ) PLANE_ANGLE_UNIT ( ) SI_UNIT ( $, .RADIAN. ) );
#306 = STYLED_ITEM ( 'NONE', ( #266 ), #188 ) ;
#307 = CARTESIAN_POINT ( 'NONE',  ( 4.592425496802575451E-17, 1.000000000000000000, 0.3750000000000000555 ) ) ;
#308 = VERTEX_POINT ( 'NONE', #256 ) ;
#309 = DIRECTION ( 'NONE',  ( 0.000000000000000000, 0.000000000000000000, -1.000000000000000000 ) ) ;
ENDSEC;
END-ISO-10303-21;
