ISO-10303-21;
HEADER;
FILE_DESCRIPTION (( 'STEP AP214' ),
    '1' );
FILE_NAME ('59817.STEP',
    '2023-07-12T13:06:08',
    ( '' ),
    ( '' ),
    'SwSTEP 2.0',
    'SolidWorks 2023',
    '' );
FILE_SCHEMA (( 'AUTOMOTIVE_DESIGN' ));
ENDSEC;

DATA;
#1 = CARTESIAN_POINT ( 'NONE',  ( 0.000000000000000000, 0.3637306695894631514, 0.000000000000000000 ) ) ;
#2 = DIRECTION ( 'NONE',  ( -1.227051157693745302E-16, 1.000000000000000000, -0.000000000000000000 ) ) ;
#3 = EDGE_CURVE ( 'NONE', #282, #227, #170, .T. ) ;
#4 =( NAMED_UNIT ( * ) SI_UNIT ( $, .STERADIAN. ) SOLID_ANGLE_UNIT ( ) );
#5 =( LENGTH_UNIT ( ) NAMED_UNIT ( * ) SI_UNIT ( $, .METRE. ) );
#6 = AXIS2_PLACEMENT_3D ( 'NONE', #134, #114, #50 ) ;
#7 = LENGTH_MEASURE_WITH_UNIT ( LENGTH_MEASURE( 0.02539999999999999897 ), #5 );
#8 = MANIFOLD_SOLID_BREP ( 'Revolve - Tool Body (Tipped Off)', #220 ) ;
#9 = FILL_AREA_STYLE ('',( #12 ) ) ;
#10 = AXIS2_PLACEMENT_3D ( 'NONE', #160, #2, #73 ) ;
#11 = MECHANICAL_DESIGN_GEOMETRIC_PRESENTATION_REPRESENTATION (  '', ( #138 ), #72 ) ;
#12 = FILL_AREA_STYLE_COLOUR ( '', #281 ) ;
#13 = DIRECTION ( 'NONE',  ( 1.000000000000000000, 0.000000000000000000, 0.000000000000000000 ) ) ;
#14 = DIRECTION ( 'NONE',  ( -1.000000000000000000, 0.000000000000000000, 0.000000000000000000 ) ) ;
#15 = FILL_AREA_STYLE_COLOUR ( '', #35 ) ;
#16 = DIRECTION ( 'NONE',  ( -1.000000000000000000, 0.000000000000000000, 0.000000000000000000 ) ) ;
#17 = AXIS2_PLACEMENT_3D ( 'NONE', #258, #26, #213 ) ;
#18 = CARTESIAN_POINT ( 'NONE',  ( 2.622513934299087591E-16, 0.3637306695894631514, 0.000000000000000000 ) ) ;
#19 = AXIS2_PLACEMENT_3D ( 'NONE', #68, #230, #226 ) ;
#20 = UNCERTAINTY_MEASURE_WITH_UNIT (LENGTH_MEASURE( 1.000000000000000082E-05 ), #292, 'distance_accuracy_value', 'NONE');
#21 = LENGTH_MEASURE_WITH_UNIT ( LENGTH_MEASURE( 0.02539999999999999897 ), #268 );
#22 = EDGE_CURVE ( 'NONE', #103, #304, #121, .T. ) ;
#23 = ORIENTED_EDGE ( 'NONE', *, *, #56, .F. ) ;
#24 = VERTEX_POINT ( 'NONE', #188 ) ;
#25 = MECHANICAL_DESIGN_GEOMETRIC_PRESENTATION_REPRESENTATION (  '', ( #184 ), #260 ) ;
#26 = DIRECTION ( 'NONE',  ( -1.227051157693745302E-16, 1.000000000000000000, -0.000000000000000000 ) ) ;
#27 = COLOUR_RGB ( '',1.000000000000000000, 0.000000000000000000, 0.000000000000000000 ) ;
#28 = SURFACE_STYLE_USAGE ( .BOTH. , #136 ) ;
#29 = PLANE ( 'NONE',  #6 ) ;
#30 = CARTESIAN_POINT ( 'NONE',  ( -0.2499999999999994449, 0.3637306695894629294, 0.000000000000000000 ) ) ;
#31 = SURFACE_SIDE_STYLE ('',( #34 ) ) ;
#32 = PRESENTATION_LAYER_ASSIGNMENT (  '', '', ( #142 ) ) ;
#33 =( CONVERSION_BASED_UNIT ( 'INCH', #193 ) LENGTH_UNIT ( ) NAMED_UNIT ( #39 ) );
#34 = SURFACE_STYLE_FILL_AREA ( #9 ) ;
#35 = COLOUR_RGB ( '',1.000000000000000000, 0.000000000000000000, 0.000000000000000000 ) ;
#36 = CARTESIAN_POINT ( 'NONE',  ( -0.2500000000000001110, 3.000000000000000444, 0.000000000000000000 ) ) ;
#37 = FACE_OUTER_BOUND ( 'NONE', #156, .T. ) ;
#38 = CARTESIAN_POINT ( 'NONE',  ( 0.000000000000000000, 0.000000000000000000, 0.000000000000000000 ) ) ;
#39 = DIMENSIONAL_EXPONENTS ( 1.000000000000000000, 0.000000000000000000, 0.000000000000000000, 0.000000000000000000, 0.000000000000000000, 0.000000000000000000, 0.000000000000000000 ) ;
#40 = CARTESIAN_POINT ( 'NONE',  ( 0.000000000000000000, 0.000000000000000000, 0.04000000000000000083 ) ) ;
#41 = EDGE_LOOP ( 'NONE', ( #173, #253 ) ) ;
#42 = DIMENSIONAL_EXPONENTS ( 1.000000000000000000, 0.000000000000000000, 0.000000000000000000, 0.000000000000000000, 0.000000000000000000, 0.000000000000000000, 0.000000000000000000 ) ;
#43 = EDGE_CURVE ( 'NONE', #247, #47, #299, .T. ) ;
#44 = STYLED_ITEM ( 'NONE', ( #97 ), #115 ) ;
#45 = CARTESIAN_POINT ( 'NONE',  ( 4.898587196589413537E-18, 0.000000000000000000, -0.04000000000000000083 ) ) ;
#46 = ORIENTED_EDGE ( 'NONE', *, *, #287, .F. ) ;
#47 = VERTEX_POINT ( 'NONE', #235 ) ;
#48 = UNCERTAINTY_MEASURE_WITH_UNIT (LENGTH_MEASURE( 1.000000000000000082E-05 ), #84, 'distance_accuracy_value', 'NONE');
#49 = PRESENTATION_STYLE_ASSIGNMENT (( #28 ) ) ;
#50 = DIRECTION ( 'NONE',  ( 1.000000000000000000, 1.227051157693745302E-16, 0.000000000000000000 ) ) ;
#51 = CARTESIAN_POINT ( 'NONE',  ( 0.000000000000000000, 0.3637306695894631514, 0.2499999999999999167 ) ) ;
#52 =( NAMED_UNIT ( * ) PLANE_ANGLE_UNIT ( ) SI_UNIT ( $, .RADIAN. ) );
#53 = PRESENTATION_STYLE_ASSIGNMENT (( #119 ) ) ;
#54 = DIRECTION ( 'NONE',  ( -1.227051157693745302E-16, 1.000000000000000000, -0.000000000000000000 ) ) ;
#55 = PRESENTATION_LAYER_ASSIGNMENT (  '', '', ( #191 ) ) ;
#56 = EDGE_CURVE ( 'NONE', #227, #282, #71, .T. ) ;
#57 = FILL_AREA_STYLE_COLOUR ( '', #124 ) ;
#58 =( CONVERSION_BASED_UNIT ( 'INCH', #168 ) LENGTH_UNIT ( ) NAMED_UNIT ( #278 ) );
#59 = DIRECTION ( 'NONE',  ( -1.227051157693745302E-16, 1.000000000000000000, -0.000000000000000000 ) ) ;
#60 = AXIS2_PLACEMENT_3D ( 'NONE', #38, #297, #305 ) ;
#61 = CARTESIAN_POINT ( 'NONE',  ( 0.000000000000000000, 0.000000000000000000, 0.000000000000000000 ) ) ;
#62 = DIMENSIONAL_EXPONENTS ( 1.000000000000000000, 0.000000000000000000, 0.000000000000000000, 0.000000000000000000, 0.000000000000000000, 0.000000000000000000, 0.000000000000000000 ) ;
#63 = ORIENTED_EDGE ( 'NONE', *, *, #148, .T. ) ;
#64 = PRODUCT_DEFINITION_SHAPE ( 'NONE', 'NONE',  #290 ) ;
#65 = DIMENSIONAL_EXPONENTS ( 1.000000000000000000, 0.000000000000000000, 0.000000000000000000, 0.000000000000000000, 0.000000000000000000, 0.000000000000000000, 0.000000000000000000 ) ;
#66 = CARTESIAN_POINT ( 'NONE',  ( -6.123233995736772199E-17, 3.000000000000000444, 0.000000000000000000 ) ) ;
#67 = EDGE_LOOP ( 'NONE', ( #270, #275, #128, #23 ) ) ;
#68 = CARTESIAN_POINT ( 'NONE',  ( 0.000000000000000000, 0.3637306695894631514, 0.000000000000000000 ) ) ;
#69 = VERTEX_POINT ( 'NONE', #30 ) ;
#70 = ORIENTED_EDGE ( 'NONE', *, *, #95, .F. ) ;
#71 = CIRCLE ( 'NONE', #10, 0.2500000000000000555 ) ;
#72 =( GEOMETRIC_REPRESENTATION_CONTEXT ( 3 ) GLOBAL_UNCERTAINTY_ASSIGNED_CONTEXT ( ( #20 ) ) GLOBAL_UNIT_ASSIGNED_CONTEXT ( ( #292, #279, #195 ) ) REPRESENTATION_CONTEXT ( 'NONE', 'WORKASPACE' ) );
#73 = DIRECTION ( 'NONE',  ( -1.000000000000000000, 0.000000000000000000, 0.000000000000000000 ) ) ;
#74 = SURFACE_STYLE_FILL_AREA ( #239 ) ;
#75 = PLANE ( 'NONE',  #171 ) ;
#76 = SURFACE_SIDE_STYLE ('',( #240 ) ) ;
#77 = PRESENTATION_LAYER_ASSIGNMENT (  '', '', ( #44 ) ) ;
#78 = DIRECTION ( 'NONE',  ( 0.000000000000000000, -1.000000000000000000, -0.000000000000000000 ) ) ;
#79 =( NAMED_UNIT ( * ) PLANE_ANGLE_UNIT ( ) SI_UNIT ( $, .RADIAN. ) );
#80 = FACE_OUTER_BOUND ( 'NONE', #89, .T. ) ;
#81 = PLANE ( 'NONE',  #19 ) ;
#82 = ORIENTED_EDGE ( 'NONE', *, *, #192, .T. ) ;
#83 = CIRCLE ( 'NONE', #199, 0.2499999999999999722 ) ;
#84 =( CONVERSION_BASED_UNIT ( 'INCH', #21 ) LENGTH_UNIT ( ) NAMED_UNIT ( #87 ) );
#85 = ORIENTED_EDGE ( 'NONE', *, *, #3, .T. ) ;
#86 = FILL_AREA_STYLE ('',( #15 ) ) ;
#87 = DIMENSIONAL_EXPONENTS ( 1.000000000000000000, 0.000000000000000000, 0.000000000000000000, 0.000000000000000000, 0.000000000000000000, 0.000000000000000000, 0.000000000000000000 ) ;
#88 = LINE ( 'NONE', #45, #256 ) ;
#89 = EDGE_LOOP ( 'NONE', ( #91, #177, #205, #196 ) ) ;
#90 = EDGE_CURVE ( 'NONE', #69, #282, #183, .T. ) ;
#91 = ORIENTED_EDGE ( 'NONE', *, *, #192, .F. ) ;
#92 = FILL_AREA_STYLE_COLOUR ( '', #229 ) ;
#93 = MECHANICAL_DESIGN_GEOMETRIC_PRESENTATION_REPRESENTATION (  '', ( #142 ), #179 ) ;
#94 = DIRECTION ( 'NONE',  ( -0.000000000000000000, -1.000000000000000000, -0.000000000000000000 ) ) ;
#95 = EDGE_CURVE ( 'NONE', #24, #69, #185, .T. ) ;
#96 = SURFACE_STYLE_USAGE ( .BOTH. , #117 ) ;
#97 = PRESENTATION_STYLE_ASSIGNMENT (( #96 ) ) ;
#98 = AXIS2_PLACEMENT_3D ( 'NONE', #224, #285, #237 ) ;
#99 =( GEOMETRIC_REPRESENTATION_CONTEXT ( 3 ) GLOBAL_UNCERTAINTY_ASSIGNED_CONTEXT ( ( #203 ) ) GLOBAL_UNIT_ASSIGNED_CONTEXT ( ( #189, #79, #245 ) ) REPRESENTATION_CONTEXT ( 'NONE', 'WORKASPACE' ) );
#100 = CARTESIAN_POINT ( 'NONE',  ( 0.000000000000000000, 0.000000000000000000, 0.000000000000000000 ) ) ;
#101 = FILL_AREA_STYLE ('',( #57 ) ) ;
#102 = APPLICATION_PROTOCOL_DEFINITION ( 'draft international standard', 'automotive_design', 1998, #225 ) ;
#103 = VERTEX_POINT ( 'NONE', #51 ) ;
#104 = DIRECTION ( 'NONE',  ( 0.000000000000000000, 0.8660254037844380415, 0.5000000000000009992 ) ) ;
#105 = CIRCLE ( 'NONE', #129, 0.2499999999999997224 ) ;
#106 = ORIENTED_EDGE ( 'NONE', *, *, #123, .T. ) ;
#107 = CARTESIAN_POINT ( 'NONE',  ( -6.123233995736772199E-17, 3.000000000000000444, 0.000000000000000000 ) ) ;
#108 = SURFACE_STYLE_FILL_AREA ( #132 ) ;
#109 = ADVANCED_FACE ( 'NONE', ( #238 ), #29, .F. ) ;
#110 = SURFACE_STYLE_USAGE ( .BOTH. , #274 ) ;
#111 = ORIENTED_EDGE ( 'NONE', *, *, #144, .T. ) ;
#112 = CIRCLE ( 'NONE', #60, 0.04000000000000000083 ) ;
#113 = LENGTH_MEASURE_WITH_UNIT ( LENGTH_MEASURE( 0.02539999999999999897 ), #187 );
#114 = DIRECTION ( 'NONE',  ( 1.227051157693745302E-16, -1.000000000000000000, 0.000000000000000000 ) ) ;
#115 = MANIFOLD_SOLID_BREP ( 'Revolve - Cutting Edge', #149 ) ;
#116 = DIRECTION ( 'NONE',  ( 0.000000000000000000, 0.000000000000000000, -1.000000000000000000 ) ) ;
#117 = SURFACE_SIDE_STYLE ('',( #135 ) ) ;
#118 = CARTESIAN_POINT ( 'NONE',  ( 2.622513934299087098E-16, 0.3637306695894629294, 0.000000000000000000 ) ) ;
#119 = SURFACE_STYLE_USAGE ( .BOTH. , #76 ) ;
#120 =( NAMED_UNIT ( * ) PLANE_ANGLE_UNIT ( ) SI_UNIT ( $, .RADIAN. ) );
#121 = CIRCLE ( 'NONE', #137, 0.2499999999999999722 ) ;
#122 = PRESENTATION_STYLE_ASSIGNMENT (( #296 ) ) ;
#123 = EDGE_CURVE ( 'NONE', #69, #24, #105, .T. ) ;
#124 = COLOUR_RGB ( '',1.000000000000000000, 0.000000000000000000, 0.000000000000000000 ) ;
#125 = DIRECTION ( 'NONE',  ( 0.000000000000000000, 0.000000000000000000, 1.000000000000000000 ) ) ;
#126 = LINE ( 'NONE', #40, #186 ) ;
#127 = CARTESIAN_POINT ( 'NONE',  ( 0.000000000000000000, 0.000000000000000000, 0.04000000000000000083 ) ) ;
#128 = ORIENTED_EDGE ( 'NONE', *, *, #90, .T. ) ;
#129 = AXIS2_PLACEMENT_3D ( 'NONE', #118, #54, #262 ) ;
#130 = DIRECTION ( 'NONE',  ( 0.000000000000000000, 0.000000000000000000, 1.000000000000000000 ) ) ;
#131 = UNCERTAINTY_MEASURE_WITH_UNIT (LENGTH_MEASURE( 1.000000000000000082E-05 ), #254, 'distance_accuracy_value', 'NONE');
#132 = FILL_AREA_STYLE ('',( #150 ) ) ;
#133 = DIRECTION ( 'NONE',  ( 6.123233995736778362E-17, 0.8660254037844380415, -0.5000000000000009992 ) ) ;
#134 = CARTESIAN_POINT ( 'NONE',  ( 0.2500000000000000000, 3.000000000000000444, 0.000000000000000000 ) ) ;
#135 = SURFACE_STYLE_FILL_AREA ( #139 ) ;
#136 = SURFACE_SIDE_STYLE ('',( #74 ) ) ;
#137 = AXIS2_PLACEMENT_3D ( 'NONE', #1, #94, #116 ) ;
#138 = STYLED_ITEM ( 'NONE', ( #53 ), #163 ) ;
#139 = FILL_AREA_STYLE ('',( #92 ) ) ;
#140 = LINE ( 'NONE', #265, #264 ) ;
#141 = CARTESIAN_POINT ( 'NONE',  ( 0.000000000000000000, 0.3637306695894631514, 0.000000000000000000 ) ) ;
#142 = STYLED_ITEM ( 'NONE', ( #233 ), #201 ) ;
#143 = PRODUCT_DEFINITION_FORMATION_WITH_SPECIFIED_SOURCE ( 'ANY', '', #295, .NOT_KNOWN. ) ;
#144 = EDGE_CURVE ( 'NONE', #304, #103, #83, .T. ) ;
#145 =( NAMED_UNIT ( * ) PLANE_ANGLE_UNIT ( ) SI_UNIT ( $, .RADIAN. ) );
#146 = CARTESIAN_POINT ( 'NONE',  ( 3.061616997868382402E-17, 0.3637306695894631514, -0.2499999999999999167 ) ) ;
#147 =( NAMED_UNIT ( * ) SI_UNIT ( $, .STERADIAN. ) SOLID_ANGLE_UNIT ( ) );
#148 = EDGE_CURVE ( 'NONE', #24, #227, #140, .T. ) ;
#149 = CLOSED_SHELL ( 'NONE', ( #241, #201, #163, #161 ) ) ;
#150 = FILL_AREA_STYLE_COLOUR ( '', #27 ) ;
#151 = DIRECTION ( 'NONE',  ( 0.000000000000000000, 1.000000000000000000, 0.000000000000000000 ) ) ;
#152 = EDGE_LOOP ( 'NONE', ( #272, #234 ) ) ;
#153 = CARTESIAN_POINT ( 'NONE',  ( 0.2500000000000000000, 3.000000000000000444, 3.061616997868383018E-17 ) ) ;
#154 = PRESENTATION_LAYER_ASSIGNMENT (  '', '', ( #236 ) ) ;
#155 = FACE_OUTER_BOUND ( 'NONE', #157, .T. ) ;
#156 = EDGE_LOOP ( 'NONE', ( #176, #70 ) ) ;
#157 = EDGE_LOOP ( 'NONE', ( #106, #63, #300, #181 ) ) ;
#158 = AXIS2_PLACEMENT_3D ( 'NONE', #288, #182, #259 ) ;
#159 = AXIS2_PLACEMENT_3D ( 'NONE', #18, #298, #303 ) ;
#160 = CARTESIAN_POINT ( 'NONE',  ( -6.123233995736772199E-17, 3.000000000000000444, 0.000000000000000000 ) ) ;
#161 = ADVANCED_FACE ( 'NONE', ( #293 ), #75, .T. ) ;
#162 = DIRECTION ( 'NONE',  ( -1.227051157693745302E-16, 1.000000000000000000, -0.000000000000000000 ) ) ;
#163 = ADVANCED_FACE ( 'NONE', ( #80 ), #308, .T. ) ;
#164 = AXIS2_PLACEMENT_3D ( 'NONE', #261, #151, #200 ) ;
#165 = LENGTH_MEASURE_WITH_UNIT ( LENGTH_MEASURE( 0.02539999999999999897 ), #286 );
#166 =( GEOMETRIC_REPRESENTATION_CONTEXT ( 3 ) GLOBAL_UNCERTAINTY_ASSIGNED_CONTEXT ( ( #302 ) ) GLOBAL_UNIT_ASSIGNED_CONTEXT ( ( #58, #172, #271 ) ) REPRESENTATION_CONTEXT ( 'NONE', 'WORKASPACE' ) );
#167 =( LENGTH_UNIT ( ) NAMED_UNIT ( * ) SI_UNIT ( $, .METRE. ) );
#168 = LENGTH_MEASURE_WITH_UNIT ( LENGTH_MEASURE( 0.02539999999999999897 ), #267 );
#169 = CYLINDRICAL_SURFACE ( 'NONE', #289, 0.2499999999999998612 ) ;
#170 = CIRCLE ( 'NONE', #98, 0.2500000000000000555 ) ;
#171 = AXIS2_PLACEMENT_3D ( 'NONE', #294, #78, #266 ) ;
#172 =( NAMED_UNIT ( * ) PLANE_ANGLE_UNIT ( ) SI_UNIT ( $, .RADIAN. ) );
#173 = ORIENTED_EDGE ( 'NONE', *, *, #22, .F. ) ;
#174 = PRODUCT_CONTEXT ( 'NONE', #225, 'mechanical' ) ;
#175 = SURFACE_STYLE_FILL_AREA ( #86 ) ;
#176 = ORIENTED_EDGE ( 'NONE', *, *, #123, .F. ) ;
#177 = ORIENTED_EDGE ( 'NONE', *, *, #43, .F. ) ;
#178 = VECTOR ( 'NONE', #162, 39.37007874015748143 ) ;
#179 =( GEOMETRIC_REPRESENTATION_CONTEXT ( 3 ) GLOBAL_UNCERTAINTY_ASSIGNED_CONTEXT ( ( #48 ) ) GLOBAL_UNIT_ASSIGNED_CONTEXT ( ( #84, #223, #147 ) ) REPRESENTATION_CONTEXT ( 'NONE', 'WORKASPACE' ) );
#180 = UNCERTAINTY_MEASURE_WITH_UNIT (LENGTH_MEASURE( 1.000000000000000082E-05 ), #33, 'distance_accuracy_value', 'NONE');
#181 = ORIENTED_EDGE ( 'NONE', *, *, #90, .F. ) ;
#182 = DIRECTION ( 'NONE',  ( -0.000000000000000000, -1.000000000000000000, -0.000000000000000000 ) ) ;
#183 = LINE ( 'NONE', #257, #178 ) ;
#184 = STYLED_ITEM ( 'NONE', ( #49 ), #8 ) ;
#185 = CIRCLE ( 'NONE', #17, 0.2499999999999997224 ) ;
#186 = VECTOR ( 'NONE', #104, 39.37007874015748143 ) ;
#187 =( LENGTH_UNIT ( ) NAMED_UNIT ( * ) SI_UNIT ( $, .METRE. ) );
#188 = CARTESIAN_POINT ( 'NONE',  ( 0.2500000000000000000, 0.3637306695894629294, 3.061616997868383018E-17 ) ) ;
#189 =( CONVERSION_BASED_UNIT ( 'INCH', #113 ) LENGTH_UNIT ( ) NAMED_UNIT ( #232 ) );
#190 = AXIS2_PLACEMENT_3D ( 'NONE', #107, #251, #16 ) ;
#191 = STYLED_ITEM ( 'NONE', ( #306 ), #241 ) ;
#192 = EDGE_CURVE ( 'NONE', #47, #304, #88, .T. ) ;
#193 = LENGTH_MEASURE_WITH_UNIT ( LENGTH_MEASURE( 0.02539999999999999897 ), #167 );
#194 = ADVANCED_FACE ( 'NONE', ( #37 ), #206, .F. ) ;
#195 =( NAMED_UNIT ( * ) SI_UNIT ( $, .STERADIAN. ) SOLID_ANGLE_UNIT ( ) );
#196 = ORIENTED_EDGE ( 'NONE', *, *, #22, .T. ) ;
#197 = DIRECTION ( 'NONE',  ( 0.000000000000000000, 1.000000000000000000, 0.000000000000000000 ) ) ;
#198 = FACE_OUTER_BOUND ( 'NONE', #41, .T. ) ;
#199 = AXIS2_PLACEMENT_3D ( 'NONE', #141, #291, #243 ) ;
#200 = DIRECTION ( 'NONE',  ( 0.000000000000000000, 0.000000000000000000, 1.000000000000000000 ) ) ;
#201 = ADVANCED_FACE ( 'NONE', ( #198 ), #81, .T. ) ;
#202 = ORIENTED_EDGE ( 'NONE', *, *, #56, .T. ) ;
#203 = UNCERTAINTY_MEASURE_WITH_UNIT (LENGTH_MEASURE( 1.000000000000000082E-05 ), #189, 'distance_accuracy_value', 'NONE');
#204 = SURFACE_SIDE_STYLE ('',( #108 ) ) ;
#205 = ORIENTED_EDGE ( 'NONE', *, *, #209, .T. ) ;
#206 = PLANE ( 'NONE',  #159 ) ;
#207 = ORIENTED_EDGE ( 'NONE', *, *, #209, .F. ) ;
#208 = MECHANICAL_DESIGN_GEOMETRIC_PRESENTATION_REPRESENTATION (  '', ( #191 ), #99 ) ;
#209 = EDGE_CURVE ( 'NONE', #247, #103, #126, .T. ) ;
#210 =( LENGTH_UNIT ( ) NAMED_UNIT ( * ) SI_UNIT ( $, .METRE. ) );
#211 = MECHANICAL_DESIGN_GEOMETRIC_PRESENTATION_REPRESENTATION (  '', ( #236 ), #222 ) ;
#212 =( CONVERSION_BASED_UNIT ( 'INCH', #165 ) LENGTH_UNIT ( ) NAMED_UNIT ( #62 ) );
#213 = DIRECTION ( 'NONE',  ( -1.000000000000000000, 0.000000000000000000, 0.000000000000000000 ) ) ;
#214 =( NAMED_UNIT ( * ) SI_UNIT ( $, .STERADIAN. ) SOLID_ANGLE_UNIT ( ) );
#215 =( GEOMETRIC_REPRESENTATION_CONTEXT ( 3 ) GLOBAL_UNCERTAINTY_ASSIGNED_CONTEXT ( ( #131 ) ) GLOBAL_UNIT_ASSIGNED_CONTEXT ( ( #254, #145, #214 ) ) REPRESENTATION_CONTEXT ( 'NONE', 'WORKASPACE' ) );
#216 = PRODUCT_RELATED_PRODUCT_CATEGORY ( 'part', '', ( #295 ) ) ;
#217 = ADVANCED_BREP_SHAPE_REPRESENTATION ( '59817', ( #115, #8, #309 ), #166 ) ;
#218 = ADVANCED_FACE ( 'NONE', ( #155 ), #169, .T. ) ;
#219 = SHAPE_DEFINITION_REPRESENTATION ( #64, #217 ) ;
#220 = CLOSED_SHELL ( 'NONE', ( #218, #194, #252, #109 ) ) ;
#221 =( NAMED_UNIT ( * ) SI_UNIT ( $, .STERADIAN. ) SOLID_ANGLE_UNIT ( ) );
#222 =( GEOMETRIC_REPRESENTATION_CONTEXT ( 3 ) GLOBAL_UNCERTAINTY_ASSIGNED_CONTEXT ( ( #180 ) ) GLOBAL_UNIT_ASSIGNED_CONTEXT ( ( #33, #120, #221 ) ) REPRESENTATION_CONTEXT ( 'NONE', 'WORKASPACE' ) );
#223 =( NAMED_UNIT ( * ) PLANE_ANGLE_UNIT ( ) SI_UNIT ( $, .RADIAN. ) );
#224 = CARTESIAN_POINT ( 'NONE',  ( -6.123233995736772199E-17, 3.000000000000000444, 0.000000000000000000 ) ) ;
#225 = APPLICATION_CONTEXT ( 'automotive_design' ) ;
#226 = DIRECTION ( 'NONE',  ( 0.000000000000000000, -0.000000000000000000, 1.000000000000000000 ) ) ;
#227 = VERTEX_POINT ( 'NONE', #153 ) ;
#228 = PRESENTATION_LAYER_ASSIGNMENT (  '', '', ( #138 ) ) ;
#229 = COLOUR_RGB ( '',0.7921568627450980005, 0.8196078431372548767, 0.9333333333333333481 ) ;
#230 = DIRECTION ( 'NONE',  ( 0.000000000000000000, 1.000000000000000000, 0.000000000000000000 ) ) ;
#231 = EDGE_LOOP ( 'NONE', ( #46, #82, #111, #207 ) ) ;
#232 = DIMENSIONAL_EXPONENTS ( 1.000000000000000000, 0.000000000000000000, 0.000000000000000000, 0.000000000000000000, 0.000000000000000000, 0.000000000000000000, 0.000000000000000000 ) ;
#233 = PRESENTATION_STYLE_ASSIGNMENT (( #110 ) ) ;
#234 = ORIENTED_EDGE ( 'NONE', *, *, #287, .T. ) ;
#235 = CARTESIAN_POINT ( 'NONE',  ( 1.775737858763661608E-17, 0.000000000000000000, -0.04000000000000000083 ) ) ;
#236 = STYLED_ITEM ( 'NONE', ( #122 ), #161 ) ;
#237 = DIRECTION ( 'NONE',  ( -1.000000000000000000, 0.000000000000000000, 0.000000000000000000 ) ) ;
#238 = FACE_OUTER_BOUND ( 'NONE', #307, .T. ) ;
#239 = FILL_AREA_STYLE ('',( #284 ) ) ;
#240 = SURFACE_STYLE_FILL_AREA ( #101 ) ;
#241 = ADVANCED_FACE ( 'NONE', ( #249 ), #244, .T. ) ;
#242 = APPLICATION_CONTEXT ( 'automotive_design' ) ;
#243 = DIRECTION ( 'NONE',  ( 0.000000000000000000, 0.000000000000000000, -1.000000000000000000 ) ) ;
#244 = CONICAL_SURFACE ( 'NONE', #269, 0.04000000000000000083, 0.5235987755983000369 ) ;
#245 =( NAMED_UNIT ( * ) SI_UNIT ( $, .STERADIAN. ) SOLID_ANGLE_UNIT ( ) );
#246 = SURFACE_STYLE_USAGE ( .BOTH. , #204 ) ;
#247 = VERTEX_POINT ( 'NONE', #127 ) ;
#248 = UNCERTAINTY_MEASURE_WITH_UNIT (LENGTH_MEASURE( 1.000000000000000082E-05 ), #212, 'distance_accuracy_value', 'NONE');
#249 = FACE_OUTER_BOUND ( 'NONE', #231, .T. ) ;
#250 = MECHANICAL_DESIGN_GEOMETRIC_PRESENTATION_REPRESENTATION (  '', ( #44 ), #215 ) ;
#251 = DIRECTION ( 'NONE',  ( -1.227051157693745302E-16, 1.000000000000000000, -0.000000000000000000 ) ) ;
#252 = ADVANCED_FACE ( 'NONE', ( #301 ), #276, .T. ) ;
#253 = ORIENTED_EDGE ( 'NONE', *, *, #144, .F. ) ;
#254 =( CONVERSION_BASED_UNIT ( 'INCH', #283 ) LENGTH_UNIT ( ) NAMED_UNIT ( #42 ) );
#255 = PRESENTATION_LAYER_ASSIGNMENT (  '', '', ( #184 ) ) ;
#256 = VECTOR ( 'NONE', #133, 39.37007874015748143 ) ;
#257 = CARTESIAN_POINT ( 'NONE',  ( -0.2499999999999999167, 3.000000000000000444, 0.000000000000000000 ) ) ;
#258 = CARTESIAN_POINT ( 'NONE',  ( 2.622513934299087098E-16, 0.3637306695894629294, 0.000000000000000000 ) ) ;
#259 = DIRECTION ( 'NONE',  ( 0.000000000000000000, 0.000000000000000000, -1.000000000000000000 ) ) ;
#260 =( GEOMETRIC_REPRESENTATION_CONTEXT ( 3 ) GLOBAL_UNCERTAINTY_ASSIGNED_CONTEXT ( ( #248 ) ) GLOBAL_UNIT_ASSIGNED_CONTEXT ( ( #212, #52, #4 ) ) REPRESENTATION_CONTEXT ( 'NONE', 'WORKASPACE' ) );
#261 = CARTESIAN_POINT ( 'NONE',  ( 0.000000000000000000, 0.000000000000000000, 0.000000000000000000 ) ) ;
#262 = DIRECTION ( 'NONE',  ( -1.000000000000000000, 0.000000000000000000, 0.000000000000000000 ) ) ;
#263 = DIRECTION ( 'NONE',  ( -1.227051157693745302E-16, 1.000000000000000000, -0.000000000000000000 ) ) ;
#264 = VECTOR ( 'NONE', #263, 39.37007874015748143 ) ;
#265 = CARTESIAN_POINT ( 'NONE',  ( 0.2499999999999998057, 3.000000000000000444, 3.061616997868381785E-17 ) ) ;
#266 = DIRECTION ( 'NONE',  ( 0.000000000000000000, 0.000000000000000000, -1.000000000000000000 ) ) ;
#267 =( LENGTH_UNIT ( ) NAMED_UNIT ( * ) SI_UNIT ( $, .METRE. ) );
#268 =( LENGTH_UNIT ( ) NAMED_UNIT ( * ) SI_UNIT ( $, .METRE. ) );
#269 = AXIS2_PLACEMENT_3D ( 'NONE', #61, #197, #130 ) ;
#270 = ORIENTED_EDGE ( 'NONE', *, *, #148, .F. ) ;
#271 =( NAMED_UNIT ( * ) SI_UNIT ( $, .STERADIAN. ) SOLID_ANGLE_UNIT ( ) );
#272 = ORIENTED_EDGE ( 'NONE', *, *, #43, .T. ) ;
#273 = APPLICATION_PROTOCOL_DEFINITION ( 'draft international standard', 'automotive_design', 1998, #242 ) ;
#274 = SURFACE_SIDE_STYLE ('',( #175 ) ) ;
#275 = ORIENTED_EDGE ( 'NONE', *, *, #95, .T. ) ;
#276 = CYLINDRICAL_SURFACE ( 'NONE', #190, 0.2499999999999998612 ) ;
#277 = PRODUCT_DEFINITION_CONTEXT ( 'detailed design', #242, 'design' ) ;
#278 = DIMENSIONAL_EXPONENTS ( 1.000000000000000000, 0.000000000000000000, 0.000000000000000000, 0.000000000000000000, 0.000000000000000000, 0.000000000000000000, 0.000000000000000000 ) ;
#279 =( NAMED_UNIT ( * ) PLANE_ANGLE_UNIT ( ) SI_UNIT ( $, .RADIAN. ) );
#280 = COLOUR_RGB ( '',0.7921568627450980005, 0.8196078431372548767, 0.9333333333333333481 ) ;
#281 = COLOUR_RGB ( '',1.000000000000000000, 0.000000000000000000, 0.000000000000000000 ) ;
#282 = VERTEX_POINT ( 'NONE', #36 ) ;
#283 = LENGTH_MEASURE_WITH_UNIT ( LENGTH_MEASURE( 0.02539999999999999897 ), #210 );
#284 = FILL_AREA_STYLE_COLOUR ( '', #280 ) ;
#285 = DIRECTION ( 'NONE',  ( -1.227051157693745302E-16, 1.000000000000000000, -0.000000000000000000 ) ) ;
#286 =( LENGTH_UNIT ( ) NAMED_UNIT ( * ) SI_UNIT ( $, .METRE. ) );
#287 = EDGE_CURVE ( 'NONE', #47, #247, #112, .T. ) ;
#288 = CARTESIAN_POINT ( 'NONE',  ( 0.000000000000000000, 0.000000000000000000, 0.000000000000000000 ) ) ;
#289 = AXIS2_PLACEMENT_3D ( 'NONE', #66, #59, #14 ) ;
#290 = PRODUCT_DEFINITION ( 'UNKNOWN', '', #143, #277 ) ;
#291 = DIRECTION ( 'NONE',  ( -0.000000000000000000, -1.000000000000000000, -0.000000000000000000 ) ) ;
#292 =( CONVERSION_BASED_UNIT ( 'INCH', #7 ) LENGTH_UNIT ( ) NAMED_UNIT ( #65 ) );
#293 = FACE_OUTER_BOUND ( 'NONE', #152, .T. ) ;
#294 = CARTESIAN_POINT ( 'NONE',  ( 0.000000000000000000, 0.000000000000000000, 0.000000000000000000 ) ) ;
#295 = PRODUCT ( '59817', '59817', '', ( #174 ) ) ;
#296 = SURFACE_STYLE_USAGE ( .BOTH. , #31 ) ;
#297 = DIRECTION ( 'NONE',  ( -0.000000000000000000, -1.000000000000000000, -0.000000000000000000 ) ) ;
#298 = DIRECTION ( 'NONE',  ( -1.227051157693745302E-16, 1.000000000000000000, 0.000000000000000000 ) ) ;
#299 = CIRCLE ( 'NONE', #158, 0.04000000000000000083 ) ;
#300 = ORIENTED_EDGE ( 'NONE', *, *, #3, .F. ) ;
#301 = FACE_OUTER_BOUND ( 'NONE', #67, .T. ) ;
#302 = UNCERTAINTY_MEASURE_WITH_UNIT (LENGTH_MEASURE( 1.000000000000000082E-05 ), #58, 'distance_accuracy_value', 'NONE');
#303 = DIRECTION ( 'NONE',  ( -1.000000000000000000, -1.227051157693745302E-16, 0.000000000000000000 ) ) ;
#304 = VERTEX_POINT ( 'NONE', #146 ) ;
#305 = DIRECTION ( 'NONE',  ( 0.000000000000000000, 0.000000000000000000, -1.000000000000000000 ) ) ;
#306 = PRESENTATION_STYLE_ASSIGNMENT (( #246 ) ) ;
#307 = EDGE_LOOP ( 'NONE', ( #85, #202 ) ) ;
#308 = CONICAL_SURFACE ( 'NONE', #164, 0.04000000000000000083, 0.5235987755983000369 ) ;
#309 = AXIS2_PLACEMENT_3D ( 'NONE', #100, #125, #13 ) ;
ENDSEC;
END-ISO-10303-21;
