ISO-10303-21;
HEADER;
FILE_DESCRIPTION (( 'STEP AP214' ),
    '1' );
FILE_NAME ('06018.STEP',
    '2023-07-05T16:00:22',
    ( '' ),
    ( '' ),
    'SwSTEP 2.0',
    'SolidWorks 2023',
    '' );
FILE_SCHEMA (( 'AUTOMOTIVE_DESIGN' ));
ENDSEC;

DATA;
#1 = PRODUCT_DEFINITION_SHAPE ( 'NONE', 'NONE',  #36 ) ;
#2 = CONICAL_SURFACE ( 'NONE', #243, 39.37007874015760933, 0.7853981633974499443 ) ;
#3 = MANIFOLD_SOLID_BREP ( 'Revolve - Tool Body (Pointed)', #111 ) ;
#4 = ADVANCED_FACE ( 'NONE', ( #190 ), #176, .T. ) ;
#5 = APPLICATION_CONTEXT ( 'automotive_design' ) ;
#6 = DIRECTION ( 'NONE',  ( -0.000000000000000000, 1.000000000000000000, -0.000000000000000000 ) ) ;
#7 = PRESENTATION_LAYER_ASSIGNMENT (  '', '', ( #196 ) ) ;
#8 = VERTEX_POINT ( 'NONE', #157 ) ;
#9 = CARTESIAN_POINT ( 'NONE',  ( 0.000000000000000000, 0.06249999999999967387, 0.000000000000000000 ) ) ;
#10 = ORIENTED_EDGE ( 'NONE', *, *, #235, .T. ) ;
#11 = VECTOR ( 'NONE', #194, 39.37007874015748143 ) ;
#12 = EDGE_LOOP ( 'NONE', ( #68, #10, #185, #182 ) ) ;
#13 = DIRECTION ( 'NONE',  ( 0.000000000000000000, 0.000000000000000000, 1.000000000000000000 ) ) ;
#14 = SURFACE_SIDE_STYLE ('',( #50 ) ) ;
#15 = CARTESIAN_POINT ( 'NONE',  ( 0.000000000000000000, 0.06249999999999978489, 0.000000000000000000 ) ) ;
#16 = DIMENSIONAL_EXPONENTS ( 1.000000000000000000, 0.000000000000000000, 0.000000000000000000, 0.000000000000000000, 0.000000000000000000, 0.000000000000000000, 0.000000000000000000 ) ;
#17 = CIRCLE ( 'NONE', #49, 0.06250000000000001388 ) ;
#18 = PLANE ( 'NONE',  #205 ) ;
#19 = FILL_AREA_STYLE_COLOUR ( '', #224 ) ;
#20 = FILL_AREA_STYLE_COLOUR ( '', #199 ) ;
#21 =( GEOMETRIC_REPRESENTATION_CONTEXT ( 3 ) GLOBAL_UNCERTAINTY_ASSIGNED_CONTEXT ( ( #136 ) ) GLOBAL_UNIT_ASSIGNED_CONTEXT ( ( #119, #121, #178 ) ) REPRESENTATION_CONTEXT ( 'NONE', 'WORKASPACE' ) );
#22 = DIRECTION ( 'NONE',  ( 0.000000000000000000, 0.000000000000000000, 1.000000000000000000 ) ) ;
#23 = VECTOR ( 'NONE', #85, 39.37007874015748143 ) ;
#24 = CARTESIAN_POINT ( 'NONE',  ( 7.654042494670959086E-18, 2.000000000000000000, -0.06250000000000001388 ) ) ;
#25 = VERTEX_POINT ( 'NONE', #135 ) ;
#26 = EDGE_CURVE ( 'NONE', #86, #210, #60, .T. ) ;
#27 = ORIENTED_EDGE ( 'NONE', *, *, #106, .F. ) ;
#28 = CLOSED_SHELL ( 'NONE', ( #4, #124, #211 ) ) ;
#29 = AXIS2_PLACEMENT_3D ( 'NONE', #191, #218, #13 ) ;
#30 = FACE_OUTER_BOUND ( 'NONE', #47, .T. ) ;
#31 = FILL_AREA_STYLE ('',( #84 ) ) ;
#32 = CYLINDRICAL_SURFACE ( 'NONE', #212, 0.06250000000000001388 ) ;
#33 = DIMENSIONAL_EXPONENTS ( 1.000000000000000000, 0.000000000000000000, 0.000000000000000000, 0.000000000000000000, 0.000000000000000000, 0.000000000000000000, 0.000000000000000000 ) ;
#34 =( GEOMETRIC_REPRESENTATION_CONTEXT ( 3 ) GLOBAL_UNCERTAINTY_ASSIGNED_CONTEXT ( ( #35 ) ) GLOBAL_UNIT_ASSIGNED_CONTEXT ( ( #166, #88, #82 ) ) REPRESENTATION_CONTEXT ( 'NONE', 'WORKASPACE' ) );
#35 = UNCERTAINTY_MEASURE_WITH_UNIT (LENGTH_MEASURE( 1.000000000000000082E-05 ), #166, 'distance_accuracy_value', 'NONE');
#36 = PRODUCT_DEFINITION ( 'UNKNOWN', '', #51, #96 ) ;
#37 = SURFACE_STYLE_USAGE ( .BOTH. , #220 ) ;
#38 = PRESENTATION_LAYER_ASSIGNMENT (  '', '', ( #173 ) ) ;
#39 = DIRECTION ( 'NONE',  ( -0.000000000000000000, 1.000000000000000000, 0.000000000000000000 ) ) ;
#40 = EDGE_CURVE ( 'NONE', #208, #65, #17, .T. ) ;
#41 = AXIS2_PLACEMENT_3D ( 'NONE', #9, #6, #127 ) ;
#42 = AXIS2_PLACEMENT_3D ( 'NONE', #222, #123, #99 ) ;
#43 = DIRECTION ( 'NONE',  ( 1.000000000000000000, 0.000000000000000000, 0.000000000000000000 ) ) ;
#44 = ORIENTED_EDGE ( 'NONE', *, *, #26, .F. ) ;
#45 = PRESENTATION_STYLE_ASSIGNMENT (( #110 ) ) ;
#46 = LINE ( 'NONE', #170, #156 ) ;
#47 = EDGE_LOOP ( 'NONE', ( #169, #61, #132, #27 ) ) ;
#48 = EDGE_LOOP ( 'NONE', ( #250, #63 ) ) ;
#49 = AXIS2_PLACEMENT_3D ( 'NONE', #238, #259, #54 ) ;
#50 = SURFACE_STYLE_FILL_AREA ( #31 ) ;
#51 = PRODUCT_DEFINITION_FORMATION_WITH_SPECIFIED_SOURCE ( 'ANY', '', #76, .NOT_KNOWN. ) ;
#52 = DIRECTION ( 'NONE',  ( -0.000000000000000000, 1.000000000000000000, -0.000000000000000000 ) ) ;
#53 = DIRECTION ( 'NONE',  ( -0.000000000000000000, -1.000000000000000000, -0.000000000000000000 ) ) ;
#54 = DIRECTION ( 'NONE',  ( 0.000000000000000000, 0.000000000000000000, 1.000000000000000000 ) ) ;
#55 = PRESENTATION_STYLE_ASSIGNMENT (( #37 ) ) ;
#56 = APPLICATION_CONTEXT ( 'automotive_design' ) ;
#57 = DIRECTION ( 'NONE',  ( 0.000000000000000000, 1.000000000000000000, 0.000000000000000000 ) ) ;
#58 = FILL_AREA_STYLE ('',( #20 ) ) ;
#59 = LENGTH_MEASURE_WITH_UNIT ( LENGTH_MEASURE( 0.02539999999999999897 ), #125 );
#60 = CIRCLE ( 'NONE', #254, 0.06250000000000001388 ) ;
#61 = ORIENTED_EDGE ( 'NONE', *, *, #260, .T. ) ;
#62 = CARTESIAN_POINT ( 'NONE',  ( 0.000000000000000000, 0.000000000000000000, 0.000000000000000000 ) ) ;
#63 = ORIENTED_EDGE ( 'NONE', *, *, #133, .F. ) ;
#64 = PRESENTATION_STYLE_ASSIGNMENT (( #104 ) ) ;
#65 = VERTEX_POINT ( 'NONE', #162 ) ;
#66 = FILL_AREA_STYLE ('',( #187 ) ) ;
#67 = CIRCLE ( 'NONE', #41, 0.06250000000000001388 ) ;
#68 = ORIENTED_EDGE ( 'NONE', *, *, #260, .F. ) ;
#69 = ADVANCED_FACE ( 'NONE', ( #115 ), #214, .T. ) ;
#70 = MECHANICAL_DESIGN_GEOMETRIC_PRESENTATION_REPRESENTATION (  '', ( #173 ), #21 ) ;
#71 = DIRECTION ( 'NONE',  ( 0.000000000000000000, 0.000000000000000000, 1.000000000000000000 ) ) ;
#72 = AXIS2_PLACEMENT_3D ( 'NONE', #168, #223, #43 ) ;
#73 = DIRECTION ( 'NONE',  ( -0.000000000000000000, 1.000000000000000000, -0.000000000000000000 ) ) ;
#74 = FACE_OUTER_BOUND ( 'NONE', #246, .T. ) ;
#75 = CARTESIAN_POINT ( 'NONE',  ( 0.000000000000000000, 0.06249999999999979183, 0.000000000000000000 ) ) ;
#76 = PRODUCT ( '06018', '06018', '', ( #230 ) ) ;
#77 =( GEOMETRIC_REPRESENTATION_CONTEXT ( 3 ) GLOBAL_UNCERTAINTY_ASSIGNED_CONTEXT ( ( #149 ) ) GLOBAL_UNIT_ASSIGNED_CONTEXT ( ( #152, #201, #251 ) ) REPRESENTATION_CONTEXT ( 'NONE', 'WORKASPACE' ) );
#78 = EDGE_CURVE ( 'NONE', #25, #188, #126, .T. ) ;
#79 = CARTESIAN_POINT ( 'NONE',  ( 0.000000000000000000, 39.37007874015748143, 0.000000000000000000 ) ) ;
#80 = ORIENTED_EDGE ( 'NONE', *, *, #207, .F. ) ;
#81 =( GEOMETRIC_REPRESENTATION_CONTEXT ( 3 ) GLOBAL_UNCERTAINTY_ASSIGNED_CONTEXT ( ( #216 ) ) GLOBAL_UNIT_ASSIGNED_CONTEXT ( ( #137, #94, #172 ) ) REPRESENTATION_CONTEXT ( 'NONE', 'WORKASPACE' ) );
#82 =( NAMED_UNIT ( * ) SI_UNIT ( $, .STERADIAN. ) SOLID_ANGLE_UNIT ( ) );
#83 = ORIENTED_EDGE ( 'NONE', *, *, #239, .F. ) ;
#84 = FILL_AREA_STYLE_COLOUR ( '', #92 ) ;
#85 = DIRECTION ( 'NONE',  ( 8.659560562354947649E-17, 0.7071067811865463515, -0.7071067811865486830 ) ) ;
#86 = VERTEX_POINT ( 'NONE', #193 ) ;
#87 = MECHANICAL_DESIGN_GEOMETRIC_PRESENTATION_REPRESENTATION (  '', ( #148 ), #184 ) ;
#88 =( NAMED_UNIT ( * ) PLANE_ANGLE_UNIT ( ) SI_UNIT ( $, .RADIAN. ) );
#89 =( LENGTH_UNIT ( ) NAMED_UNIT ( * ) SI_UNIT ( $, .METRE. ) );
#90 = CARTESIAN_POINT ( 'NONE',  ( 0.000000000000000000, 0.06249999999999967387, 0.000000000000000000 ) ) ;
#91 = LENGTH_MEASURE_WITH_UNIT ( LENGTH_MEASURE( 0.02539999999999999897 ), #89 );
#92 = COLOUR_RGB ( '',1.000000000000000000, 0.000000000000000000, 0.000000000000000000 ) ;
#93 = DIRECTION ( 'NONE',  ( 0.000000000000000000, 0.000000000000000000, -1.000000000000000000 ) ) ;
#94 =( NAMED_UNIT ( * ) PLANE_ANGLE_UNIT ( ) SI_UNIT ( $, .RADIAN. ) );
#95 = DIMENSIONAL_EXPONENTS ( 1.000000000000000000, 0.000000000000000000, 0.000000000000000000, 0.000000000000000000, 0.000000000000000000, 0.000000000000000000, 0.000000000000000000 ) ;
#96 = PRODUCT_DEFINITION_CONTEXT ( 'detailed design', #5, 'design' ) ;
#97 = CARTESIAN_POINT ( 'NONE',  ( 0.000000000000000000, 0.06249999999999978489, 0.000000000000000000 ) ) ;
#98 = DIRECTION ( 'NONE',  ( 0.000000000000000000, -0.000000000000000000, 1.000000000000000000 ) ) ;
#99 = DIRECTION ( 'NONE',  ( 0.000000000000000000, -0.000000000000000000, -1.000000000000000000 ) ) ;
#100 = LENGTH_MEASURE_WITH_UNIT ( LENGTH_MEASURE( 0.02539999999999999897 ), #145 );
#101 = COLOUR_RGB ( '',0.7921568627450980005, 0.8196078431372548767, 0.9333333333333333481 ) ;
#102 = CARTESIAN_POINT ( 'NONE',  ( 0.000000000000000000, 0.06249999999999981265, 0.000000000000000000 ) ) ;
#103 = ADVANCED_FACE ( 'NONE', ( #30 ), #32, .T. ) ;
#104 = SURFACE_STYLE_USAGE ( .BOTH. , #181 ) ;
#105 = ORIENTED_EDGE ( 'NONE', *, *, #207, .T. ) ;
#106 = EDGE_CURVE ( 'NONE', #86, #65, #256, .T. ) ;
#107 = CARTESIAN_POINT ( 'NONE',  ( 0.000000000000000000, 0.000000000000000000, 0.000000000000000000 ) ) ;
#108 = FILL_AREA_STYLE_COLOUR ( '', #101 ) ;
#109 =( LENGTH_UNIT ( ) NAMED_UNIT ( * ) SI_UNIT ( $, .METRE. ) );
#110 = SURFACE_STYLE_USAGE ( .BOTH. , #227 ) ;
#111 = CLOSED_SHELL ( 'NONE', ( #103, #116, #69, #159 ) ) ;
#112 = PRESENTATION_LAYER_ASSIGNMENT (  '', '', ( #189 ) ) ;
#113 = PLANE ( 'NONE',  #158 ) ;
#114 = CARTESIAN_POINT ( 'NONE',  ( 0.000000000000000000, 2.000000000000000000, 0.000000000000000000 ) ) ;
#115 = FACE_OUTER_BOUND ( 'NONE', #12, .T. ) ;
#116 = ADVANCED_FACE ( 'NONE', ( #74 ), #113, .F. ) ;
#117 = CARTESIAN_POINT ( 'NONE',  ( 0.000000000000000000, 2.000000000000000000, 0.06250000000000001388 ) ) ;
#118 = DIMENSIONAL_EXPONENTS ( 1.000000000000000000, 0.000000000000000000, 0.000000000000000000, 0.000000000000000000, 0.000000000000000000, 0.000000000000000000, 0.000000000000000000 ) ;
#119 =( CONVERSION_BASED_UNIT ( 'INCH', #59 ) LENGTH_UNIT ( ) NAMED_UNIT ( #16 ) );
#120 = EDGE_CURVE ( 'NONE', #65, #208, #195, .T. ) ;
#121 =( NAMED_UNIT ( * ) PLANE_ANGLE_UNIT ( ) SI_UNIT ( $, .RADIAN. ) );
#122 = AXIS2_PLACEMENT_3D ( 'NONE', #164, #198, #245 ) ;
#123 = DIRECTION ( 'NONE',  ( 0.000000000000000000, -1.000000000000000000, 0.000000000000000000 ) ) ;
#124 = ADVANCED_FACE ( 'NONE', ( #219 ), #18, .T. ) ;
#125 =( LENGTH_UNIT ( ) NAMED_UNIT ( * ) SI_UNIT ( $, .METRE. ) );
#126 = CIRCLE ( 'NONE', #144, 0.06249999999999999306 ) ;
#127 = DIRECTION ( 'NONE',  ( 0.000000000000000000, 0.000000000000000000, 1.000000000000000000 ) ) ;
#128 =( LENGTH_UNIT ( ) NAMED_UNIT ( * ) SI_UNIT ( $, .METRE. ) );
#129 = ORIENTED_EDGE ( 'NONE', *, *, #133, .T. ) ;
#130 = DIRECTION ( 'NONE',  ( 0.000000000000000000, 1.000000000000000000, 0.000000000000000000 ) ) ;
#131 = CARTESIAN_POINT ( 'NONE',  ( 7.654042494670959086E-18, 0.06249999999999967387, -0.06250000000000001388 ) ) ;
#132 = ORIENTED_EDGE ( 'NONE', *, *, #120, .F. ) ;
#133 = EDGE_CURVE ( 'NONE', #188, #25, #241, .T. ) ;
#134 = ORIENTED_EDGE ( 'NONE', *, *, #120, .T. ) ;
#135 = CARTESIAN_POINT ( 'NONE',  ( 0.000000000000000000, 0.06249999999999979183, 0.06250000000000000000 ) ) ;
#136 = UNCERTAINTY_MEASURE_WITH_UNIT (LENGTH_MEASURE( 1.000000000000000082E-05 ), #119, 'distance_accuracy_value', 'NONE');
#137 =( CONVERSION_BASED_UNIT ( 'INCH', #91 ) LENGTH_UNIT ( ) NAMED_UNIT ( #118 ) );
#138 = STYLED_ITEM ( 'NONE', ( #45 ), #3 ) ;
#139 = VECTOR ( 'NONE', #154, 39.37007874015748143 ) ;
#140 = PRESENTATION_STYLE_ASSIGNMENT (( #253 ) ) ;
#141 = DIRECTION ( 'NONE',  ( -0.000000000000000000, 1.000000000000000000, -0.000000000000000000 ) ) ;
#142 = DIRECTION ( 'NONE',  ( 0.000000000000000000, 0.000000000000000000, -1.000000000000000000 ) ) ;
#143 = FACE_OUTER_BOUND ( 'NONE', #202, .T. ) ;
#144 = AXIS2_PLACEMENT_3D ( 'NONE', #15, #53, #93 ) ;
#145 =( LENGTH_UNIT ( ) NAMED_UNIT ( * ) SI_UNIT ( $, .METRE. ) );
#146 =( NAMED_UNIT ( * ) SI_UNIT ( $, .STERADIAN. ) SOLID_ANGLE_UNIT ( ) );
#147 = APPLICATION_PROTOCOL_DEFINITION ( 'draft international standard', 'automotive_design', 1998, #56 ) ;
#148 = STYLED_ITEM ( 'NONE', ( #140 ), #4 ) ;
#149 = UNCERTAINTY_MEASURE_WITH_UNIT (LENGTH_MEASURE( 1.000000000000000082E-05 ), #152, 'distance_accuracy_value', 'NONE');
#150 = LINE ( 'NONE', #62, #23 ) ;
#151 = ORIENTED_EDGE ( 'NONE', *, *, #239, .T. ) ;
#152 =( CONVERSION_BASED_UNIT ( 'INCH', #200 ) LENGTH_UNIT ( ) NAMED_UNIT ( #217 ) );
#153 = EDGE_LOOP ( 'NONE', ( #83, #105, #228 ) ) ;
#154 = DIRECTION ( 'NONE',  ( 0.000000000000000000, 0.7071067811865463515, 0.7071067811865486830 ) ) ;
#155 = FILL_AREA_STYLE ('',( #108 ) ) ;
#156 = VECTOR ( 'NONE', #225, 39.37007874015748143 ) ;
#157 = CARTESIAN_POINT ( 'NONE',  ( 0.000000000000000000, 0.000000000000000000, 0.000000000000000000 ) ) ;
#158 = AXIS2_PLACEMENT_3D ( 'NONE', #102, #39, #22 ) ;
#159 = ADVANCED_FACE ( 'NONE', ( #143 ), #180, .F. ) ;
#160 =( NAMED_UNIT ( * ) PLANE_ANGLE_UNIT ( ) SI_UNIT ( $, .RADIAN. ) );
#161 = MECHANICAL_DESIGN_GEOMETRIC_PRESENTATION_REPRESENTATION (  '', ( #196 ), #34 ) ;
#162 = CARTESIAN_POINT ( 'NONE',  ( 0.000000000000000000, 2.000000000000000000, 0.06250000000000001388 ) ) ;
#163 = CARTESIAN_POINT ( 'NONE',  ( 0.000000000000000000, 2.000000000000000000, 0.000000000000000000 ) ) ;
#164 = CARTESIAN_POINT ( 'NONE',  ( 0.000000000000000000, 2.000000000000000000, 0.000000000000000000 ) ) ;
#165 = PRODUCT_RELATED_PRODUCT_CATEGORY ( 'part', '', ( #76 ) ) ;
#166 =( CONVERSION_BASED_UNIT ( 'INCH', #203 ) LENGTH_UNIT ( ) NAMED_UNIT ( #95 ) );
#167 = EDGE_LOOP ( 'NONE', ( #80, #151, #129 ) ) ;
#168 = CARTESIAN_POINT ( 'NONE',  ( 0.000000000000000000, 0.000000000000000000, 0.000000000000000000 ) ) ;
#169 = ORIENTED_EDGE ( 'NONE', *, *, #26, .T. ) ;
#170 = CARTESIAN_POINT ( 'NONE',  ( 7.654042494670959086E-18, 2.000000000000000000, -0.06250000000000001388 ) ) ;
#171 = AXIS2_PLACEMENT_3D ( 'NONE', #97, #177, #142 ) ;
#172 =( NAMED_UNIT ( * ) SI_UNIT ( $, .STERADIAN. ) SOLID_ANGLE_UNIT ( ) );
#173 = STYLED_ITEM ( 'NONE', ( #55 ), #124 ) ;
#174 = DIRECTION ( 'NONE',  ( 0.000000000000000000, 0.000000000000000000, 1.000000000000000000 ) ) ;
#175 = MANIFOLD_SOLID_BREP ( 'Revolve - Cutting Edge', #28 ) ;
#176 = CONICAL_SURFACE ( 'NONE', #29, 39.37007874015760933, 0.7853981633974499443 ) ;
#177 = DIRECTION ( 'NONE',  ( -0.000000000000000000, -1.000000000000000000, -0.000000000000000000 ) ) ;
#178 =( NAMED_UNIT ( * ) SI_UNIT ( $, .STERADIAN. ) SOLID_ANGLE_UNIT ( ) );
#179 = SURFACE_STYLE_FILL_AREA ( #262 ) ;
#180 = PLANE ( 'NONE',  #42 ) ;
#181 = SURFACE_SIDE_STYLE ('',( #247 ) ) ;
#182 = ORIENTED_EDGE ( 'NONE', *, *, #40, .F. ) ;
#183 = DIRECTION ( 'NONE',  ( 0.000000000000000000, 0.000000000000000000, 1.000000000000000000 ) ) ;
#184 =( GEOMETRIC_REPRESENTATION_CONTEXT ( 3 ) GLOBAL_UNCERTAINTY_ASSIGNED_CONTEXT ( ( #233 ) ) GLOBAL_UNIT_ASSIGNED_CONTEXT ( ( #215, #160, #237 ) ) REPRESENTATION_CONTEXT ( 'NONE', 'WORKASPACE' ) );
#185 = ORIENTED_EDGE ( 'NONE', *, *, #106, .T. ) ;
#186 = FACE_OUTER_BOUND ( 'NONE', #153, .T. ) ;
#187 = FILL_AREA_STYLE_COLOUR ( '', #229 ) ;
#188 = VERTEX_POINT ( 'NONE', #209 ) ;
#189 = STYLED_ITEM ( 'NONE', ( #242 ), #175 ) ;
#190 = FACE_OUTER_BOUND ( 'NONE', #167, .T. ) ;
#191 = CARTESIAN_POINT ( 'NONE',  ( 0.000000000000000000, 39.37007874015748143, 0.000000000000000000 ) ) ;
#192 = UNCERTAINTY_MEASURE_WITH_UNIT (LENGTH_MEASURE( 1.000000000000000082E-05 ), #265, 'distance_accuracy_value', 'NONE');
#193 = CARTESIAN_POINT ( 'NONE',  ( 0.000000000000000000, 0.06249999999999967387, 0.06250000000000001388 ) ) ;
#194 = DIRECTION ( 'NONE',  ( -0.000000000000000000, 1.000000000000000000, -0.000000000000000000 ) ) ;
#195 = CIRCLE ( 'NONE', #122, 0.06250000000000001388 ) ;
#196 = STYLED_ITEM ( 'NONE', ( #64 ), #211 ) ;
#197 = LINE ( 'NONE', #107, #139 ) ;
#198 = DIRECTION ( 'NONE',  ( -0.000000000000000000, 1.000000000000000000, -0.000000000000000000 ) ) ;
#199 = COLOUR_RGB ( '',1.000000000000000000, 0.000000000000000000, 0.000000000000000000 ) ;
#200 = LENGTH_MEASURE_WITH_UNIT ( LENGTH_MEASURE( 0.02539999999999999897 ), #109 );
#201 =( NAMED_UNIT ( * ) PLANE_ANGLE_UNIT ( ) SI_UNIT ( $, .RADIAN. ) );
#202 = EDGE_LOOP ( 'NONE', ( #134, #226 ) ) ;
#203 = LENGTH_MEASURE_WITH_UNIT ( LENGTH_MEASURE( 0.02539999999999999897 ), #128 );
#204 = ORIENTED_EDGE ( 'NONE', *, *, #235, .F. ) ;
#205 = AXIS2_PLACEMENT_3D ( 'NONE', #75, #57, #98 ) ;
#206 = MECHANICAL_DESIGN_GEOMETRIC_PRESENTATION_REPRESENTATION (  '', ( #138 ), #81 ) ;
#207 = EDGE_CURVE ( 'NONE', #8, #25, #197, .T. ) ;
#208 = VERTEX_POINT ( 'NONE', #24 ) ;
#209 = CARTESIAN_POINT ( 'NONE',  ( 7.654042494670957545E-18, 0.06249999999999979183, -0.06250000000000000000 ) ) ;
#210 = VERTEX_POINT ( 'NONE', #131 ) ;
#211 = ADVANCED_FACE ( 'NONE', ( #186 ), #2, .T. ) ;
#212 = AXIS2_PLACEMENT_3D ( 'NONE', #114, #141, #174 ) ;
#213 = PRESENTATION_LAYER_ASSIGNMENT (  '', '', ( #138 ) ) ;
#214 = CYLINDRICAL_SURFACE ( 'NONE', #232, 0.06250000000000001388 ) ;
#215 =( CONVERSION_BASED_UNIT ( 'INCH', #252 ) LENGTH_UNIT ( ) NAMED_UNIT ( #257 ) );
#216 = UNCERTAINTY_MEASURE_WITH_UNIT (LENGTH_MEASURE( 1.000000000000000082E-05 ), #137, 'distance_accuracy_value', 'NONE');
#217 = DIMENSIONAL_EXPONENTS ( 1.000000000000000000, 0.000000000000000000, 0.000000000000000000, 0.000000000000000000, 0.000000000000000000, 0.000000000000000000, 0.000000000000000000 ) ;
#218 = DIRECTION ( 'NONE',  ( 0.000000000000000000, 1.000000000000000000, 0.000000000000000000 ) ) ;
#219 = FACE_OUTER_BOUND ( 'NONE', #48, .T. ) ;
#220 = SURFACE_SIDE_STYLE ('',( #263 ) ) ;
#221 =( GEOMETRIC_REPRESENTATION_CONTEXT ( 3 ) GLOBAL_UNCERTAINTY_ASSIGNED_CONTEXT ( ( #192 ) ) GLOBAL_UNIT_ASSIGNED_CONTEXT ( ( #265, #244, #146 ) ) REPRESENTATION_CONTEXT ( 'NONE', 'WORKASPACE' ) );
#222 = CARTESIAN_POINT ( 'NONE',  ( 0.06250000000000001388, 2.000000000000000000, 0.000000000000000000 ) ) ;
#223 = DIRECTION ( 'NONE',  ( 0.000000000000000000, 0.000000000000000000, 1.000000000000000000 ) ) ;
#224 = COLOUR_RGB ( '',0.7921568627450980005, 0.8196078431372548767, 0.9333333333333333481 ) ;
#225 = DIRECTION ( 'NONE',  ( -0.000000000000000000, 1.000000000000000000, -0.000000000000000000 ) ) ;
#226 = ORIENTED_EDGE ( 'NONE', *, *, #40, .T. ) ;
#227 = SURFACE_SIDE_STYLE ('',( #248 ) ) ;
#228 = ORIENTED_EDGE ( 'NONE', *, *, #78, .T. ) ;
#229 = COLOUR_RGB ( '',1.000000000000000000, 0.000000000000000000, 0.000000000000000000 ) ;
#230 = PRODUCT_CONTEXT ( 'NONE', #56, 'mechanical' ) ;
#231 = APPLICATION_PROTOCOL_DEFINITION ( 'draft international standard', 'automotive_design', 1998, #5 ) ;
#232 = AXIS2_PLACEMENT_3D ( 'NONE', #163, #52, #71 ) ;
#233 = UNCERTAINTY_MEASURE_WITH_UNIT (LENGTH_MEASURE( 1.000000000000000082E-05 ), #215, 'distance_accuracy_value', 'NONE');
#234 = DIRECTION ( 'NONE',  ( 0.000000000000000000, 0.000000000000000000, 1.000000000000000000 ) ) ;
#235 = EDGE_CURVE ( 'NONE', #210, #86, #67, .T. ) ;
#236 = ADVANCED_BREP_SHAPE_REPRESENTATION ( '06018', ( #175, #3, #72 ), #77 ) ;
#237 =( NAMED_UNIT ( * ) SI_UNIT ( $, .STERADIAN. ) SOLID_ANGLE_UNIT ( ) );
#238 = CARTESIAN_POINT ( 'NONE',  ( 0.000000000000000000, 2.000000000000000000, 0.000000000000000000 ) ) ;
#239 = EDGE_CURVE ( 'NONE', #8, #188, #150, .T. ) ;
#240 = SURFACE_SIDE_STYLE ('',( #179 ) ) ;
#241 = CIRCLE ( 'NONE', #171, 0.06249999999999999306 ) ;
#242 = PRESENTATION_STYLE_ASSIGNMENT (( #264 ) ) ;
#243 = AXIS2_PLACEMENT_3D ( 'NONE', #79, #130, #183 ) ;
#244 =( NAMED_UNIT ( * ) PLANE_ANGLE_UNIT ( ) SI_UNIT ( $, .RADIAN. ) );
#245 = DIRECTION ( 'NONE',  ( 0.000000000000000000, 0.000000000000000000, 1.000000000000000000 ) ) ;
#246 = EDGE_LOOP ( 'NONE', ( #44, #204 ) ) ;
#247 = SURFACE_STYLE_FILL_AREA ( #66 ) ;
#248 = SURFACE_STYLE_FILL_AREA ( #155 ) ;
#249 = PRESENTATION_LAYER_ASSIGNMENT (  '', '', ( #148 ) ) ;
#250 = ORIENTED_EDGE ( 'NONE', *, *, #78, .F. ) ;
#251 =( NAMED_UNIT ( * ) SI_UNIT ( $, .STERADIAN. ) SOLID_ANGLE_UNIT ( ) );
#252 = LENGTH_MEASURE_WITH_UNIT ( LENGTH_MEASURE( 0.02539999999999999897 ), #258 );
#253 = SURFACE_STYLE_USAGE ( .BOTH. , #14 ) ;
#254 = AXIS2_PLACEMENT_3D ( 'NONE', #90, #73, #234 ) ;
#255 = SHAPE_DEFINITION_REPRESENTATION ( #1, #236 ) ;
#256 = LINE ( 'NONE', #117, #11 ) ;
#257 = DIMENSIONAL_EXPONENTS ( 1.000000000000000000, 0.000000000000000000, 0.000000000000000000, 0.000000000000000000, 0.000000000000000000, 0.000000000000000000, 0.000000000000000000 ) ;
#258 =( LENGTH_UNIT ( ) NAMED_UNIT ( * ) SI_UNIT ( $, .METRE. ) );
#259 = DIRECTION ( 'NONE',  ( -0.000000000000000000, 1.000000000000000000, -0.000000000000000000 ) ) ;
#260 = EDGE_CURVE ( 'NONE', #210, #208, #46, .T. ) ;
#261 = MECHANICAL_DESIGN_GEOMETRIC_PRESENTATION_REPRESENTATION (  '', ( #189 ), #221 ) ;
#262 = FILL_AREA_STYLE ('',( #19 ) ) ;
#263 = SURFACE_STYLE_FILL_AREA ( #58 ) ;
#264 = SURFACE_STYLE_USAGE ( .BOTH. , #240 ) ;
#265 =( CONVERSION_BASED_UNIT ( 'INCH', #100 ) LENGTH_UNIT ( ) NAMED_UNIT ( #33 ) );
ENDSEC;
END-ISO-10303-21;
