ISO-10303-21;
HEADER;
FILE_DESCRIPTION (( 'STEP AP214' ),
    '1' );
FILE_NAME ('Micro_MMBM-010-6X.STEP',
    '2021-09-03T16:27:08',
    ( '' ),
    ( '' ),
    'SwSTEP 2.0',
    'SolidWorks 2020',
    '' );
FILE_SCHEMA (( 'AUTOMOTIVE_DESIGN' ));
ENDSEC;

DATA;
#1 = DIRECTION ( 'NONE',  ( -0.0000000000000000000, -0.0000000000000000000, -1.000000000000000000 ) ) ;
#2 = EDGE_CURVE ( 'NONE', #66, #239, #42, .T. ) ;
#3 = VERTEX_POINT ( 'NONE', #336 ) ;
#4 = EDGE_CURVE ( 'NONE', #66, #278, #157, .T. ) ;
#5 = FACE_OUTER_BOUND ( 'NONE', #363, .T. ) ;
#6 = STYLED_ITEM ( 'NONE', ( #370 ), #78 ) ;
#7 = VECTOR ( 'NONE', #207, 39.37007874015748854 ) ;
#8 = ORIENTED_EDGE ( 'NONE', *, *, #244, .F. ) ;
#9 = ORIENTED_EDGE ( 'NONE', *, *, #341, .T. ) ;
#10 = LINE ( 'NONE', #271, #206 ) ;
#11 = ORIENTED_EDGE ( 'NONE', *, *, #310, .T. ) ;
#12 = PRODUCT ( 'Micro_MMBM-010-6X', 'Micro_MMBM-010-6X', '', ( #162 ) ) ;
#13 = CARTESIAN_POINT ( 'NONE',  ( 0.01968303149999999294, 2.410476152399151743E-18, 0.0000000000000000000 ) ) ;
#14 = ORIENTED_EDGE ( 'NONE', *, *, #225, .T. ) ;
#15 = AXIS2_PLACEMENT_3D ( 'NONE', #311, #74, #369 ) ;
#16 = AXIS2_PLACEMENT_3D ( 'NONE', #292, #27, #142 ) ;
#17 = LENGTH_MEASURE_WITH_UNIT ( LENGTH_MEASURE( 0.02539999999999999897 ), #160 );
#18 = DIRECTION ( 'NONE',  ( -0.0000000000000000000, -0.0000000000000000000, -1.000000000000000000 ) ) ;
#19 = CARTESIAN_POINT ( 'NONE',  ( 0.0000000000000000000, 0.0000000000000000000, 0.03937000000000000222 ) ) ;
#20 = AXIS2_PLACEMENT_3D ( 'NONE', #121, #150, #325 ) ;
#21 = DIRECTION ( 'NONE',  ( -1.000000000000000000, 0.0000000000000000000, 0.0000000000000000000 ) ) ;
#22 =( CONVERSION_BASED_UNIT ( 'INCH', #17 ) LENGTH_UNIT ( ) NAMED_UNIT ( #266 ) );
#23 = EDGE_LOOP ( 'NONE', ( #146, #120 ) ) ;
#24 = CARTESIAN_POINT ( 'NONE',  ( 0.01870100000000002663, 0.0000000000000000000, 0.2362200000000000688 ) ) ;
#25 = LINE ( 'NONE', #378, #199 ) ;
#26 = CARTESIAN_POINT ( 'NONE',  ( 0.1031100000000002570, 1.354581824536888722E-17, 2.244094000000000033 ) ) ;
#27 = DIRECTION ( 'NONE',  ( 0.0000000000000000000, 0.0000000000000000000, -1.000000000000000000 ) ) ;
#28 = DIRECTION ( 'NONE',  ( -0.0000000000000000000, 0.0000000000000000000, -1.000000000000000000 ) ) ;
#29 = CONICAL_SURFACE ( 'NONE', #362, 0.01968303149999999294, 0.1745329251994327535 ) ;
#30 = EDGE_LOOP ( 'NONE', ( #275, #165, #256, #8 ) ) ;
#31 =( NAMED_UNIT ( * ) SI_UNIT ( $, .STERADIAN. ) SOLID_ANGLE_UNIT ( ) );
#32 = ORIENTED_EDGE ( 'NONE', *, *, #299, .F. ) ;
#33 = EDGE_LOOP ( 'NONE', ( #268, #301, #306, #356 ) ) ;
#34 = ADVANCED_FACE ( 'NONE', ( #127 ), #45, .F. ) ;
#35 = CLOSED_SHELL ( 'NONE', ( #194, #118, #317, #270, #251, #352, #109, #337, #190, #171, #273, #255, #34 ) ) ;
#36 = DIRECTION ( 'NONE',  ( -0.0000000000000000000, -0.0000000000000000000, -1.000000000000000000 ) ) ;
#37 = AXIS2_PLACEMENT_3D ( 'NONE', #257, #103, #105 ) ;
#38 = EDGE_LOOP ( 'NONE', ( #40, #122, #246, #176 ) ) ;
#39 = LINE ( 'NONE', #303, #48 ) ;
#40 = ORIENTED_EDGE ( 'NONE', *, *, #341, .F. ) ;
#41 = CARTESIAN_POINT ( 'NONE',  ( 0.01870100000000003010, 2.290211979085468414E-18, 0.2362200000000000688 ) ) ;
#42 = LINE ( 'NONE', #156, #377 ) ;
#43 = DIRECTION ( 'NONE',  ( -0.0000000000000000000, -0.0000000000000000000, -1.000000000000000000 ) ) ;
#44 = AXIS2_PLACEMENT_3D ( 'NONE', #267, #203, #264 ) ;
#45 = PLANE ( 'NONE',  #15 ) ;
#46 = CARTESIAN_POINT ( 'NONE',  ( 0.0000000000000000000, 0.0000000000000000000, 2.244094000000000033 ) ) ;
#47 = ORIENTED_EDGE ( 'NONE', *, *, #244, .T. ) ;
#48 = VECTOR ( 'NONE', #334, 39.37007874015748854 ) ;
#49 =( NAMED_UNIT ( * ) SI_UNIT ( $, .STERADIAN. ) SOLID_ANGLE_UNIT ( ) );
#50 = DIRECTION ( 'NONE',  ( -0.0000000000000000000, -0.0000000000000000000, -1.000000000000000000 ) ) ;
#51 = DIRECTION ( 'NONE',  ( -1.000000000000000000, 0.0000000000000000000, 0.0000000000000000000 ) ) ;
#52 = CARTESIAN_POINT ( 'NONE',  ( 0.0000000000000000000, 0.0000000000000000000, 2.244094000000000033 ) ) ;
#53 = MECHANICAL_DESIGN_GEOMETRIC_PRESENTATION_REPRESENTATION (  '', ( #6 ), #372 ) ;
#54 = CARTESIAN_POINT ( 'NONE',  ( 0.01870100000000000581, 2.350344065742308730E-18, 0.04493937739224183880 ) ) ;
#55 = PLANE ( 'NONE',  #138 ) ;
#56 = DIRECTION ( 'NONE',  ( -1.000000000000000000, 0.0000000000000000000, 0.0000000000000000000 ) ) ;
#57 = COLOUR_RGB ( '',0.7921568627450980005, 0.8196078431372548767, 0.9333333333333333481 ) ;
#58 = DIRECTION ( 'NONE',  ( -1.000000000000000000, 0.0000000000000000000, 0.0000000000000000000 ) ) ;
#59 = AXIS2_PLACEMENT_3D ( 'NONE', #67, #187, #211 ) ;
#60 = CARTESIAN_POINT ( 'NONE',  ( -0.1031100000000002570, 0.0000000000000000000, 2.244094000000000033 ) ) ;
#61 = ORIENTED_EDGE ( 'NONE', *, *, #201, .T. ) ;
#62 = CARTESIAN_POINT ( 'NONE',  ( 0.0000000000000000000, 0.0000000000000000000, 2.244094000000000033 ) ) ;
#63 = ORIENTED_EDGE ( 'NONE', *, *, #152, .F. ) ;
#64 =( CONVERSION_BASED_UNIT ( 'INCH', #296 ) LENGTH_UNIT ( ) NAMED_UNIT ( #238 ) );
#65 = CIRCLE ( 'NONE', #159, 0.1181100000000000066 ) ;
#66 = VERTEX_POINT ( 'NONE', #286 ) ;
#67 = CARTESIAN_POINT ( 'NONE',  ( 0.0000000000000000000, 0.0000000000000000000, 0.03937000000000000222 ) ) ;
#68 = ORIENTED_EDGE ( 'NONE', *, *, #225, .F. ) ;
#69 = DIRECTION ( 'NONE',  ( -1.000000000000000000, 0.0000000000000000000, 0.0000000000000000000 ) ) ;
#70 = UNCERTAINTY_MEASURE_WITH_UNIT (LENGTH_MEASURE( 1.000000000000000082E-05 ), #64, 'distance_accuracy_value', 'NONE');
#71 = CARTESIAN_POINT ( 'NONE',  ( 0.01870100000000001622, 2.290211979085467258E-18, 0.0000000000000000000 ) ) ;
#72 = CARTESIAN_POINT ( 'NONE',  ( 0.0000000000000000000, 0.0000000000000000000, 2.229093999999999465 ) ) ;
#73 = PRODUCT_RELATED_PRODUCT_CATEGORY ( 'part', '', ( #12 ) ) ;
#74 = DIRECTION ( 'NONE',  ( 0.0000000000000000000, 0.0000000000000000000, 1.000000000000000000 ) ) ;
#75 = ORIENTED_EDGE ( 'NONE', *, *, #299, .T. ) ;
#76 = APPLICATION_PROTOCOL_DEFINITION ( 'draft international standard', 'automotive_design', 1998, #185 ) ;
#77 = CARTESIAN_POINT ( 'NONE',  ( 0.01968303149999999294, 2.410476152399151743E-18, 0.0000000000000000000 ) ) ;
#78 = MANIFOLD_SOLID_BREP ( 'Cut-Revolve1', #35 ) ;
#79 = CIRCLE ( 'NONE', #314, 0.01968303149999999294 ) ;
#80 = EDGE_CURVE ( 'NONE', #278, #215, #167, .T. ) ;
#81 = DIRECTION ( 'NONE',  ( -0.0000000000000000000, -0.0000000000000000000, -1.000000000000000000 ) ) ;
#82 = FACE_OUTER_BOUND ( 'NONE', #38, .T. ) ;
#83 = DIRECTION ( 'NONE',  ( 1.000000000000000000, 0.0000000000000000000, 0.0000000000000000000 ) ) ;
#84 = VECTOR ( 'NONE', #259, 39.37007874015748854 ) ;
#85 = APPLICATION_CONTEXT ( 'automotive_design' ) ;
#86 = CARTESIAN_POINT ( 'NONE',  ( 0.1031100000000002570, 1.262733314600838667E-17, 2.244094000000000033 ) ) ;
#87 = FACE_OUTER_BOUND ( 'NONE', #332, .T. ) ;
#88 =( NAMED_UNIT ( * ) PLANE_ANGLE_UNIT ( ) SI_UNIT ( $, .RADIAN. ) );
#89 = AXIS2_PLACEMENT_3D ( 'NONE', #72, #195, #284 ) ;
#90 = ORIENTED_EDGE ( 'NONE', *, *, #262, .T. ) ;
#91 = CARTESIAN_POINT ( 'NONE',  ( 0.01968303149999999294, 2.410476152399151743E-18, 0.03937000000000000222 ) ) ;
#92 = VERTEX_POINT ( 'NONE', #77 ) ;
#93 = DIRECTION ( 'NONE',  ( -0.0000000000000000000, -0.0000000000000000000, -1.000000000000000000 ) ) ;
#94 = ORIENTED_EDGE ( 'NONE', *, *, #310, .F. ) ;
#95 = EDGE_CURVE ( 'NONE', #242, #330, #210, .T. ) ;
#96 = AXIS2_PLACEMENT_3D ( 'NONE', #209, #327, #58 ) ;
#97 = EDGE_LOOP ( 'NONE', ( #179, #9, #318, #346 ) ) ;
#98 = ORIENTED_EDGE ( 'NONE', *, *, #2, .F. ) ;
#99 = PRESENTATION_STYLE_ASSIGNMENT (( #128 ) ) ;
#100 = PRODUCT_DEFINITION ( 'UNKNOWN', '', #322, #168 ) ;
#101 = EDGE_CURVE ( 'NONE', #245, #196, #313, .T. ) ;
#102 = AXIS2_PLACEMENT_3D ( 'NONE', #137, #208, #321 ) ;
#103 = DIRECTION ( 'NONE',  ( -0.0000000000000000000, -0.0000000000000000000, -1.000000000000000000 ) ) ;
#104 = SHAPE_DEFINITION_REPRESENTATION ( #136, #114 ) ;
#105 = DIRECTION ( 'NONE',  ( -1.000000000000000000, 0.0000000000000000000, 0.0000000000000000000 ) ) ;
#106 = CONICAL_SURFACE ( 'NONE', #252, 0.1031100000000002570, 0.7853981633974318477 ) ;
#107 = FACE_OUTER_BOUND ( 'NONE', #133, .T. ) ;
#108 = LINE ( 'NONE', #234, #84 ) ;
#109 = ADVANCED_FACE ( 'NONE', ( #283 ), #197, .T. ) ;
#110 = CARTESIAN_POINT ( 'NONE',  ( -0.01968303149999999294, 0.0000000000000000000, 0.03937000000000000222 ) ) ;
#111 = AXIS2_PLACEMENT_3D ( 'NONE', #329, #300, #216 ) ;
#112 = DIRECTION ( 'NONE',  ( -0.0000000000000000000, -0.0000000000000000000, -1.000000000000000000 ) ) ;
#113 = CYLINDRICAL_SURFACE ( 'NONE', #192, 0.01870100000000001622 ) ;
#114 = ADVANCED_BREP_SHAPE_REPRESENTATION ( 'Micro_MMBM-010-6X', ( #78, #338 ), #222 ) ;
#115 = EDGE_CURVE ( 'NONE', #269, #92, #204, .T. ) ;
#116 = APPLICATION_PROTOCOL_DEFINITION ( 'draft international standard', 'automotive_design', 1998, #85 ) ;
#117 = VERTEX_POINT ( 'NONE', #129 ) ;
#118 = ADVANCED_FACE ( 'NONE', ( #365 ), #223, .T. ) ;
#119 = PRESENTATION_LAYER_ASSIGNMENT (  '', '', ( #308 ) ) ;
#120 = ORIENTED_EDGE ( 'NONE', *, *, #354, .T. ) ;
#121 = CARTESIAN_POINT ( 'NONE',  ( 0.0000000000000000000, 0.0000000000000000000, 0.03937000000000000222 ) ) ;
#122 = ORIENTED_EDGE ( 'NONE', *, *, #183, .T. ) ;
#123 = CARTESIAN_POINT ( 'NONE',  ( 0.0000000000000000000, 0.0000000000000000000, 0.2362199999999999300 ) ) ;
#124 = EDGE_LOOP ( 'NONE', ( #227, #182 ) ) ;
#125 = AXIS2_PLACEMENT_3D ( 'NONE', #348, #237, #373 ) ;
#126 = ORIENTED_EDGE ( 'NONE', *, *, #4, .F. ) ;
#127 = FACE_OUTER_BOUND ( 'NONE', #151, .T. ) ;
#128 = SURFACE_STYLE_USAGE ( .BOTH. , #282 ) ;
#129 = CARTESIAN_POINT ( 'NONE',  ( 0.1181100000000000066, 1.446430334472939084E-17, 2.229093999999999465 ) ) ;
#130 =( LENGTH_UNIT ( ) NAMED_UNIT ( * ) SI_UNIT ( $, .METRE. ) );
#131 = SURFACE_SIDE_STYLE ('',( #254 ) ) ;
#132 = CIRCLE ( 'NONE', #198, 0.01968303149999999294 ) ;
#133 = EDGE_LOOP ( 'NONE', ( #248, #75, #188, #68 ) ) ;
#134 = CARTESIAN_POINT ( 'NONE',  ( 0.0000000000000000000, 0.0000000000000000000, 0.2362199999999999300 ) ) ;
#135 = FILL_AREA_STYLE ('',( #161 ) ) ;
#136 = PRODUCT_DEFINITION_SHAPE ( 'NONE', 'NONE',  #100 ) ;
#137 = CARTESIAN_POINT ( 'NONE',  ( 0.0000000000000000000, 0.0000000000000000000, 0.0000000000000000000 ) ) ;
#138 = AXIS2_PLACEMENT_3D ( 'NONE', #24, #28, #51 ) ;
#139 = CARTESIAN_POINT ( 'NONE',  ( 0.0000000000000000000, 0.0000000000000000000, 2.229093999999999465 ) ) ;
#140 = EDGE_CURVE ( 'NONE', #92, #269, #132, .T. ) ;
#141 = CARTESIAN_POINT ( 'NONE',  ( 0.1181100000000000066, 1.446430334472939084E-17, 0.2362199999999999300 ) ) ;
#142 = DIRECTION ( 'NONE',  ( -1.000000000000000000, 0.0000000000000000000, 0.0000000000000000000 ) ) ;
#143 = AXIS2_PLACEMENT_3D ( 'NONE', #46, #315, #287 ) ;
#144 = CYLINDRICAL_SURFACE ( 'NONE', #44, 0.1181100000000000066 ) ;
#145 = DIRECTION ( 'NONE',  ( -1.000000000000000000, 0.0000000000000000000, 0.0000000000000000000 ) ) ;
#146 = ORIENTED_EDGE ( 'NONE', *, *, #101, .T. ) ;
#147 = FILL_AREA_STYLE_COLOUR ( '', #285 ) ;
#148 = VECTOR ( 'NONE', #18, 39.37007874015748143 ) ;
#149 = CIRCLE ( 'NONE', #20, 0.01968303149999999294 ) ;
#150 = DIRECTION ( 'NONE',  ( -0.0000000000000000000, -0.0000000000000000000, -1.000000000000000000 ) ) ;
#151 = EDGE_LOOP ( 'NONE', ( #358, #272 ) ) ;
#152 = EDGE_CURVE ( 'NONE', #3, #117, #184, .T. ) ;
#153 = CARTESIAN_POINT ( 'NONE',  ( 0.0000000000000000000, 0.0000000000000000000, 2.244094000000000033 ) ) ;
#154 = ORIENTED_EDGE ( 'NONE', *, *, #347, .T. ) ;
#155 = DIRECTION ( 'NONE',  ( 0.0000000000000000000, 0.0000000000000000000, -1.000000000000000000 ) ) ;
#156 = CARTESIAN_POINT ( 'NONE',  ( -0.01870100000000001622, 0.0000000000000000000, 0.0000000000000000000 ) ) ;
#157 = CIRCLE ( 'NONE', #177, 0.01870100000000002663 ) ;
#158 = MECHANICAL_DESIGN_GEOMETRIC_PRESENTATION_REPRESENTATION (  '', ( #308 ), #290 ) ;
#159 = AXIS2_PLACEMENT_3D ( 'NONE', #123, #93, #145 ) ;
#160 =( LENGTH_UNIT ( ) NAMED_UNIT ( * ) SI_UNIT ( $, .METRE. ) );
#161 = FILL_AREA_STYLE_COLOUR ( '', #57 ) ;
#162 = PRODUCT_CONTEXT ( 'NONE', #85, 'mechanical' ) ;
#163 = DIRECTION ( 'NONE',  ( 0.0000000000000000000, 0.0000000000000000000, 1.000000000000000000 ) ) ;
#164 = PRESENTATION_LAYER_ASSIGNMENT (  '', '', ( #6 ) ) ;
#165 = ORIENTED_EDGE ( 'NONE', *, *, #320, .T. ) ;
#166 =( NAMED_UNIT ( * ) PLANE_ANGLE_UNIT ( ) SI_UNIT ( $, .RADIAN. ) );
#167 = LINE ( 'NONE', #71, #148 ) ;
#168 = PRODUCT_DEFINITION_CONTEXT ( 'detailed design', #185, 'design' ) ;
#169 = FACE_OUTER_BOUND ( 'NONE', #97, .T. ) ;
#170 = CARTESIAN_POINT ( 'NONE',  ( -0.1181100000000000066, 0.0000000000000000000, 2.244094000000000033 ) ) ;
#171 = ADVANCED_FACE ( 'NONE', ( #191 ), #29, .T. ) ;
#172 = CARTESIAN_POINT ( 'NONE',  ( -0.01870100000000000581, 0.0000000000000000000, 0.04493937739224183880 ) ) ;
#173 = CYLINDRICAL_SURFACE ( 'NONE', #102, 0.01968303149999999294 ) ;
#174 = EDGE_CURVE ( 'NONE', #117, #3, #236, .T. ) ;
#175 = LINE ( 'NONE', #170, #379 ) ;
#176 = ORIENTED_EDGE ( 'NONE', *, *, #140, .F. ) ;
#177 = AXIS2_PLACEMENT_3D ( 'NONE', #297, #43, #229 ) ;
#178 =( LENGTH_UNIT ( ) NAMED_UNIT ( * ) SI_UNIT ( $, .METRE. ) );
#179 = ORIENTED_EDGE ( 'NONE', *, *, #277, .T. ) ;
#180 = DIRECTION ( 'NONE',  ( -1.000000000000000000, 0.0000000000000000000, 0.0000000000000000000 ) ) ;
#181 = ORIENTED_EDGE ( 'NONE', *, *, #95, .F. ) ;
#182 = ORIENTED_EDGE ( 'NONE', *, *, #95, .T. ) ;
#183 = EDGE_CURVE ( 'NONE', #312, #219, #79, .T. ) ;
#184 = CIRCLE ( 'NONE', #89, 0.1181100000000000066 ) ;
#185 = APPLICATION_CONTEXT ( 'automotive_design' ) ;
#186 = ORIENTED_EDGE ( 'NONE', *, *, #354, .F. ) ;
#187 = DIRECTION ( 'NONE',  ( -0.0000000000000000000, -0.0000000000000000000, -1.000000000000000000 ) ) ;
#188 = ORIENTED_EDGE ( 'NONE', *, *, #101, .F. ) ;
#189 = DIRECTION ( 'NONE',  ( 1.000000000000000000, 0.0000000000000000000, 0.0000000000000000000 ) ) ;
#190 = ADVANCED_FACE ( 'NONE', ( #316, #375 ), #55, .T. ) ;
#191 = FACE_OUTER_BOUND ( 'NONE', #304, .T. ) ;
#192 = AXIS2_PLACEMENT_3D ( 'NONE', #345, #81, #305 ) ;
#193 = DIRECTION ( 'NONE',  ( 1.000000000000000000, 0.0000000000000000000, 0.0000000000000000000 ) ) ;
#194 = ADVANCED_FACE ( 'NONE', ( #169 ), #173, .T. ) ;
#195 = DIRECTION ( 'NONE',  ( 0.0000000000000000000, 0.0000000000000000000, -1.000000000000000000 ) ) ;
#196 = VERTEX_POINT ( 'NONE', #141 ) ;
#197 = PLANE ( 'NONE',  #143 ) ;
#198 = AXIS2_PLACEMENT_3D ( 'NONE', #339, #340, #69 ) ;
#199 = VECTOR ( 'NONE', #1, 39.37007874015748143 ) ;
#200 = DIRECTION ( 'NONE',  ( -1.000000000000000000, 0.0000000000000000000, 0.0000000000000000000 ) ) ;
#201 = EDGE_CURVE ( 'NONE', #215, #312, #108, .T. ) ;
#202 = DIRECTION ( 'NONE',  ( -1.000000000000000000, 0.0000000000000000000, 0.0000000000000000000 ) ) ;
#203 = DIRECTION ( 'NONE',  ( -0.0000000000000000000, -0.0000000000000000000, -1.000000000000000000 ) ) ;
#204 = CIRCLE ( 'NONE', #37, 0.01968303149999999294 ) ;
#205 = EDGE_CURVE ( 'NONE', #219, #269, #25, .T. ) ;
#206 = VECTOR ( 'NONE', #214, 39.37007874015748143 ) ;
#207 = DIRECTION ( 'NONE',  ( 0.7071067811865358044, 8.659560562354788645E-17, -0.7071067811865590080 ) ) ;
#208 = DIRECTION ( 'NONE',  ( -0.0000000000000000000, -0.0000000000000000000, -1.000000000000000000 ) ) ;
#209 = CARTESIAN_POINT ( 'NONE',  ( 0.0000000000000000000, 0.0000000000000000000, 0.2362200000000000688 ) ) ;
#210 = CIRCLE ( 'NONE', #258, 0.1031100000000002570 ) ;
#211 = DIRECTION ( 'NONE',  ( -1.000000000000000000, 0.0000000000000000000, 0.0000000000000000000 ) ) ;
#212 = EDGE_CURVE ( 'NONE', #330, #242, #344, .T. ) ;
#213 = ORIENTED_EDGE ( 'NONE', *, *, #80, .T. ) ;
#214 = DIRECTION ( 'NONE',  ( -0.0000000000000000000, -0.0000000000000000000, -1.000000000000000000 ) ) ;
#215 = VERTEX_POINT ( 'NONE', #54 ) ;
#216 = DIRECTION ( 'NONE',  ( -1.000000000000000000, 0.0000000000000000000, 0.0000000000000000000 ) ) ;
#217 = ORIENTED_EDGE ( 'NONE', *, *, #174, .T. ) ;
#218 = CONICAL_SURFACE ( 'NONE', #16, 0.1031100000000002570, 0.7853981633974318477 ) ;
#219 = VERTEX_POINT ( 'NONE', #110 ) ;
#220 = ORIENTED_EDGE ( 'NONE', *, *, #277, .F. ) ;
#221 =( NAMED_UNIT ( * ) SI_UNIT ( $, .STERADIAN. ) SOLID_ANGLE_UNIT ( ) );
#222 =( GEOMETRIC_REPRESENTATION_CONTEXT ( 3 ) GLOBAL_UNCERTAINTY_ASSIGNED_CONTEXT ( ( #70 ) ) GLOBAL_UNIT_ASSIGNED_CONTEXT ( ( #64, #88, #31 ) ) REPRESENTATION_CONTEXT ( 'NONE', 'WORKASPACE' ) );
#223 = CYLINDRICAL_SURFACE ( 'NONE', #350, 0.01870100000000001622 ) ;
#224 = CARTESIAN_POINT ( 'NONE',  ( 0.0000000000000000000, 0.0000000000000000000, 0.0000000000000000000 ) ) ;
#225 = EDGE_CURVE ( 'NONE', #3, #245, #175, .T. ) ;
#226 = EDGE_CURVE ( 'NONE', #330, #3, #351, .T. ) ;
#227 = ORIENTED_EDGE ( 'NONE', *, *, #212, .T. ) ;
#228 = LENGTH_MEASURE_WITH_UNIT ( LENGTH_MEASURE( 0.02539999999999999897 ), #130 );
#229 = DIRECTION ( 'NONE',  ( -1.000000000000000000, 0.0000000000000000000, 0.0000000000000000000 ) ) ;
#230 = DIRECTION ( 'NONE',  ( -1.000000000000000000, 0.0000000000000000000, 0.0000000000000000000 ) ) ;
#231 = VECTOR ( 'NONE', #289, 39.37007874015748854 ) ;
#232 = EDGE_LOOP ( 'NONE', ( #32, #217, #14, #186 ) ) ;
#233 = CARTESIAN_POINT ( 'NONE',  ( 0.0000000000000000000, 0.0000000000000000000, 0.03937000000000000222 ) ) ;
#234 = CARTESIAN_POINT ( 'NONE',  ( 0.01968303149999999294, 2.410476152399151743E-18, 0.03937000000000000222 ) ) ;
#235 = LINE ( 'NONE', #86, #7 ) ;
#236 = CIRCLE ( 'NONE', #247, 0.1181100000000000066 ) ;
#237 = DIRECTION ( 'NONE',  ( -0.0000000000000000000, -0.0000000000000000000, -1.000000000000000000 ) ) ;
#238 = DIMENSIONAL_EXPONENTS ( 1.000000000000000000, 0.0000000000000000000, 0.0000000000000000000, 0.0000000000000000000, 0.0000000000000000000, 0.0000000000000000000, 0.0000000000000000000 ) ;
#239 = VERTEX_POINT ( 'NONE', #172 ) ;
#240 = CONICAL_SURFACE ( 'NONE', #59, 0.01968303149999999294, 0.1745329251994327535 ) ;
#241 = FILL_AREA_STYLE ('',( #147 ) ) ;
#242 = VERTEX_POINT ( 'NONE', #26 ) ;
#243 = FACE_OUTER_BOUND ( 'NONE', #232, .T. ) ;
#244 = EDGE_CURVE ( 'NONE', #215, #239, #295, .T. ) ;
#245 = VERTEX_POINT ( 'NONE', #293 ) ;
#246 = ORIENTED_EDGE ( 'NONE', *, *, #205, .T. ) ;
#247 = AXIS2_PLACEMENT_3D ( 'NONE', #139, #288, #319 ) ;
#248 = ORIENTED_EDGE ( 'NONE', *, *, #152, .T. ) ;
#249 = SURFACE_STYLE_USAGE ( .BOTH. , #131 ) ;
#250 =( CONVERSION_BASED_UNIT ( 'INCH', #228 ) LENGTH_UNIT ( ) NAMED_UNIT ( #355 ) );
#251 = ADVANCED_FACE ( 'NONE', ( #107 ), #144, .T. ) ;
#252 = AXIS2_PLACEMENT_3D ( 'NONE', #153, #155, #180 ) ;
#253 = DIRECTION ( 'NONE',  ( 0.0000000000000000000, 0.0000000000000000000, 1.000000000000000000 ) ) ;
#254 = SURFACE_STYLE_FILL_AREA ( #135 ) ;
#255 = ADVANCED_FACE ( 'NONE', ( #82 ), #263, .T. ) ;
#256 = ORIENTED_EDGE ( 'NONE', *, *, #2, .T. ) ;
#257 = CARTESIAN_POINT ( 'NONE',  ( 0.0000000000000000000, 0.0000000000000000000, 0.0000000000000000000 ) ) ;
#258 = AXIS2_PLACEMENT_3D ( 'NONE', #281, #163, #193 ) ;
#259 = DIRECTION ( 'NONE',  ( 0.1736481776669301647, 2.126576849575769450E-17, -0.9848077530122080203 ) ) ;
#260 = CIRCLE ( 'NONE', #96, 0.01870100000000002663 ) ;
#261 = CARTESIAN_POINT ( 'NONE',  ( -0.1031100000000002570, 0.0000000000000000000, 2.244094000000000033 ) ) ;
#262 = EDGE_CURVE ( 'NONE', #242, #117, #235, .T. ) ;
#263 = CYLINDRICAL_SURFACE ( 'NONE', #333, 0.01968303149999999294 ) ;
#264 = DIRECTION ( 'NONE',  ( -1.000000000000000000, 0.0000000000000000000, 0.0000000000000000000 ) ) ;
#265 = CIRCLE ( 'NONE', #111, 0.01870100000000000581 ) ;
#266 = DIMENSIONAL_EXPONENTS ( 1.000000000000000000, 0.0000000000000000000, 0.0000000000000000000, 0.0000000000000000000, 0.0000000000000000000, 0.0000000000000000000, 0.0000000000000000000 ) ;
#267 = CARTESIAN_POINT ( 'NONE',  ( 0.0000000000000000000, 0.0000000000000000000, 2.244094000000000033 ) ) ;
#268 = ORIENTED_EDGE ( 'NONE', *, *, #262, .F. ) ;
#269 = VERTEX_POINT ( 'NONE', #323 ) ;
#270 = ADVANCED_FACE ( 'NONE', ( #87 ), #218, .T. ) ;
#271 = CARTESIAN_POINT ( 'NONE',  ( 0.1181100000000000066, 1.446430334472939084E-17, 2.244094000000000033 ) ) ;
#272 = ORIENTED_EDGE ( 'NONE', *, *, #140, .T. ) ;
#273 = ADVANCED_FACE ( 'NONE', ( #324 ), #113, .T. ) ;
#274 = DIRECTION ( 'NONE',  ( -0.0000000000000000000, -0.0000000000000000000, -1.000000000000000000 ) ) ;
#275 = ORIENTED_EDGE ( 'NONE', *, *, #80, .F. ) ;
#276 = FACE_OUTER_BOUND ( 'NONE', #33, .T. ) ;
#277 = EDGE_CURVE ( 'NONE', #219, #312, #149, .T. ) ;
#278 = VERTEX_POINT ( 'NONE', #41 ) ;
#279 = LINE ( 'NONE', #13, #367 ) ;
#280 = ORIENTED_EDGE ( 'NONE', *, *, #183, .F. ) ;
#281 = CARTESIAN_POINT ( 'NONE',  ( 0.0000000000000000000, 0.0000000000000000000, 2.244094000000000033 ) ) ;
#282 = SURFACE_SIDE_STYLE ('',( #357 ) ) ;
#283 = FACE_OUTER_BOUND ( 'NONE', #124, .T. ) ;
#284 = DIRECTION ( 'NONE',  ( 1.000000000000000000, 0.0000000000000000000, 0.0000000000000000000 ) ) ;
#285 = COLOUR_RGB ( '',0.7921568627450980005, 0.8196078431372548767, 0.9333333333333333481 ) ;
#286 = CARTESIAN_POINT ( 'NONE',  ( -0.01870100000000002663, 0.0000000000000000000, 0.2362200000000000688 ) ) ;
#287 = DIRECTION ( 'NONE',  ( 1.000000000000000000, 0.0000000000000000000, -0.0000000000000000000 ) ) ;
#288 = DIRECTION ( 'NONE',  ( 0.0000000000000000000, 0.0000000000000000000, -1.000000000000000000 ) ) ;
#289 = DIRECTION ( 'NONE',  ( -0.7071067811865358044, 0.0000000000000000000, -0.7071067811865590080 ) ) ;
#290 =( GEOMETRIC_REPRESENTATION_CONTEXT ( 3 ) GLOBAL_UNCERTAINTY_ASSIGNED_CONTEXT ( ( #368 ) ) GLOBAL_UNIT_ASSIGNED_CONTEXT ( ( #250, #166, #49 ) ) REPRESENTATION_CONTEXT ( 'NONE', 'WORKASPACE' ) );
#291 = DIRECTION ( 'NONE',  ( -0.0000000000000000000, -0.0000000000000000000, -1.000000000000000000 ) ) ;
#292 = CARTESIAN_POINT ( 'NONE',  ( 0.0000000000000000000, 0.0000000000000000000, 2.244094000000000033 ) ) ;
#293 = CARTESIAN_POINT ( 'NONE',  ( -0.1181100000000000066, 0.0000000000000000000, 0.2362199999999999300 ) ) ;
#294 = EDGE_LOOP ( 'NONE', ( #126, #342 ) ) ;
#295 = CIRCLE ( 'NONE', #125, 0.01870100000000000581 ) ;
#296 = LENGTH_MEASURE_WITH_UNIT ( LENGTH_MEASURE( 0.02539999999999999897 ), #178 );
#297 = CARTESIAN_POINT ( 'NONE',  ( 0.0000000000000000000, 0.0000000000000000000, 0.2362200000000000688 ) ) ;
#298 = ORIENTED_EDGE ( 'NONE', *, *, #4, .T. ) ;
#299 = EDGE_CURVE ( 'NONE', #117, #196, #10, .T. ) ;
#300 = DIRECTION ( 'NONE',  ( -0.0000000000000000000, -0.0000000000000000000, -1.000000000000000000 ) ) ;
#301 = ORIENTED_EDGE ( 'NONE', *, *, #212, .F. ) ;
#302 = AXIS2_PLACEMENT_3D ( 'NONE', #52, #349, #83 ) ;
#303 = CARTESIAN_POINT ( 'NONE',  ( -0.01968303149999999294, 0.0000000000000000000, 0.03937000000000000222 ) ) ;
#304 = EDGE_LOOP ( 'NONE', ( #371, #47, #11, #280 ) ) ;
#305 = DIRECTION ( 'NONE',  ( -1.000000000000000000, 0.0000000000000000000, 0.0000000000000000000 ) ) ;
#306 = ORIENTED_EDGE ( 'NONE', *, *, #226, .T. ) ;
#307 = DIRECTION ( 'NONE',  ( -0.0000000000000000000, -0.0000000000000000000, -1.000000000000000000 ) ) ;
#308 = STYLED_ITEM ( 'NONE', ( #99 ), #114 ) ;
#309 = DIRECTION ( 'NONE',  ( -0.0000000000000000000, -0.0000000000000000000, -1.000000000000000000 ) ) ;
#310 = EDGE_CURVE ( 'NONE', #239, #219, #39, .T. ) ;
#311 = CARTESIAN_POINT ( 'NONE',  ( 0.0000000000000000000, 0.0000000000000000000, 0.0000000000000000000 ) ) ;
#312 = VERTEX_POINT ( 'NONE', #91 ) ;
#313 = CIRCLE ( 'NONE', #366, 0.1181100000000000066 ) ;
#314 = AXIS2_PLACEMENT_3D ( 'NONE', #233, #112, #200 ) ;
#315 = DIRECTION ( 'NONE',  ( 0.0000000000000000000, 0.0000000000000000000, 1.000000000000000000 ) ) ;
#316 = FACE_BOUND ( 'NONE', #294, .T. ) ;
#317 = ADVANCED_FACE ( 'NONE', ( #5 ), #240, .T. ) ;
#318 = ORIENTED_EDGE ( 'NONE', *, *, #115, .F. ) ;
#319 = DIRECTION ( 'NONE',  ( 1.000000000000000000, 0.0000000000000000000, 0.0000000000000000000 ) ) ;
#320 = EDGE_CURVE ( 'NONE', #278, #66, #260, .T. ) ;
#321 = DIRECTION ( 'NONE',  ( -1.000000000000000000, 0.0000000000000000000, 0.0000000000000000000 ) ) ;
#322 = PRODUCT_DEFINITION_FORMATION_WITH_SPECIFIED_SOURCE ( 'ANY', '', #12, .NOT_KNOWN. ) ;
#323 = CARTESIAN_POINT ( 'NONE',  ( -0.01968303149999999294, 0.0000000000000000000, 0.0000000000000000000 ) ) ;
#324 = FACE_OUTER_BOUND ( 'NONE', #30, .T. ) ;
#325 = DIRECTION ( 'NONE',  ( -1.000000000000000000, 0.0000000000000000000, 0.0000000000000000000 ) ) ;
#326 = AXIS2_PLACEMENT_3D ( 'NONE', #62, #36, #331 ) ;
#327 = DIRECTION ( 'NONE',  ( -0.0000000000000000000, -0.0000000000000000000, -1.000000000000000000 ) ) ;
#328 = DIRECTION ( 'NONE',  ( -0.0000000000000000000, -0.0000000000000000000, -1.000000000000000000 ) ) ;
#329 = CARTESIAN_POINT ( 'NONE',  ( 0.0000000000000000000, 0.0000000000000000000, 0.04493937739224183880 ) ) ;
#330 = VERTEX_POINT ( 'NONE', #60 ) ;
#331 = DIRECTION ( 'NONE',  ( -1.000000000000000000, 0.0000000000000000000, 0.0000000000000000000 ) ) ;
#332 = EDGE_LOOP ( 'NONE', ( #181, #90, #63, #361 ) ) ;
#333 = AXIS2_PLACEMENT_3D ( 'NONE', #353, #376, #202 ) ;
#334 = DIRECTION ( 'NONE',  ( -0.1736481776669301647, 0.0000000000000000000, -0.9848077530122080203 ) ) ;
#335 = ORIENTED_EDGE ( 'NONE', *, *, #347, .F. ) ;
#336 = CARTESIAN_POINT ( 'NONE',  ( -0.1181100000000000066, 0.0000000000000000000, 2.229093999999999465 ) ) ;
#337 = ADVANCED_FACE ( 'NONE', ( #276 ), #106, .T. ) ;
#338 = AXIS2_PLACEMENT_3D ( 'NONE', #343, #253, #189 ) ;
#339 = CARTESIAN_POINT ( 'NONE',  ( 0.0000000000000000000, 0.0000000000000000000, 0.0000000000000000000 ) ) ;
#340 = DIRECTION ( 'NONE',  ( -0.0000000000000000000, -0.0000000000000000000, -1.000000000000000000 ) ) ;
#341 = EDGE_CURVE ( 'NONE', #312, #92, #279, .T. ) ;
#342 = ORIENTED_EDGE ( 'NONE', *, *, #320, .F. ) ;
#343 = CARTESIAN_POINT ( 'NONE',  ( 0.0000000000000000000, 0.0000000000000000000, 0.0000000000000000000 ) ) ;
#344 = CIRCLE ( 'NONE', #302, 0.1031100000000002570 ) ;
#345 = CARTESIAN_POINT ( 'NONE',  ( 0.0000000000000000000, 0.0000000000000000000, 0.0000000000000000000 ) ) ;
#346 = ORIENTED_EDGE ( 'NONE', *, *, #205, .F. ) ;
#347 = EDGE_CURVE ( 'NONE', #239, #215, #265, .T. ) ;
#348 = CARTESIAN_POINT ( 'NONE',  ( 0.0000000000000000000, 0.0000000000000000000, 0.04493937739224183880 ) ) ;
#349 = DIRECTION ( 'NONE',  ( 0.0000000000000000000, 0.0000000000000000000, 1.000000000000000000 ) ) ;
#350 = AXIS2_PLACEMENT_3D ( 'NONE', #224, #50, #230 ) ;
#351 = LINE ( 'NONE', #261, #231 ) ;
#352 = ADVANCED_FACE ( 'NONE', ( #243 ), #359, .T. ) ;
#353 = CARTESIAN_POINT ( 'NONE',  ( 0.0000000000000000000, 0.0000000000000000000, 0.0000000000000000000 ) ) ;
#354 = EDGE_CURVE ( 'NONE', #196, #245, #65, .T. ) ;
#355 = DIMENSIONAL_EXPONENTS ( 1.000000000000000000, 0.0000000000000000000, 0.0000000000000000000, 0.0000000000000000000, 0.0000000000000000000, 0.0000000000000000000, 0.0000000000000000000 ) ;
#356 = ORIENTED_EDGE ( 'NONE', *, *, #174, .F. ) ;
#357 = SURFACE_STYLE_FILL_AREA ( #241 ) ;
#358 = ORIENTED_EDGE ( 'NONE', *, *, #115, .T. ) ;
#359 = CYLINDRICAL_SURFACE ( 'NONE', #326, 0.1181100000000000066 ) ;
#360 = EDGE_LOOP ( 'NONE', ( #298, #213, #335, #98 ) ) ;
#361 = ORIENTED_EDGE ( 'NONE', *, *, #226, .F. ) ;
#362 = AXIS2_PLACEMENT_3D ( 'NONE', #19, #307, #56 ) ;
#363 = EDGE_LOOP ( 'NONE', ( #154, #61, #220, #94 ) ) ;
#364 =( NAMED_UNIT ( * ) PLANE_ANGLE_UNIT ( ) SI_UNIT ( $, .RADIAN. ) );
#365 = FACE_OUTER_BOUND ( 'NONE', #360, .T. ) ;
#366 = AXIS2_PLACEMENT_3D ( 'NONE', #134, #309, #21 ) ;
#367 = VECTOR ( 'NONE', #274, 39.37007874015748143 ) ;
#368 = UNCERTAINTY_MEASURE_WITH_UNIT (LENGTH_MEASURE( 1.000000000000000082E-05 ), #250, 'distance_accuracy_value', 'NONE');
#369 = DIRECTION ( 'NONE',  ( 1.000000000000000000, 0.0000000000000000000, -0.0000000000000000000 ) ) ;
#370 = PRESENTATION_STYLE_ASSIGNMENT (( #249 ) ) ;
#371 = ORIENTED_EDGE ( 'NONE', *, *, #201, .F. ) ;
#372 =( GEOMETRIC_REPRESENTATION_CONTEXT ( 3 ) GLOBAL_UNCERTAINTY_ASSIGNED_CONTEXT ( ( #374 ) ) GLOBAL_UNIT_ASSIGNED_CONTEXT ( ( #22, #364, #221 ) ) REPRESENTATION_CONTEXT ( 'NONE', 'WORKASPACE' ) );
#373 = DIRECTION ( 'NONE',  ( -1.000000000000000000, 0.0000000000000000000, 0.0000000000000000000 ) ) ;
#374 = UNCERTAINTY_MEASURE_WITH_UNIT (LENGTH_MEASURE( 1.000000000000000082E-05 ), #22, 'distance_accuracy_value', 'NONE');
#375 = FACE_OUTER_BOUND ( 'NONE', #23, .T. ) ;
#376 = DIRECTION ( 'NONE',  ( -0.0000000000000000000, -0.0000000000000000000, -1.000000000000000000 ) ) ;
#377 = VECTOR ( 'NONE', #328, 39.37007874015748143 ) ;
#378 = CARTESIAN_POINT ( 'NONE',  ( -0.01968303149999999294, 0.0000000000000000000, 0.0000000000000000000 ) ) ;
#379 = VECTOR ( 'NONE', #291, 39.37007874015748143 ) ;
ENDSEC;
END-ISO-10303-21;
