ISO-10303-21;
HEADER;
FILE_DESCRIPTION (( 'STEP AP214' ),
    '1' );
FILE_NAME ('59619.STEP',
    '2023-07-24T15:16:00',
    ( '' ),
    ( '' ),
    'SwSTEP 2.0',
    'SolidWorks 2023',
    '' );
FILE_SCHEMA (( 'AUTOMOTIVE_DESIGN' ));
ENDSEC;

DATA;
#1 = CARTESIAN_POINT ( 'NONE',  ( 0.000000000000000000, 40.00000000000000000, -8.000000000000000000 ) ) ;
#2 = ADVANCED_FACE ( 'NONE', ( #302 ), #300, .T. ) ;
#3 = MECHANICAL_DESIGN_GEOMETRIC_PRESENTATION_REPRESENTATION (  '', ( #152 ), #238 ) ;
#4 = CARTESIAN_POINT ( 'NONE',  ( 9.491012693391985815E-16, 0.000000000000000000, 7.500000000000000000 ) ) ;
#5 = DIRECTION ( 'NONE',  ( -0.000000000000000000, -1.000000000000000000, -0.000000000000000000 ) ) ;
#6 = AXIS2_PLACEMENT_3D ( 'NONE', #331, #297, #137 ) ;
#7 =( NAMED_UNIT ( * ) SI_UNIT ( $, .STERADIAN. ) SOLID_ANGLE_UNIT ( ) );
#8 = CIRCLE ( 'NONE', #257, 7.500000000000000000 ) ;
#9 = CARTESIAN_POINT ( 'NONE',  ( 9.184850993605147944E-16, 0.5000000000000000000, 7.500000000000000000 ) ) ;
#10 = PRESENTATION_LAYER_ASSIGNMENT (  '', '', ( #184 ) ) ;
#11 = EDGE_CURVE ( 'NONE', #136, #352, #157, .T. ) ;
#12 = UNCERTAINTY_MEASURE_WITH_UNIT (LENGTH_MEASURE( 1.000000000000000082E-05 ), #180, 'distance_accuracy_value', 'NONE');
#13 = DIRECTION ( 'NONE',  ( 0.000000000000000000, 0.000000000000000000, 1.000000000000000000 ) ) ;
#14 = FILL_AREA_STYLE_COLOUR ( '', #258 ) ;
#15 = DIRECTION ( 'NONE',  ( -0.000000000000000000, -1.000000000000000000, -0.000000000000000000 ) ) ;
#16 = CARTESIAN_POINT ( 'NONE',  ( 7.999999999999996447, 89.00000000000000000, 9.797174393178823685E-16 ) ) ;
#17 = CARTESIAN_POINT ( 'NONE',  ( 8.000000000000000000, 89.00000000000000000, 0.000000000000000000 ) ) ;
#18 = VERTEX_POINT ( 'NONE', #124 ) ;
#19 = FACE_OUTER_BOUND ( 'NONE', #277, .T. ) ;
#20 = VERTEX_POINT ( 'NONE', #156 ) ;
#21 = MECHANICAL_DESIGN_GEOMETRIC_PRESENTATION_REPRESENTATION (  '', ( #184 ), #230 ) ;
#22 = FILL_AREA_STYLE_COLOUR ( '', #285 ) ;
#23 = EDGE_LOOP ( 'NONE', ( #27, #191, #145, #218 ) ) ;
#24 = DIRECTION ( 'NONE',  ( 0.000000000000000000, 0.000000000000000000, -1.000000000000000000 ) ) ;
#25 = ORIENTED_EDGE ( 'NONE', *, *, #337, .F. ) ;
#26 =( NAMED_UNIT ( * ) PLANE_ANGLE_UNIT ( ) SI_UNIT ( $, .RADIAN. ) );
#27 = ORIENTED_EDGE ( 'NONE', *, *, #38, .T. ) ;
#28 = PRODUCT_CONTEXT ( 'NONE', #45, 'mechanical' ) ;
#29 = DIRECTION ( 'NONE',  ( -1.224646799147353454E-16, 0.000000000000000000, -1.000000000000000000 ) ) ;
#30 = DIRECTION ( 'NONE',  ( 0.000000000000000000, 0.000000000000000000, -1.000000000000000000 ) ) ;
#31 =( NAMED_UNIT ( * ) SI_UNIT ( $, .STERADIAN. ) SOLID_ANGLE_UNIT ( ) );
#32 = SHAPE_DEFINITION_REPRESENTATION ( #181, #143 ) ;
#33 = SURFACE_SIDE_STYLE ('',( #198 ) ) ;
#34 = EDGE_CURVE ( 'NONE', #352, #222, #8, .T. ) ;
#35 = CARTESIAN_POINT ( 'NONE',  ( 0.000000000000000000, 0.5000000000000000000, -7.500000000000000000 ) ) ;
#36 =( NAMED_UNIT ( * ) SI_UNIT ( $, .STERADIAN. ) SOLID_ANGLE_UNIT ( ) );
#37 = CARTESIAN_POINT ( 'NONE',  ( 9.797174393178825657E-16, 40.00000000000000000, 8.000000000000000000 ) ) ;
#38 = EDGE_CURVE ( 'NONE', #107, #141, #353, .T. ) ;
#39 = UNCERTAINTY_MEASURE_WITH_UNIT (LENGTH_MEASURE( 1.000000000000000082E-05 ), #303, 'distance_accuracy_value', 'NONE');
#40 =( NAMED_UNIT ( * ) SI_UNIT ( $, .STERADIAN. ) SOLID_ANGLE_UNIT ( ) );
#41 = ORIENTED_EDGE ( 'NONE', *, *, #341, .F. ) ;
#42 =( LENGTH_UNIT ( ) NAMED_UNIT ( * ) SI_UNIT ( .MILLI., .METRE. ) );
#43 = ORIENTED_EDGE ( 'NONE', *, *, #267, .T. ) ;
#44 = ADVANCED_FACE ( 'NONE', ( #94 ), #121, .T. ) ;
#45 = APPLICATION_CONTEXT ( 'automotive_design' ) ;
#46 = SURFACE_STYLE_USAGE ( .BOTH. , #299 ) ;
#47 = AXIS2_PLACEMENT_3D ( 'NONE', #283, #155, #30 ) ;
#48 = DIRECTION ( 'NONE',  ( 1.000000000000000000, 1.279215233315390572E-16, 0.000000000000000000 ) ) ;
#49 = CARTESIAN_POINT ( 'NONE',  ( 0.000000000000000000, 0.5000000000000000000, -8.000000000000000000 ) ) ;
#50 = EDGE_CURVE ( 'NONE', #86, #20, #139, .T. ) ;
#51 =( NAMED_UNIT ( * ) SI_UNIT ( $, .STERADIAN. ) SOLID_ANGLE_UNIT ( ) );
#52 = VECTOR ( 'NONE', #15, 1000.000000000000000 ) ;
#53 = FILL_AREA_STYLE ('',( #370 ) ) ;
#54 = AXIS2_PLACEMENT_3D ( 'NONE', #227, #120, #56 ) ;
#55 = ORIENTED_EDGE ( 'NONE', *, *, #11, .F. ) ;
#56 = DIRECTION ( 'NONE',  ( -1.000000000000000000, 0.000000000000000000, 0.000000000000000000 ) ) ;
#57 = AXIS2_PLACEMENT_3D ( 'NONE', #17, #241, #48 ) ;
#58 = DIRECTION ( 'NONE',  ( 1.000000000000000000, 0.000000000000000000, -1.224646799147353207E-16 ) ) ;
#59 = FILL_AREA_STYLE_COLOUR ( '', #354 ) ;
#60 = AXIS2_PLACEMENT_3D ( 'NONE', #35, #151, #177 ) ;
#61 = APPLICATION_PROTOCOL_DEFINITION ( 'draft international standard', 'automotive_design', 1998, #45 ) ;
#62 = SURFACE_SIDE_STYLE ('',( #312 ) ) ;
#63 = MECHANICAL_DESIGN_GEOMETRIC_PRESENTATION_REPRESENTATION (  '', ( #108 ), #361 ) ;
#64 = SURFACE_STYLE_FILL_AREA ( #266 ) ;
#65 = LINE ( 'NONE', #182, #52 ) ;
#66 = AXIS2_PLACEMENT_3D ( 'NONE', #162, #102, #209 ) ;
#67 = FILL_AREA_STYLE ('',( #161 ) ) ;
#68 = AXIS2_PLACEMENT_3D ( 'NONE', #305, #93, #253 ) ;
#69 = DIRECTION ( 'NONE',  ( -0.000000000000000000, -1.000000000000000000, -0.000000000000000000 ) ) ;
#70 = PRODUCT_DEFINITION_CONTEXT ( 'detailed design', #252, 'design' ) ;
#71 = DIRECTION ( 'NONE',  ( -0.000000000000000000, -1.000000000000000000, -0.000000000000000000 ) ) ;
#72 = TOROIDAL_SURFACE ( 'NONE', #328, 7.500000000000000000, 0.5000000000000002220 ) ;
#73 = AXIS2_PLACEMENT_3D ( 'NONE', #129, #194, #276 ) ;
#74 =( NAMED_UNIT ( * ) SI_UNIT ( $, .STERADIAN. ) SOLID_ANGLE_UNIT ( ) );
#75 = EDGE_CURVE ( 'NONE', #141, #107, #262, .T. ) ;
#76 = PRESENTATION_LAYER_ASSIGNMENT (  '', '', ( #152 ) ) ;
#77 = CARTESIAN_POINT ( 'NONE',  ( 4.553649124439119412E-15, 40.00000000000000000, 0.000000000000000000 ) ) ;
#78 = PRESENTATION_STYLE_ASSIGNMENT (( #117 ) ) ;
#79 = MANIFOLD_SOLID_BREP ( 'Revolve - Cutting Edge', #199 ) ;
#80 = SURFACE_STYLE_FILL_AREA ( #140 ) ;
#81 = ORIENTED_EDGE ( 'NONE', *, *, #278, .T. ) ;
#82 = PRESENTATION_LAYER_ASSIGNMENT (  '', '', ( #147 ) ) ;
#83 = MECHANICAL_DESIGN_GEOMETRIC_PRESENTATION_REPRESENTATION (  '', ( #281 ), #274 ) ;
#84 = CIRCLE ( 'NONE', #6, 8.000000000000000000 ) ;
#85 = SURFACE_SIDE_STYLE ('',( #369 ) ) ;
#86 = VERTEX_POINT ( 'NONE', #317 ) ;
#87 = PRODUCT_DEFINITION_FORMATION_WITH_SPECIFIED_SOURCE ( 'ANY', '', #311, .NOT_KNOWN. ) ;
#88 = ORIENTED_EDGE ( 'NONE', *, *, #164, .T. ) ;
#89 =( LENGTH_UNIT ( ) NAMED_UNIT ( * ) SI_UNIT ( .MILLI., .METRE. ) );
#90 = DIRECTION ( 'NONE',  ( 0.000000000000000000, 0.000000000000000000, -1.000000000000000000 ) ) ;
#91 = PRESENTATION_LAYER_ASSIGNMENT (  '', '', ( #215 ) ) ;
#92 = CYLINDRICAL_SURFACE ( 'NONE', #54, 7.999999999999998224 ) ;
#93 = DIRECTION ( 'NONE',  ( -0.000000000000000000, -1.000000000000000000, -0.000000000000000000 ) ) ;
#94 = FACE_OUTER_BOUND ( 'NONE', #23, .T. ) ;
#95 = DIRECTION ( 'NONE',  ( -1.279215233315390572E-16, 1.000000000000000000, 0.000000000000000000 ) ) ;
#96 = SURFACE_STYLE_USAGE ( .BOTH. , #33 ) ;
#97 = UNCERTAINTY_MEASURE_WITH_UNIT (LENGTH_MEASURE( 1.000000000000000082E-05 ), #364, 'distance_accuracy_value', 'NONE');
#98 = COLOUR_RGB ( '',1.000000000000000000, 0.000000000000000000, 0.000000000000000000 ) ;
#99 = PRESENTATION_STYLE_ASSIGNMENT (( #235 ) ) ;
#100 = CIRCLE ( 'NONE', #60, 0.5000000000000004441 ) ;
#101 = SURFACE_STYLE_USAGE ( .BOTH. , #357 ) ;
#102 = DIRECTION ( 'NONE',  ( 0.000000000000000000, -1.000000000000000000, -0.000000000000000000 ) ) ;
#103 = CIRCLE ( 'NONE', #73, 7.999999999999994671 ) ;
#104 = FILL_AREA_STYLE_COLOUR ( '', #98 ) ;
#105 = EDGE_LOOP ( 'NONE', ( #113, #368 ) ) ;
#106 = PRESENTATION_LAYER_ASSIGNMENT (  '', '', ( #131 ) ) ;
#107 = VERTEX_POINT ( 'NONE', #1 ) ;
#108 = STYLED_ITEM ( 'NONE', ( #221 ), #289 ) ;
#109 = ADVANCED_FACE ( 'NONE', ( #171 ), #308, .T. ) ;
#110 =( NAMED_UNIT ( * ) PLANE_ANGLE_UNIT ( ) SI_UNIT ( $, .RADIAN. ) );
#111 = ORIENTED_EDGE ( 'NONE', *, *, #75, .F. ) ;
#112 = CARTESIAN_POINT ( 'NONE',  ( 0.000000000000000000, 0.5000000000000000000, 0.000000000000000000 ) ) ;
#113 = ORIENTED_EDGE ( 'NONE', *, *, #341, .T. ) ;
#114 = ADVANCED_FACE ( 'NONE', ( #265 ), #296, .T. ) ;
#115 =( LENGTH_UNIT ( ) NAMED_UNIT ( * ) SI_UNIT ( .MILLI., .METRE. ) );
#116 = PRESENTATION_LAYER_ASSIGNMENT (  '', '', ( #242 ) ) ;
#117 = SURFACE_STYLE_USAGE ( .BOTH. , #330 ) ;
#118 =( NAMED_UNIT ( * ) PLANE_ANGLE_UNIT ( ) SI_UNIT ( $, .RADIAN. ) );
#119 = CARTESIAN_POINT ( 'NONE',  ( -1.714505518806293849E-15, 89.00000000000000000, 0.000000000000000000 ) ) ;
#120 = DIRECTION ( 'NONE',  ( -1.279215233315390572E-16, 1.000000000000000000, -0.000000000000000000 ) ) ;
#121 = CYLINDRICAL_SURFACE ( 'NONE', #293, 8.000000000000000000 ) ;
#122 = MECHANICAL_DESIGN_GEOMETRIC_PRESENTATION_REPRESENTATION (  '', ( #242 ), #148 ) ;
#123 = PLANE ( 'NONE',  #219 ) ;
#124 = CARTESIAN_POINT ( 'NONE',  ( 8.000000000000000000, 40.00000000000000000, 9.797174393178825657E-16 ) ) ;
#125 = TOROIDAL_SURFACE ( 'NONE', #68, 7.500000000000000000, 0.5000000000000002220 ) ;
#126 = UNCERTAINTY_MEASURE_WITH_UNIT (LENGTH_MEASURE( 1.000000000000000082E-05 ), #89, 'distance_accuracy_value', 'NONE');
#127 = PRESENTATION_LAYER_ASSIGNMENT (  '', '', ( #281 ) ) ;
#128 = DIRECTION ( 'NONE',  ( -1.000000000000000000, 0.000000000000000000, 0.000000000000000000 ) ) ;
#129 = CARTESIAN_POINT ( 'NONE',  ( 4.553649124439119412E-15, 40.00000000000000000, 0.000000000000000000 ) ) ;
#130 = ORIENTED_EDGE ( 'NONE', *, *, #50, .F. ) ;
#131 = STYLED_ITEM ( 'NONE', ( #271 ), #313 ) ;
#132 = DIRECTION ( 'NONE',  ( 0.000000000000000000, -0.000000000000000000, 1.000000000000000000 ) ) ;
#133 = ORIENTED_EDGE ( 'NONE', *, *, #173, .T. ) ;
#134 = ADVANCED_FACE ( 'NONE', ( #322 ), #236, .T. ) ;
#135 = AXIS2_PLACEMENT_3D ( 'NONE', #77, #334, #144 ) ;
#136 = VERTEX_POINT ( 'NONE', #318 ) ;
#137 = DIRECTION ( 'NONE',  ( 0.000000000000000000, 0.000000000000000000, -1.000000000000000000 ) ) ;
#138 = ORIENTED_EDGE ( 'NONE', *, *, #154, .F. ) ;
#139 = CIRCLE ( 'NONE', #320, 8.000000000000001776 ) ;
#140 = FILL_AREA_STYLE ('',( #22 ) ) ;
#141 = VERTEX_POINT ( 'NONE', #37 ) ;
#142 = AXIS2_PLACEMENT_3D ( 'NONE', #250, #13, #201 ) ;
#143 = ADVANCED_BREP_SHAPE_REPRESENTATION ( '59619', ( #79, #313, #142 ), #326 ) ;
#144 = DIRECTION ( 'NONE',  ( -1.000000000000000000, 0.000000000000000000, 0.000000000000000000 ) ) ;
#145 = ORIENTED_EDGE ( 'NONE', *, *, #278, .F. ) ;
#146 = ORIENTED_EDGE ( 'NONE', *, *, #226, .F. ) ;
#147 = STYLED_ITEM ( 'NONE', ( #78 ), #2 ) ;
#148 =( GEOMETRIC_REPRESENTATION_CONTEXT ( 3 ) GLOBAL_UNCERTAINTY_ASSIGNED_CONTEXT ( ( #12 ) ) GLOBAL_UNIT_ASSIGNED_CONTEXT ( ( #180, #294, #40 ) ) REPRESENTATION_CONTEXT ( 'NONE', 'WORKASPACE' ) );
#149 = CARTESIAN_POINT ( 'NONE',  ( -8.000000000000000000, 89.00000000000000000, 0.000000000000000000 ) ) ;
#150 = CARTESIAN_POINT ( 'NONE',  ( -1.714505518806293652E-15, 89.00000000000000000, 0.000000000000000000 ) ) ;
#151 = DIRECTION ( 'NONE',  ( -1.000000000000000000, 0.000000000000000000, 0.000000000000000000 ) ) ;
#152 = STYLED_ITEM ( 'NONE', ( #314 ), #321 ) ;
#153 =( LENGTH_UNIT ( ) NAMED_UNIT ( * ) SI_UNIT ( .MILLI., .METRE. ) );
#154 = EDGE_CURVE ( 'NONE', #20, #86, #288, .T. ) ;
#155 = DIRECTION ( 'NONE',  ( -0.000000000000000000, -1.000000000000000000, -0.000000000000000000 ) ) ;
#156 = CARTESIAN_POINT ( 'NONE',  ( 8.000000000000000000, 89.00000000000000000, 9.797174393178825657E-16 ) ) ;
#157 = CIRCLE ( 'NONE', #319, 0.5000000000000004441 ) ;
#158 = CIRCLE ( 'NONE', #135, 7.999999999999994671 ) ;
#159 = SURFACE_SIDE_STYLE ('',( #80 ) ) ;
#160 = DIRECTION ( 'NONE',  ( -1.000000000000000000, 0.000000000000000000, 0.000000000000000000 ) ) ;
#161 = FILL_AREA_STYLE_COLOUR ( '', #169 ) ;
#162 = CARTESIAN_POINT ( 'NONE',  ( 0.000000000000000000, 0.000000000000000000, 0.000000000000000000 ) ) ;
#163 = DIRECTION ( 'NONE',  ( -1.279215233315390572E-16, 1.000000000000000000, -0.000000000000000000 ) ) ;
#164 = EDGE_CURVE ( 'NONE', #107, #249, #350, .T. ) ;
#165 = CARTESIAN_POINT ( 'NONE',  ( 0.000000000000000000, 40.00000000000000000, 0.000000000000000000 ) ) ;
#166 = DIRECTION ( 'NONE',  ( -0.000000000000000000, -1.000000000000000000, -0.000000000000000000 ) ) ;
#167 = CARTESIAN_POINT ( 'NONE',  ( 0.000000000000000000, 0.000000000000000000, 0.000000000000000000 ) ) ;
#168 = AXIS2_PLACEMENT_3D ( 'NONE', #167, #243, #363 ) ;
#169 = COLOUR_RGB ( '',1.000000000000000000, 0.000000000000000000, 0.000000000000000000 ) ;
#170 = ORIENTED_EDGE ( 'NONE', *, *, #359, .T. ) ;
#171 = FACE_OUTER_BOUND ( 'NONE', #333, .T. ) ;
#172 = AXIS2_PLACEMENT_3D ( 'NONE', #344, #310, #228 ) ;
#173 = EDGE_CURVE ( 'NONE', #18, #20, #187, .T. ) ;
#174 = PRESENTATION_STYLE_ASSIGNMENT (( #96 ) ) ;
#175 = SURFACE_STYLE_USAGE ( .BOTH. , #159 ) ;
#176 = PRESENTATION_LAYER_ASSIGNMENT (  '', '', ( #108 ) ) ;
#177 = DIRECTION ( 'NONE',  ( 0.000000000000000000, 0.000000000000000000, 1.000000000000000000 ) ) ;
#178 = SURFACE_STYLE_USAGE ( .BOTH. , #62 ) ;
#179 = UNCERTAINTY_MEASURE_WITH_UNIT (LENGTH_MEASURE( 1.000000000000000082E-05 ), #203, 'distance_accuracy_value', 'NONE');
#180 =( LENGTH_UNIT ( ) NAMED_UNIT ( * ) SI_UNIT ( .MILLI., .METRE. ) );
#181 = PRODUCT_DEFINITION_SHAPE ( 'NONE', 'NONE',  #204 ) ;
#182 = CARTESIAN_POINT ( 'NONE',  ( 9.797174393178825657E-16, 0.000000000000000000, 8.000000000000000000 ) ) ;
#183 =( GEOMETRIC_REPRESENTATION_CONTEXT ( 3 ) GLOBAL_UNCERTAINTY_ASSIGNED_CONTEXT ( ( #324 ) ) GLOBAL_UNIT_ASSIGNED_CONTEXT ( ( #115, #338, #51 ) ) REPRESENTATION_CONTEXT ( 'NONE', 'WORKASPACE' ) );
#184 = STYLED_ITEM ( 'NONE', ( #261 ), #114 ) ;
#185 = DIRECTION ( 'NONE',  ( 0.000000000000000000, 1.000000000000000000, 0.000000000000000000 ) ) ;
#186 = EDGE_LOOP ( 'NONE', ( #360, #245 ) ) ;
#187 = LINE ( 'NONE', #16, #188 ) ;
#188 = VECTOR ( 'NONE', #206, 1000.000000000000000 ) ;
#189 = FACE_OUTER_BOUND ( 'NONE', #186, .T. ) ;
#190 = PLANE ( 'NONE',  #57 ) ;
#191 = ORIENTED_EDGE ( 'NONE', *, *, #220, .T. ) ;
#192 = FILL_AREA_STYLE_COLOUR ( '', #239 ) ;
#193 = ORIENTED_EDGE ( 'NONE', *, *, #291, .F. ) ;
#194 = DIRECTION ( 'NONE',  ( -1.279215233315390572E-16, 1.000000000000000000, -0.000000000000000000 ) ) ;
#195 = ORIENTED_EDGE ( 'NONE', *, *, #337, .T. ) ;
#196 =( NAMED_UNIT ( * ) SI_UNIT ( $, .STERADIAN. ) SOLID_ANGLE_UNIT ( ) );
#197 = ORIENTED_EDGE ( 'NONE', *, *, #267, .F. ) ;
#198 = SURFACE_STYLE_FILL_AREA ( #340 ) ;
#199 = CLOSED_SHELL ( 'NONE', ( #44, #321, #134, #289, #2, #114 ) ) ;
#200 = AXIS2_PLACEMENT_3D ( 'NONE', #165, #185, #132 ) ;
#201 = DIRECTION ( 'NONE',  ( 1.000000000000000000, 0.000000000000000000, 0.000000000000000000 ) ) ;
#202 = DIRECTION ( 'NONE',  ( -0.000000000000000000, -1.000000000000000000, -0.000000000000000000 ) ) ;
#203 =( LENGTH_UNIT ( ) NAMED_UNIT ( * ) SI_UNIT ( .MILLI., .METRE. ) );
#204 = PRODUCT_DEFINITION ( 'UNKNOWN', '', #87, #70 ) ;
#205 = MECHANICAL_DESIGN_GEOMETRIC_PRESENTATION_REPRESENTATION (  '', ( #215 ), #282 ) ;
#206 = DIRECTION ( 'NONE',  ( -1.279215233315390572E-16, 1.000000000000000000, -0.000000000000000000 ) ) ;
#207 = PRODUCT_RELATED_PRODUCT_CATEGORY ( 'part', '', ( #311 ) ) ;
#208 = VECTOR ( 'NONE', #69, 1000.000000000000000 ) ;
#209 = DIRECTION ( 'NONE',  ( 0.000000000000000000, 0.000000000000000000, -1.000000000000000000 ) ) ;
#210 = DIRECTION ( 'NONE',  ( -1.000000000000000000, 0.000000000000000000, 0.000000000000000000 ) ) ;
#211 = ORIENTED_EDGE ( 'NONE', *, *, #226, .T. ) ;
#212 = UNCERTAINTY_MEASURE_WITH_UNIT (LENGTH_MEASURE( 1.000000000000000082E-05 ), #42, 'distance_accuracy_value', 'NONE');
#213 =( NAMED_UNIT ( * ) SI_UNIT ( $, .STERADIAN. ) SOLID_ANGLE_UNIT ( ) );
#214 = SURFACE_STYLE_USAGE ( .BOTH. , #85 ) ;
#215 = STYLED_ITEM ( 'NONE', ( #287 ), #79 ) ;
#216 = SURFACE_STYLE_FILL_AREA ( #53 ) ;
#217 = FILL_AREA_STYLE_COLOUR ( '', #336 ) ;
#218 = ORIENTED_EDGE ( 'NONE', *, *, #164, .F. ) ;
#219 = AXIS2_PLACEMENT_3D ( 'NONE', #255, #95, #231 ) ;
#220 = EDGE_CURVE ( 'NONE', #141, #136, #65, .T. ) ;
#221 = PRESENTATION_STYLE_ASSIGNMENT (( #214 ) ) ;
#222 = VERTEX_POINT ( 'NONE', #292 ) ;
#223 = CIRCLE ( 'NONE', #316, 8.000000000000000000 ) ;
#224 = DIRECTION ( 'NONE',  ( -1.279215233315390572E-16, 1.000000000000000000, -0.000000000000000000 ) ) ;
#225 = EDGE_LOOP ( 'NONE', ( #335, #240, #88, #193 ) ) ;
#226 = EDGE_CURVE ( 'NONE', #18, #270, #103, .T. ) ;
#227 = CARTESIAN_POINT ( 'NONE',  ( -1.714505518806293849E-15, 89.00000000000000000, 0.000000000000000000 ) ) ;
#228 = DIRECTION ( 'NONE',  ( 0.000000000000000000, 0.000000000000000000, -1.000000000000000000 ) ) ;
#229 = FILL_AREA_STYLE ('',( #14 ) ) ;
#230 =( GEOMETRIC_REPRESENTATION_CONTEXT ( 3 ) GLOBAL_UNCERTAINTY_ASSIGNED_CONTEXT ( ( #212 ) ) GLOBAL_UNIT_ASSIGNED_CONTEXT ( ( #42, #263, #213 ) ) REPRESENTATION_CONTEXT ( 'NONE', 'WORKASPACE' ) );
#231 = DIRECTION ( 'NONE',  ( -1.000000000000000000, -1.279215233315390572E-16, 0.000000000000000000 ) ) ;
#232 = CARTESIAN_POINT ( 'NONE',  ( 0.000000000000000000, 0.000000000000000000, 0.000000000000000000 ) ) ;
#233 = UNCERTAINTY_MEASURE_WITH_UNIT (LENGTH_MEASURE( 1.000000000000000082E-05 ), #307, 'distance_accuracy_value', 'NONE');
#234 = DIRECTION ( 'NONE',  ( -1.279215233315390572E-16, 1.000000000000000000, -0.000000000000000000 ) ) ;
#235 = SURFACE_STYLE_USAGE ( .BOTH. , #268 ) ;
#236 = PLANE ( 'NONE',  #66 ) ;
#237 = EDGE_LOOP ( 'NONE', ( #81, #304, #41, #366 ) ) ;
#238 =( GEOMETRIC_REPRESENTATION_CONTEXT ( 3 ) GLOBAL_UNCERTAINTY_ASSIGNED_CONTEXT ( ( #233 ) ) GLOBAL_UNIT_ASSIGNED_CONTEXT ( ( #307, #118, #7 ) ) REPRESENTATION_CONTEXT ( 'NONE', 'WORKASPACE' ) );
#239 = COLOUR_RGB ( '',0.7921568627450980005, 0.8196078431372548767, 0.9333333333333333481 ) ;
#240 = ORIENTED_EDGE ( 'NONE', *, *, #75, .T. ) ;
#241 = DIRECTION ( 'NONE',  ( 1.279215233315390572E-16, -1.000000000000000000, 0.000000000000000000 ) ) ;
#242 = STYLED_ITEM ( 'NONE', ( #99 ), #134 ) ;
#243 = DIRECTION ( 'NONE',  ( -0.000000000000000000, -1.000000000000000000, -0.000000000000000000 ) ) ;
#244 = FILL_AREA_STYLE ('',( #217 ) ) ;
#245 = ORIENTED_EDGE ( 'NONE', *, *, #154, .T. ) ;
#246 = CARTESIAN_POINT ( 'NONE',  ( -7.999999999999989342, 40.00000000000000000, 0.000000000000000000 ) ) ;
#247 = ORIENTED_EDGE ( 'NONE', *, *, #291, .T. ) ;
#248 = SURFACE_STYLE_FILL_AREA ( #301 ) ;
#249 = VERTEX_POINT ( 'NONE', #49 ) ;
#250 = CARTESIAN_POINT ( 'NONE',  ( 0.000000000000000000, 0.000000000000000000, 0.000000000000000000 ) ) ;
#251 = DIRECTION ( 'NONE',  ( 0.000000000000000000, 0.000000000000000000, -1.000000000000000000 ) ) ;
#252 = APPLICATION_CONTEXT ( 'automotive_design' ) ;
#253 = DIRECTION ( 'NONE',  ( 0.000000000000000000, 0.000000000000000000, -1.000000000000000000 ) ) ;
#254 =( NAMED_UNIT ( * ) PLANE_ANGLE_UNIT ( ) SI_UNIT ( $, .RADIAN. ) );
#255 = CARTESIAN_POINT ( 'NONE',  ( 4.553649124439118623E-15, 40.00000000000000000, 0.000000000000000000 ) ) ;
#256 = DIRECTION ( 'NONE',  ( -0.000000000000000000, -1.000000000000000000, -0.000000000000000000 ) ) ;
#257 = AXIS2_PLACEMENT_3D ( 'NONE', #232, #5, #284 ) ;
#258 = COLOUR_RGB ( '',0.7921568627450980005, 0.8196078431372548767, 0.9333333333333333481 ) ;
#259 = CARTESIAN_POINT ( 'NONE',  ( 0.000000000000000000, 40.00000000000000000, 0.000000000000000000 ) ) ;
#260 = APPLICATION_PROTOCOL_DEFINITION ( 'draft international standard', 'automotive_design', 1998, #252 ) ;
#261 = PRESENTATION_STYLE_ASSIGNMENT (( #101 ) ) ;
#262 = CIRCLE ( 'NONE', #309, 8.000000000000000000 ) ;
#263 =( NAMED_UNIT ( * ) PLANE_ANGLE_UNIT ( ) SI_UNIT ( $, .RADIAN. ) );
#264 = EDGE_LOOP ( 'NONE', ( #55, #247, #170, #323 ) ) ;
#265 = FACE_OUTER_BOUND ( 'NONE', #279, .T. ) ;
#266 = FILL_AREA_STYLE ('',( #104 ) ) ;
#267 = EDGE_CURVE ( 'NONE', #270, #18, #158, .T. ) ;
#268 = SURFACE_SIDE_STYLE ('',( #64 ) ) ;
#269 = DIRECTION ( 'NONE',  ( 0.000000000000000000, 0.000000000000000000, -1.000000000000000000 ) ) ;
#270 = VERTEX_POINT ( 'NONE', #246 ) ;
#271 = PRESENTATION_STYLE_ASSIGNMENT (( #46 ) ) ;
#272 = ORIENTED_EDGE ( 'NONE', *, *, #173, .F. ) ;
#273 =( NAMED_UNIT ( * ) SI_UNIT ( $, .STERADIAN. ) SOLID_ANGLE_UNIT ( ) );
#274 =( GEOMETRIC_REPRESENTATION_CONTEXT ( 3 ) GLOBAL_UNCERTAINTY_ASSIGNED_CONTEXT ( ( #179 ) ) GLOBAL_UNIT_ASSIGNED_CONTEXT ( ( #203, #286, #31 ) ) REPRESENTATION_CONTEXT ( 'NONE', 'WORKASPACE' ) );
#275 = EDGE_LOOP ( 'NONE', ( #197, #146 ) ) ;
#276 = DIRECTION ( 'NONE',  ( -1.000000000000000000, 0.000000000000000000, 0.000000000000000000 ) ) ;
#277 = EDGE_LOOP ( 'NONE', ( #272, #211, #195, #138 ) ) ;
#278 = EDGE_CURVE ( 'NONE', #249, #136, #223, .T. ) ;
#279 = EDGE_LOOP ( 'NONE', ( #306, #111 ) ) ;
#280 = CARTESIAN_POINT ( 'NONE',  ( 0.000000000000000000, 0.000000000000000000, 0.000000000000000000 ) ) ;
#281 = STYLED_ITEM ( 'NONE', ( #174 ), #44 ) ;
#282 =( GEOMETRIC_REPRESENTATION_CONTEXT ( 3 ) GLOBAL_UNCERTAINTY_ASSIGNED_CONTEXT ( ( #356 ) ) GLOBAL_UNIT_ASSIGNED_CONTEXT ( ( #153, #254, #36 ) ) REPRESENTATION_CONTEXT ( 'NONE', 'WORKASPACE' ) );
#283 = CARTESIAN_POINT ( 'NONE',  ( 0.000000000000000000, 0.000000000000000000, 0.000000000000000000 ) ) ;
#284 = DIRECTION ( 'NONE',  ( 0.000000000000000000, 0.000000000000000000, -1.000000000000000000 ) ) ;
#285 = COLOUR_RGB ( '',1.000000000000000000, 0.000000000000000000, 0.000000000000000000 ) ;
#286 =( NAMED_UNIT ( * ) PLANE_ANGLE_UNIT ( ) SI_UNIT ( $, .RADIAN. ) );
#287 = PRESENTATION_STYLE_ASSIGNMENT (( #178 ) ) ;
#288 = CIRCLE ( 'NONE', #349, 8.000000000000001776 ) ;
#289 = ADVANCED_FACE ( 'NONE', ( #362 ), #72, .T. ) ;
#290 =( NAMED_UNIT ( * ) PLANE_ANGLE_UNIT ( ) SI_UNIT ( $, .RADIAN. ) );
#291 = EDGE_CURVE ( 'NONE', #136, #249, #84, .T. ) ;
#292 = CARTESIAN_POINT ( 'NONE',  ( 0.000000000000000000, 0.000000000000000000, -7.500000000000000000 ) ) ;
#293 = AXIS2_PLACEMENT_3D ( 'NONE', #280, #256, #90 ) ;
#294 =( NAMED_UNIT ( * ) PLANE_ANGLE_UNIT ( ) SI_UNIT ( $, .RADIAN. ) );
#295 = SURFACE_STYLE_FILL_AREA ( #67 ) ;
#296 = PLANE ( 'NONE',  #200 ) ;
#297 = DIRECTION ( 'NONE',  ( -0.000000000000000000, -1.000000000000000000, -0.000000000000000000 ) ) ;
#298 = ADVANCED_FACE ( 'NONE', ( #189 ), #190, .F. ) ;
#299 = SURFACE_SIDE_STYLE ('',( #248 ) ) ;
#300 = CYLINDRICAL_SURFACE ( 'NONE', #168, 8.000000000000000000 ) ;
#301 = FILL_AREA_STYLE ('',( #192 ) ) ;
#302 = FACE_OUTER_BOUND ( 'NONE', #225, .T. ) ;
#303 =( LENGTH_UNIT ( ) NAMED_UNIT ( * ) SI_UNIT ( .MILLI., .METRE. ) );
#304 = ORIENTED_EDGE ( 'NONE', *, *, #11, .T. ) ;
#305 = CARTESIAN_POINT ( 'NONE',  ( 0.000000000000000000, 0.5000000000000000000, 0.000000000000000000 ) ) ;
#306 = ORIENTED_EDGE ( 'NONE', *, *, #38, .F. ) ;
#307 =( LENGTH_UNIT ( ) NAMED_UNIT ( * ) SI_UNIT ( .MILLI., .METRE. ) );
#308 = CYLINDRICAL_SURFACE ( 'NONE', #343, 7.999999999999998224 ) ;
#309 = AXIS2_PLACEMENT_3D ( 'NONE', #259, #202, #251 ) ;
#310 = DIRECTION ( 'NONE',  ( -0.000000000000000000, -1.000000000000000000, -0.000000000000000000 ) ) ;
#311 = PRODUCT ( '59619', '59619', '', ( #28 ) ) ;
#312 = SURFACE_STYLE_FILL_AREA ( #229 ) ;
#313 = MANIFOLD_SOLID_BREP ( 'Revolve - Tool Body (Straight Shanked)', #342 ) ;
#314 = PRESENTATION_STYLE_ASSIGNMENT (( #175 ) ) ;
#315 = COLOUR_RGB ( '',1.000000000000000000, 0.000000000000000000, 0.000000000000000000 ) ;
#316 = AXIS2_PLACEMENT_3D ( 'NONE', #112, #166, #24 ) ;
#317 = CARTESIAN_POINT ( 'NONE',  ( -8.000000000000003553, 89.00000000000000000, 0.000000000000000000 ) ) ;
#318 = CARTESIAN_POINT ( 'NONE',  ( 9.797174393178825657E-16, 0.5000000000000000000, 8.000000000000000000 ) ) ;
#319 = AXIS2_PLACEMENT_3D ( 'NONE', #9, #58, #29 ) ;
#320 = AXIS2_PLACEMENT_3D ( 'NONE', #150, #347, #160 ) ;
#321 = ADVANCED_FACE ( 'NONE', ( #329 ), #125, .T. ) ;
#322 = FACE_OUTER_BOUND ( 'NONE', #105, .T. ) ;
#323 = ORIENTED_EDGE ( 'NONE', *, *, #34, .F. ) ;
#324 = UNCERTAINTY_MEASURE_WITH_UNIT (LENGTH_MEASURE( 1.000000000000000082E-05 ), #115, 'distance_accuracy_value', 'NONE');
#325 = CARTESIAN_POINT ( 'NONE',  ( 0.000000000000000000, 0.000000000000000000, -8.000000000000000000 ) ) ;
#326 =( GEOMETRIC_REPRESENTATION_CONTEXT ( 3 ) GLOBAL_UNCERTAINTY_ASSIGNED_CONTEXT ( ( #126 ) ) GLOBAL_UNIT_ASSIGNED_CONTEXT ( ( #89, #290, #196 ) ) REPRESENTATION_CONTEXT ( 'NONE', 'WORKASPACE' ) );
#327 = ADVANCED_FACE ( 'NONE', ( #19 ), #92, .T. ) ;
#328 = AXIS2_PLACEMENT_3D ( 'NONE', #367, #71, #269 ) ;
#329 = FACE_OUTER_BOUND ( 'NONE', #237, .T. ) ;
#330 = SURFACE_SIDE_STYLE ('',( #216 ) ) ;
#331 = CARTESIAN_POINT ( 'NONE',  ( 0.000000000000000000, 0.5000000000000000000, 0.000000000000000000 ) ) ;
#332 = MECHANICAL_DESIGN_GEOMETRIC_PRESENTATION_REPRESENTATION (  '', ( #131 ), #365 ) ;
#333 = EDGE_LOOP ( 'NONE', ( #43, #133, #130, #25 ) ) ;
#334 = DIRECTION ( 'NONE',  ( -1.279215233315390572E-16, 1.000000000000000000, -0.000000000000000000 ) ) ;
#335 = ORIENTED_EDGE ( 'NONE', *, *, #220, .F. ) ;
#336 = COLOUR_RGB ( '',1.000000000000000000, 0.000000000000000000, 0.000000000000000000 ) ;
#337 = EDGE_CURVE ( 'NONE', #270, #86, #339, .T. ) ;
#338 =( NAMED_UNIT ( * ) PLANE_ANGLE_UNIT ( ) SI_UNIT ( $, .RADIAN. ) );
#339 = LINE ( 'NONE', #149, #351 ) ;
#340 = FILL_AREA_STYLE ('',( #59 ) ) ;
#341 = EDGE_CURVE ( 'NONE', #222, #352, #358, .T. ) ;
#342 = CLOSED_SHELL ( 'NONE', ( #109, #346, #327, #298 ) ) ;
#343 = AXIS2_PLACEMENT_3D ( 'NONE', #119, #234, #210 ) ;
#344 = CARTESIAN_POINT ( 'NONE',  ( 0.000000000000000000, 40.00000000000000000, 0.000000000000000000 ) ) ;
#345 = FACE_OUTER_BOUND ( 'NONE', #275, .T. ) ;
#346 = ADVANCED_FACE ( 'NONE', ( #345 ), #123, .F. ) ;
#347 = DIRECTION ( 'NONE',  ( -1.279215233315390572E-16, 1.000000000000000000, -0.000000000000000000 ) ) ;
#348 = MECHANICAL_DESIGN_GEOMETRIC_PRESENTATION_REPRESENTATION (  '', ( #147 ), #183 ) ;
#349 = AXIS2_PLACEMENT_3D ( 'NONE', #355, #163, #128 ) ;
#350 = LINE ( 'NONE', #325, #208 ) ;
#351 = VECTOR ( 'NONE', #224, 1000.000000000000000 ) ;
#352 = VERTEX_POINT ( 'NONE', #4 ) ;
#353 = CIRCLE ( 'NONE', #172, 8.000000000000000000 ) ;
#354 = COLOUR_RGB ( '',1.000000000000000000, 0.000000000000000000, 0.000000000000000000 ) ;
#355 = CARTESIAN_POINT ( 'NONE',  ( -1.714505518806293652E-15, 89.00000000000000000, 0.000000000000000000 ) ) ;
#356 = UNCERTAINTY_MEASURE_WITH_UNIT (LENGTH_MEASURE( 1.000000000000000082E-05 ), #153, 'distance_accuracy_value', 'NONE');
#357 = SURFACE_SIDE_STYLE ('',( #295 ) ) ;
#358 = CIRCLE ( 'NONE', #47, 7.500000000000000000 ) ;
#359 = EDGE_CURVE ( 'NONE', #249, #222, #100, .T. ) ;
#360 = ORIENTED_EDGE ( 'NONE', *, *, #50, .T. ) ;
#361 =( GEOMETRIC_REPRESENTATION_CONTEXT ( 3 ) GLOBAL_UNCERTAINTY_ASSIGNED_CONTEXT ( ( #39 ) ) GLOBAL_UNIT_ASSIGNED_CONTEXT ( ( #303, #110, #74 ) ) REPRESENTATION_CONTEXT ( 'NONE', 'WORKASPACE' ) );
#362 = FACE_OUTER_BOUND ( 'NONE', #264, .T. ) ;
#363 = DIRECTION ( 'NONE',  ( 0.000000000000000000, 0.000000000000000000, -1.000000000000000000 ) ) ;
#364 =( LENGTH_UNIT ( ) NAMED_UNIT ( * ) SI_UNIT ( .MILLI., .METRE. ) );
#365 =( GEOMETRIC_REPRESENTATION_CONTEXT ( 3 ) GLOBAL_UNCERTAINTY_ASSIGNED_CONTEXT ( ( #97 ) ) GLOBAL_UNIT_ASSIGNED_CONTEXT ( ( #364, #26, #273 ) ) REPRESENTATION_CONTEXT ( 'NONE', 'WORKASPACE' ) );
#366 = ORIENTED_EDGE ( 'NONE', *, *, #359, .F. ) ;
#367 = CARTESIAN_POINT ( 'NONE',  ( 0.000000000000000000, 0.5000000000000000000, 0.000000000000000000 ) ) ;
#368 = ORIENTED_EDGE ( 'NONE', *, *, #34, .T. ) ;
#369 = SURFACE_STYLE_FILL_AREA ( #244 ) ;
#370 = FILL_AREA_STYLE_COLOUR ( '', #315 ) ;
ENDSEC;
END-ISO-10303-21;
