ISO-10303-21;
HEADER;
FILE_DESCRIPTION (( 'STEP AP214' ),
    '1' );
FILE_NAME ('59805.STEP',
    '2023-07-24T15:42:45',
    ( '' ),
    ( '' ),
    'SwSTEP 2.0',
    'SolidWorks 2023',
    '' );
FILE_SCHEMA (( 'AUTOMOTIVE_DESIGN' ));
ENDSEC;

DATA;
#1 = DIRECTION ( 'NONE',  ( -1.000000000000000000, 0.000000000000000000, 0.000000000000000000 ) ) ;
#2 = SURFACE_STYLE_USAGE ( .BOTH. , #206 ) ;
#3 = CARTESIAN_POINT ( 'NONE',  ( 4.898587196589412829E-16, 1.000000000000000000, 4.000000000000000000 ) ) ;
#4 = DIRECTION ( 'NONE',  ( -1.223542297630008506E-16, 1.000000000000000000, -0.000000000000000000 ) ) ;
#5 = AXIS2_PLACEMENT_3D ( 'NONE', #148, #262, #368 ) ;
#6 = CARTESIAN_POINT ( 'NONE',  ( -4.000000000000000000, 75.00000000000000000, 0.000000000000000000 ) ) ;
#7 = DIRECTION ( 'NONE',  ( 0.000000000000000000, 0.000000000000000000, -1.000000000000000000 ) ) ;
#8 =( LENGTH_UNIT ( ) NAMED_UNIT ( * ) SI_UNIT ( .MILLI., .METRE. ) );
#9 = ADVANCED_FACE ( 'NONE', ( #18 ), #46, .T. ) ;
#10 = ORIENTED_EDGE ( 'NONE', *, *, #123, .F. ) ;
#11 = CIRCLE ( 'NONE', #212, 4.000000000000001776 ) ;
#12 = UNCERTAINTY_MEASURE_WITH_UNIT (LENGTH_MEASURE( 1.000000000000000082E-05 ), #93, 'distance_accuracy_value', 'NONE');
#13 = EDGE_CURVE ( 'NONE', #191, #108, #254, .T. ) ;
#14 =( GEOMETRIC_REPRESENTATION_CONTEXT ( 3 ) GLOBAL_UNCERTAINTY_ASSIGNED_CONTEXT ( ( #134 ) ) GLOBAL_UNIT_ASSIGNED_CONTEXT ( ( #265, #342, #322 ) ) REPRESENTATION_CONTEXT ( 'NONE', 'WORKASPACE' ) );
#15 = EDGE_LOOP ( 'NONE', ( #168, #314 ) ) ;
#16 = ORIENTED_EDGE ( 'NONE', *, *, #176, .F. ) ;
#17 =( LENGTH_UNIT ( ) NAMED_UNIT ( * ) SI_UNIT ( .MILLI., .METRE. ) );
#18 = FACE_OUTER_BOUND ( 'NONE', #137, .T. ) ;
#19 = UNCERTAINTY_MEASURE_WITH_UNIT (LENGTH_MEASURE( 1.000000000000000082E-05 ), #17, 'distance_accuracy_value', 'NONE');
#20 = AXIS2_PLACEMENT_3D ( 'NONE', #273, #299, #323 ) ;
#21 = DIRECTION ( 'NONE',  ( -1.000000000000000000, 0.000000000000000000, 0.000000000000000000 ) ) ;
#22 =( NAMED_UNIT ( * ) SI_UNIT ( $, .STERADIAN. ) SOLID_ANGLE_UNIT ( ) );
#23 = UNCERTAINTY_MEASURE_WITH_UNIT (LENGTH_MEASURE( 1.000000000000000082E-05 ), #49, 'distance_accuracy_value', 'NONE');
#24 = FACE_OUTER_BOUND ( 'NONE', #71, .T. ) ;
#25 = FACE_OUTER_BOUND ( 'NONE', #15, .T. ) ;
#26 = PRESENTATION_STYLE_ASSIGNMENT (( #2 ) ) ;
#27 = AXIS2_PLACEMENT_3D ( 'NONE', #235, #157, #65 ) ;
#28 =( NAMED_UNIT ( * ) SI_UNIT ( $, .STERADIAN. ) SOLID_ANGLE_UNIT ( ) );
#29 =( NAMED_UNIT ( * ) PLANE_ANGLE_UNIT ( ) SI_UNIT ( $, .RADIAN. ) );
#30 = DIRECTION ( 'NONE',  ( 1.000000000000000000, 1.223542297630008506E-16, 0.000000000000000000 ) ) ;
#31 = CARTESIAN_POINT ( 'NONE',  ( 4.286263797015736595E-16, 0.000000000000000000, 3.000000000000000000 ) ) ;
#32 = CYLINDRICAL_SURFACE ( 'NONE', #121, 4.000000000000000000 ) ;
#33 = AXIS2_PLACEMENT_3D ( 'NONE', #198, #289, #310 ) ;
#34 = CARTESIAN_POINT ( 'NONE',  ( 4.000000000000000000, 24.00000000000000000, 4.898587196589413815E-16 ) ) ;
#35 = STYLED_ITEM ( 'NONE', ( #346 ), #294 ) ;
#36 = FACE_OUTER_BOUND ( 'NONE', #82, .T. ) ;
#37 = ORIENTED_EDGE ( 'NONE', *, *, #74, .F. ) ;
#38 =( NAMED_UNIT ( * ) PLANE_ANGLE_UNIT ( ) SI_UNIT ( $, .RADIAN. ) );
#39 = DIRECTION ( 'NONE',  ( 0.000000000000000000, 0.000000000000000000, -1.000000000000000000 ) ) ;
#40 = MANIFOLD_SOLID_BREP ( 'Revolve - Tool Body (Straight Shanked)', #307 ) ;
#41 = AXIS2_PLACEMENT_3D ( 'NONE', #274, #151, #7 ) ;
#42 = EDGE_LOOP ( 'NONE', ( #48, #163, #242, #16 ) ) ;
#43 = ADVANCED_FACE ( 'NONE', ( #113 ), #281, .F. ) ;
#44 = PRESENTATION_LAYER_ASSIGNMENT (  '', '', ( #272 ) ) ;
#45 = AXIS2_PLACEMENT_3D ( 'NONE', #181, #291, #30 ) ;
#46 = CYLINDRICAL_SURFACE ( 'NONE', #328, 3.999999999999998224 ) ;
#47 = EDGE_CURVE ( 'NONE', #337, #220, #171, .T. ) ;
#48 = ORIENTED_EDGE ( 'NONE', *, *, #234, .F. ) ;
#49 =( LENGTH_UNIT ( ) NAMED_UNIT ( * ) SI_UNIT ( .MILLI., .METRE. ) );
#50 = LINE ( 'NONE', #138, #321 ) ;
#51 = AXIS2_PLACEMENT_3D ( 'NONE', #258, #248, #106 ) ;
#52 = PRESENTATION_STYLE_ASSIGNMENT (( #251 ) ) ;
#53 = MECHANICAL_DESIGN_GEOMETRIC_PRESENTATION_REPRESENTATION (  '', ( #35 ), #217 ) ;
#54 = AXIS2_PLACEMENT_3D ( 'NONE', #344, #64, #203 ) ;
#55 = DIRECTION ( 'NONE',  ( 0.000000000000000000, 0.000000000000000000, 1.000000000000000000 ) ) ;
#56 = CYLINDRICAL_SURFACE ( 'NONE', #84, 3.999999999999998224 ) ;
#57 = PRODUCT ( '59805', '59805', '', ( #97 ) ) ;
#58 = ORIENTED_EDGE ( 'NONE', *, *, #149, .F. ) ;
#59 = PLANE ( 'NONE',  #69 ) ;
#60 = FILL_AREA_STYLE ('',( #119 ) ) ;
#61 = FILL_AREA_STYLE ('',( #124 ) ) ;
#62 = CIRCLE ( 'NONE', #27, 3.000000000000000000 ) ;
#63 = DIRECTION ( 'NONE',  ( 0.000000000000000000, 0.000000000000000000, -1.000000000000000000 ) ) ;
#64 = DIRECTION ( 'NONE',  ( -1.223542297630008506E-16, 1.000000000000000000, -0.000000000000000000 ) ) ;
#65 = DIRECTION ( 'NONE',  ( 0.000000000000000000, 0.000000000000000000, -1.000000000000000000 ) ) ;
#66 = SURFACE_STYLE_FILL_AREA ( #324 ) ;
#67 = LINE ( 'NONE', #186, #192 ) ;
#68 = ADVANCED_FACE ( 'NONE', ( #25 ), #231, .T. ) ;
#69 = AXIS2_PLACEMENT_3D ( 'NONE', #222, #345, #353 ) ;
#70 =( NAMED_UNIT ( * ) SI_UNIT ( $, .STERADIAN. ) SOLID_ANGLE_UNIT ( ) );
#71 = EDGE_LOOP ( 'NONE', ( #336, #37 ) ) ;
#72 = EDGE_CURVE ( 'NONE', #191, #339, #279, .T. ) ;
#73 = VECTOR ( 'NONE', #183, 1000.000000000000000 ) ;
#74 = EDGE_CURVE ( 'NONE', #220, #337, #81, .T. ) ;
#75 = ADVANCED_BREP_SHAPE_REPRESENTATION ( '59805', ( #294, #40, #136 ), #165 ) ;
#76 = DIRECTION ( 'NONE',  ( -1.000000000000000000, 0.000000000000000000, 0.000000000000000000 ) ) ;
#77 = ORIENTED_EDGE ( 'NONE', *, *, #47, .T. ) ;
#78 = ORIENTED_EDGE ( 'NONE', *, *, #205, .F. ) ;
#79 = UNCERTAINTY_MEASURE_WITH_UNIT (LENGTH_MEASURE( 1.000000000000000082E-05 ), #8, 'distance_accuracy_value', 'NONE');
#80 = ADVANCED_FACE ( 'NONE', ( #24 ), #59, .T. ) ;
#81 = CIRCLE ( 'NONE', #296, 4.000000000000000000 ) ;
#82 = EDGE_LOOP ( 'NONE', ( #100, #193, #358, #204 ) ) ;
#83 = CIRCLE ( 'NONE', #54, 3.999999999999996447 ) ;
#84 = AXIS2_PLACEMENT_3D ( 'NONE', #269, #4, #122 ) ;
#85 = CARTESIAN_POINT ( 'NONE',  ( 0.000000000000000000, 1.000000000000000000, -3.000000000000000000 ) ) ;
#86 = SURFACE_SIDE_STYLE ('',( #267 ) ) ;
#87 = CARTESIAN_POINT ( 'NONE',  ( 0.000000000000000000, 0.000000000000000000, -3.000000000000000000 ) ) ;
#88 = CARTESIAN_POINT ( 'NONE',  ( -1.469576158976823750E-15, 75.00000000000000000, 0.000000000000000000 ) ) ;
#89 = COLOUR_RGB ( '',0.7921568627450980005, 0.8196078431372548767, 0.9333333333333333481 ) ;
#90 = TOROIDAL_SURFACE ( 'NONE', #304, 3.000000000000000000, 1.000000000000000000 ) ;
#91 = DIRECTION ( 'NONE',  ( 0.000000000000000000, 0.000000000000000000, -1.000000000000000000 ) ) ;
#92 = FACE_OUTER_BOUND ( 'NONE', #301, .T. ) ;
#93 =( LENGTH_UNIT ( ) NAMED_UNIT ( * ) SI_UNIT ( .MILLI., .METRE. ) );
#94 = FILL_AREA_STYLE ('',( #293 ) ) ;
#95 = DIRECTION ( 'NONE',  ( -0.000000000000000000, -1.000000000000000000, -0.000000000000000000 ) ) ;
#96 = AXIS2_PLACEMENT_3D ( 'NONE', #109, #364, #76 ) ;
#97 = PRODUCT_CONTEXT ( 'NONE', #221, 'mechanical' ) ;
#98 = ORIENTED_EDGE ( 'NONE', *, *, #13, .F. ) ;
#99 = APPLICATION_CONTEXT ( 'automotive_design' ) ;
#100 = ORIENTED_EDGE ( 'NONE', *, *, #170, .F. ) ;
#101 = UNCERTAINTY_MEASURE_WITH_UNIT (LENGTH_MEASURE( 1.000000000000000082E-05 ), #338, 'distance_accuracy_value', 'NONE');
#102 = MECHANICAL_DESIGN_GEOMETRIC_PRESENTATION_REPRESENTATION (  '', ( #272 ), #202 ) ;
#103 = PRESENTATION_LAYER_ASSIGNMENT (  '', '', ( #340 ) ) ;
#104 = MECHANICAL_DESIGN_GEOMETRIC_PRESENTATION_REPRESENTATION (  '', ( #298 ), #180 ) ;
#105 = CARTESIAN_POINT ( 'NONE',  ( 4.898587196589412829E-16, 24.00000000000000000, 4.000000000000000000 ) ) ;
#106 = DIRECTION ( 'NONE',  ( 0.000000000000000000, 0.000000000000000000, -1.000000000000000000 ) ) ;
#107 = UNCERTAINTY_MEASURE_WITH_UNIT (LENGTH_MEASURE( 1.000000000000000082E-05 ), #166, 'distance_accuracy_value', 'NONE');
#108 = VERTEX_POINT ( 'NONE', #3 ) ;
#109 = CARTESIAN_POINT ( 'NONE',  ( 4.770489558936219510E-15, 24.00000000000000000, 0.000000000000000000 ) ) ;
#110 =( GEOMETRIC_REPRESENTATION_CONTEXT ( 3 ) GLOBAL_UNCERTAINTY_ASSIGNED_CONTEXT ( ( #12 ) ) GLOBAL_UNIT_ASSIGNED_CONTEXT ( ( #93, #211, #28 ) ) REPRESENTATION_CONTEXT ( 'NONE', 'WORKASPACE' ) );
#111 = ORIENTED_EDGE ( 'NONE', *, *, #241, .F. ) ;
#112 = FILL_AREA_STYLE_COLOUR ( '', #238 ) ;
#113 = FACE_OUTER_BOUND ( 'NONE', #282, .T. ) ;
#114 = EDGE_CURVE ( 'NONE', #337, #191, #268, .T. ) ;
#115 = PRESENTATION_STYLE_ASSIGNMENT (( #295 ) ) ;
#116 = DIRECTION ( 'NONE',  ( -1.000000000000000000, -1.223542297630008506E-16, 0.000000000000000000 ) ) ;
#117 = FACE_OUTER_BOUND ( 'NONE', #139, .T. ) ;
#118 = COLOUR_RGB ( '',1.000000000000000000, 0.000000000000000000, 0.000000000000000000 ) ;
#119 = FILL_AREA_STYLE_COLOUR ( '', #215 ) ;
#120 = CIRCLE ( 'NONE', #20, 1.000000000000000000 ) ;
#121 = AXIS2_PLACEMENT_3D ( 'NONE', #327, #300, #39 ) ;
#122 = DIRECTION ( 'NONE',  ( -1.000000000000000000, 0.000000000000000000, 0.000000000000000000 ) ) ;
#123 = EDGE_CURVE ( 'NONE', #339, #145, #62, .T. ) ;
#124 = FILL_AREA_STYLE_COLOUR ( '', #349 ) ;
#125 = CARTESIAN_POINT ( 'NONE',  ( 0.000000000000000000, 0.000000000000000000, -4.000000000000000000 ) ) ;
#126 = SURFACE_STYLE_USAGE ( .BOTH. , #86 ) ;
#127 = AXIS2_PLACEMENT_3D ( 'NONE', #173, #225, #116 ) ;
#128 = DIRECTION ( 'NONE',  ( -1.223542297630008506E-16, 1.000000000000000000, -0.000000000000000000 ) ) ;
#129 =( NAMED_UNIT ( * ) SI_UNIT ( $, .STERADIAN. ) SOLID_ANGLE_UNIT ( ) );
#130 = CARTESIAN_POINT ( 'NONE',  ( 0.000000000000000000, 1.000000000000000000, 0.000000000000000000 ) ) ;
#131 = ORIENTED_EDGE ( 'NONE', *, *, #160, .T. ) ;
#132 = STYLED_ITEM ( 'NONE', ( #52 ), #40 ) ;
#133 = MECHANICAL_DESIGN_GEOMETRIC_PRESENTATION_REPRESENTATION (  '', ( #315 ), #110 ) ;
#134 = UNCERTAINTY_MEASURE_WITH_UNIT (LENGTH_MEASURE( 1.000000000000000082E-05 ), #265, 'distance_accuracy_value', 'NONE');
#135 = EDGE_CURVE ( 'NONE', #145, #339, #243, .T. ) ;
#136 = AXIS2_PLACEMENT_3D ( 'NONE', #162, #355, #271 ) ;
#137 = EDGE_LOOP ( 'NONE', ( #318, #306, #305, #359 ) ) ;
#138 = CARTESIAN_POINT ( 'NONE',  ( 3.999999999999996447, 75.00000000000000000, 4.898587196589410857E-16 ) ) ;
#139 = EDGE_LOOP ( 'NONE', ( #77, #309, #98, #288 ) ) ;
#140 = SURFACE_SIDE_STYLE ('',( #312 ) ) ;
#141 =( NAMED_UNIT ( * ) PLANE_ANGLE_UNIT ( ) SI_UNIT ( $, .RADIAN. ) );
#142 = MECHANICAL_DESIGN_GEOMETRIC_PRESENTATION_REPRESENTATION (  '', ( #132 ), #237 ) ;
#143 = CARTESIAN_POINT ( 'NONE',  ( -3.999999999999991562, 24.00000000000000000, 0.000000000000000000 ) ) ;
#144 = FILL_AREA_STYLE_COLOUR ( '', #118 ) ;
#145 = VERTEX_POINT ( 'NONE', #31 ) ;
#146 = DIRECTION ( 'NONE',  ( 0.000000000000000000, 0.000000000000000000, -1.000000000000000000 ) ) ;
#147 =( LENGTH_UNIT ( ) NAMED_UNIT ( * ) SI_UNIT ( .MILLI., .METRE. ) );
#148 = CARTESIAN_POINT ( 'NONE',  ( 0.000000000000000000, 24.00000000000000000, 0.000000000000000000 ) ) ;
#149 = EDGE_CURVE ( 'NONE', #220, #108, #67, .T. ) ;
#150 = STYLED_ITEM ( 'NONE', ( #311 ), #259 ) ;
#151 = DIRECTION ( 'NONE',  ( -0.000000000000000000, -1.000000000000000000, -0.000000000000000000 ) ) ;
#152 = DIRECTION ( 'NONE',  ( 0.000000000000000000, 0.000000000000000000, -1.000000000000000000 ) ) ;
#153 = CARTESIAN_POINT ( 'NONE',  ( 4.000000000000000000, 75.00000000000000000, 4.898587196589412829E-16 ) ) ;
#154 = SURFACE_STYLE_FILL_AREA ( #367 ) ;
#155 = SURFACE_STYLE_FILL_AREA ( #94 ) ;
#156 = PRESENTATION_LAYER_ASSIGNMENT (  '', '', ( #315 ) ) ;
#157 = DIRECTION ( 'NONE',  ( -0.000000000000000000, -1.000000000000000000, -0.000000000000000000 ) ) ;
#158 = PRESENTATION_STYLE_ASSIGNMENT (( #270 ) ) ;
#159 = APPLICATION_PROTOCOL_DEFINITION ( 'draft international standard', 'automotive_design', 1998, #99 ) ;
#160 = EDGE_CURVE ( 'NONE', #275, #214, #362, .T. ) ;
#161 = MECHANICAL_DESIGN_GEOMETRIC_PRESENTATION_REPRESENTATION (  '', ( #150 ), #331 ) ;
#162 = CARTESIAN_POINT ( 'NONE',  ( 0.000000000000000000, 0.000000000000000000, 0.000000000000000000 ) ) ;
#163 = ORIENTED_EDGE ( 'NONE', *, *, #303, .T. ) ;
#164 = CIRCLE ( 'NONE', #369, 4.000000000000000000 ) ;
#165 =( GEOMETRIC_REPRESENTATION_CONTEXT ( 3 ) GLOBAL_UNCERTAINTY_ASSIGNED_CONTEXT ( ( #79 ) ) GLOBAL_UNIT_ASSIGNED_CONTEXT ( ( #8, #38, #70 ) ) REPRESENTATION_CONTEXT ( 'NONE', 'WORKASPACE' ) );
#166 =( LENGTH_UNIT ( ) NAMED_UNIT ( * ) SI_UNIT ( .MILLI., .METRE. ) );
#167 = DIRECTION ( 'NONE',  ( -1.223542297630008506E-16, 1.000000000000000000, -0.000000000000000000 ) ) ;
#168 = ORIENTED_EDGE ( 'NONE', *, *, #123, .T. ) ;
#169 = SURFACE_STYLE_FILL_AREA ( #177 ) ;
#170 = EDGE_CURVE ( 'NONE', #108, #145, #120, .T. ) ;
#171 = CIRCLE ( 'NONE', #5, 4.000000000000000000 ) ;
#172 = PRESENTATION_LAYER_ASSIGNMENT (  '', '', ( #35 ) ) ;
#173 = CARTESIAN_POINT ( 'NONE',  ( 4.770489558936219510E-15, 24.00000000000000000, 0.000000000000000000 ) ) ;
#174 = PRESENTATION_STYLE_ASSIGNMENT (( #366 ) ) ;
#175 = ORIENTED_EDGE ( 'NONE', *, *, #303, .F. ) ;
#176 = EDGE_CURVE ( 'NONE', #214, #275, #11, .T. ) ;
#177 = FILL_AREA_STYLE ('',( #144 ) ) ;
#178 = DIRECTION ( 'NONE',  ( -0.000000000000000000, -1.000000000000000000, -0.000000000000000000 ) ) ;
#179 = SURFACE_STYLE_FILL_AREA ( #60 ) ;
#180 =( GEOMETRIC_REPRESENTATION_CONTEXT ( 3 ) GLOBAL_UNCERTAINTY_ASSIGNED_CONTEXT ( ( #226 ) ) GLOBAL_UNIT_ASSIGNED_CONTEXT ( ( #147, #302, #129 ) ) REPRESENTATION_CONTEXT ( 'NONE', 'WORKASPACE' ) );
#181 = CARTESIAN_POINT ( 'NONE',  ( 4.000000000000000000, 75.00000000000000000, 0.000000000000000000 ) ) ;
#182 = DIRECTION ( 'NONE',  ( 0.000000000000000000, 0.000000000000000000, -1.000000000000000000 ) ) ;
#183 = DIRECTION ( 'NONE',  ( -1.223542297630008506E-16, 1.000000000000000000, -0.000000000000000000 ) ) ;
#184 = SURFACE_SIDE_STYLE ('',( #66 ) ) ;
#185 = EDGE_CURVE ( 'NONE', #244, #275, #266, .T. ) ;
#186 = CARTESIAN_POINT ( 'NONE',  ( 4.898587196589412829E-16, 0.000000000000000000, 4.000000000000000000 ) ) ;
#187 = COLOUR_RGB ( '',1.000000000000000000, 0.000000000000000000, 0.000000000000000000 ) ;
#188 = DIRECTION ( 'NONE',  ( -0.000000000000000000, -1.000000000000000000, -0.000000000000000000 ) ) ;
#189 = ADVANCED_FACE ( 'NONE', ( #36 ), #216, .T. ) ;
#190 = APPLICATION_PROTOCOL_DEFINITION ( 'draft international standard', 'automotive_design', 1998, #221 ) ;
#191 = VERTEX_POINT ( 'NONE', #232 ) ;
#192 = VECTOR ( 'NONE', #209, 1000.000000000000000 ) ;
#193 = ORIENTED_EDGE ( 'NONE', *, *, #205, .T. ) ;
#194 = DIRECTION ( 'NONE',  ( -1.223542297630008506E-16, 1.000000000000000000, -0.000000000000000000 ) ) ;
#195 = ORIENTED_EDGE ( 'NONE', *, *, #72, .F. ) ;
#196 = MECHANICAL_DESIGN_GEOMETRIC_PRESENTATION_REPRESENTATION (  '', ( #297 ), #14 ) ;
#197 = VERTEX_POINT ( 'NONE', #34 ) ;
#198 = CARTESIAN_POINT ( 'NONE',  ( 0.000000000000000000, 0.000000000000000000, 0.000000000000000000 ) ) ;
#199 = FILL_AREA_STYLE ('',( #228 ) ) ;
#200 = FILL_AREA_STYLE ('',( #112 ) ) ;
#201 = ORIENTED_EDGE ( 'NONE', *, *, #74, .T. ) ;
#202 =( GEOMETRIC_REPRESENTATION_CONTEXT ( 3 ) GLOBAL_UNCERTAINTY_ASSIGNED_CONTEXT ( ( #19 ) ) GLOBAL_UNIT_ASSIGNED_CONTEXT ( ( #17, #141, #227 ) ) REPRESENTATION_CONTEXT ( 'NONE', 'WORKASPACE' ) );
#203 = DIRECTION ( 'NONE',  ( -1.000000000000000000, 0.000000000000000000, 0.000000000000000000 ) ) ;
#204 = ORIENTED_EDGE ( 'NONE', *, *, #135, .F. ) ;
#205 = EDGE_CURVE ( 'NONE', #108, #191, #164, .T. ) ;
#206 = SURFACE_SIDE_STYLE ('',( #154 ) ) ;
#207 = SURFACE_SIDE_STYLE ('',( #155 ) ) ;
#208 = PRESENTATION_LAYER_ASSIGNMENT (  '', '', ( #150 ) ) ;
#209 = DIRECTION ( 'NONE',  ( -0.000000000000000000, -1.000000000000000000, -0.000000000000000000 ) ) ;
#210 = ADVANCED_FACE ( 'NONE', ( #213 ), #329, .F. ) ;
#211 =( NAMED_UNIT ( * ) PLANE_ANGLE_UNIT ( ) SI_UNIT ( $, .RADIAN. ) );
#212 = AXIS2_PLACEMENT_3D ( 'NONE', #88, #128, #239 ) ;
#213 = FACE_OUTER_BOUND ( 'NONE', #361, .T. ) ;
#214 = VERTEX_POINT ( 'NONE', #153 ) ;
#215 = COLOUR_RGB ( '',1.000000000000000000, 0.000000000000000000, 0.000000000000000000 ) ;
#216 = TOROIDAL_SURFACE ( 'NONE', #41, 3.000000000000000000, 1.000000000000000000 ) ;
#217 =( GEOMETRIC_REPRESENTATION_CONTEXT ( 3 ) GLOBAL_UNCERTAINTY_ASSIGNED_CONTEXT ( ( #365 ) ) GLOBAL_UNIT_ASSIGNED_CONTEXT ( ( #233, #29, #230 ) ) REPRESENTATION_CONTEXT ( 'NONE', 'WORKASPACE' ) );
#218 = PRODUCT_DEFINITION_CONTEXT ( 'detailed design', #99, 'design' ) ;
#219 = SURFACE_STYLE_FILL_AREA ( #200 ) ;
#220 = VERTEX_POINT ( 'NONE', #105 ) ;
#221 = APPLICATION_CONTEXT ( 'automotive_design' ) ;
#222 = CARTESIAN_POINT ( 'NONE',  ( 0.000000000000000000, 24.00000000000000000, 0.000000000000000000 ) ) ;
#223 = AXIS2_PLACEMENT_3D ( 'NONE', #351, #347, #91 ) ;
#224 = ORIENTED_EDGE ( 'NONE', *, *, #13, .T. ) ;
#225 = DIRECTION ( 'NONE',  ( -1.223542297630008506E-16, 1.000000000000000000, 0.000000000000000000 ) ) ;
#226 = UNCERTAINTY_MEASURE_WITH_UNIT (LENGTH_MEASURE( 1.000000000000000082E-05 ), #147, 'distance_accuracy_value', 'NONE');
#227 =( NAMED_UNIT ( * ) SI_UNIT ( $, .STERADIAN. ) SOLID_ANGLE_UNIT ( ) );
#228 = FILL_AREA_STYLE_COLOUR ( '', #89 ) ;
#229 = CIRCLE ( 'NONE', #96, 3.999999999999996447 ) ;
#230 =( NAMED_UNIT ( * ) SI_UNIT ( $, .STERADIAN. ) SOLID_ANGLE_UNIT ( ) );
#231 = PLANE ( 'NONE',  #33 ) ;
#232 = CARTESIAN_POINT ( 'NONE',  ( 0.000000000000000000, 1.000000000000000000, -4.000000000000000000 ) ) ;
#233 =( LENGTH_UNIT ( ) NAMED_UNIT ( * ) SI_UNIT ( .MILLI., .METRE. ) );
#234 = EDGE_CURVE ( 'NONE', #197, #214, #50, .T. ) ;
#235 = CARTESIAN_POINT ( 'NONE',  ( 0.000000000000000000, 0.000000000000000000, 0.000000000000000000 ) ) ;
#236 = FILL_AREA_STYLE_COLOUR ( '', #277 ) ;
#237 =( GEOMETRIC_REPRESENTATION_CONTEXT ( 3 ) GLOBAL_UNCERTAINTY_ASSIGNED_CONTEXT ( ( #23 ) ) GLOBAL_UNIT_ASSIGNED_CONTEXT ( ( #49, #253, #283 ) ) REPRESENTATION_CONTEXT ( 'NONE', 'WORKASPACE' ) );
#238 = COLOUR_RGB ( '',1.000000000000000000, 0.000000000000000000, 0.000000000000000000 ) ;
#239 = DIRECTION ( 'NONE',  ( -1.000000000000000000, 0.000000000000000000, 0.000000000000000000 ) ) ;
#240 = SHAPE_DEFINITION_REPRESENTATION ( #261, #75 ) ;
#241 = EDGE_CURVE ( 'NONE', #244, #197, #229, .T. ) ;
#242 = ORIENTED_EDGE ( 'NONE', *, *, #185, .T. ) ;
#243 = CIRCLE ( 'NONE', #223, 3.000000000000000000 ) ;
#244 = VERTEX_POINT ( 'NONE', #143 ) ;
#245 = ORIENTED_EDGE ( 'NONE', *, *, #114, .T. ) ;
#246 = AXIS2_PLACEMENT_3D ( 'NONE', #85, #21, #55 ) ;
#247 = AXIS2_PLACEMENT_3D ( 'NONE', #370, #317, #152 ) ;
#248 = DIRECTION ( 'NONE',  ( -0.000000000000000000, -1.000000000000000000, -0.000000000000000000 ) ) ;
#249 = FACE_OUTER_BOUND ( 'NONE', #286, .T. ) ;
#250 = PRODUCT_RELATED_PRODUCT_CATEGORY ( 'part', '', ( #57 ) ) ;
#251 = SURFACE_STYLE_USAGE ( .BOTH. , #140 ) ;
#252 = DIRECTION ( 'NONE',  ( -0.000000000000000000, -1.000000000000000000, -0.000000000000000000 ) ) ;
#253 =( NAMED_UNIT ( * ) PLANE_ANGLE_UNIT ( ) SI_UNIT ( $, .RADIAN. ) );
#254 = CIRCLE ( 'NONE', #51, 4.000000000000000000 ) ;
#255 = SURFACE_STYLE_USAGE ( .BOTH. , #363 ) ;
#256 = VECTOR ( 'NONE', #188, 1000.000000000000000 ) ;
#257 = CARTESIAN_POINT ( 'NONE',  ( -4.000000000000003553, 75.00000000000000000, 0.000000000000000000 ) ) ;
#258 = CARTESIAN_POINT ( 'NONE',  ( 0.000000000000000000, 1.000000000000000000, 0.000000000000000000 ) ) ;
#259 = ADVANCED_FACE ( 'NONE', ( #249 ), #90, .T. ) ;
#260 = FILL_AREA_STYLE_COLOUR ( '', #187 ) ;
#261 = PRODUCT_DEFINITION_SHAPE ( 'NONE', 'NONE',  #325 ) ;
#262 = DIRECTION ( 'NONE',  ( -0.000000000000000000, -1.000000000000000000, -0.000000000000000000 ) ) ;
#263 =( NAMED_UNIT ( * ) SI_UNIT ( $, .STERADIAN. ) SOLID_ANGLE_UNIT ( ) );
#264 = MECHANICAL_DESIGN_GEOMETRIC_PRESENTATION_REPRESENTATION (  '', ( #340 ), #280 ) ;
#265 =( LENGTH_UNIT ( ) NAMED_UNIT ( * ) SI_UNIT ( .MILLI., .METRE. ) );
#266 = LINE ( 'NONE', #6, #73 ) ;
#267 = SURFACE_STYLE_FILL_AREA ( #61 ) ;
#268 = LINE ( 'NONE', #125, #256 ) ;
#269 = CARTESIAN_POINT ( 'NONE',  ( -1.469576158976823750E-15, 75.00000000000000000, 0.000000000000000000 ) ) ;
#270 = SURFACE_STYLE_USAGE ( .BOTH. , #207 ) ;
#271 = DIRECTION ( 'NONE',  ( 1.000000000000000000, 0.000000000000000000, 0.000000000000000000 ) ) ;
#272 = STYLED_ITEM ( 'NONE', ( #316 ), #68 ) ;
#273 = CARTESIAN_POINT ( 'NONE',  ( 3.673940397442059868E-16, 1.000000000000000000, 3.000000000000000000 ) ) ;
#274 = CARTESIAN_POINT ( 'NONE',  ( 0.000000000000000000, 1.000000000000000000, 0.000000000000000000 ) ) ;
#275 = VERTEX_POINT ( 'NONE', #257 ) ;
#276 = COLOUR_RGB ( '',1.000000000000000000, 0.000000000000000000, 0.000000000000000000 ) ;
#277 = COLOUR_RGB ( '',1.000000000000000000, 0.000000000000000000, 0.000000000000000000 ) ;
#278 = ORIENTED_EDGE ( 'NONE', *, *, #176, .T. ) ;
#279 = CIRCLE ( 'NONE', #246, 1.000000000000000000 ) ;
#280 =( GEOMETRIC_REPRESENTATION_CONTEXT ( 3 ) GLOBAL_UNCERTAINTY_ASSIGNED_CONTEXT ( ( #101 ) ) GLOBAL_UNIT_ASSIGNED_CONTEXT ( ( #338, #287, #263 ) ) REPRESENTATION_CONTEXT ( 'NONE', 'WORKASPACE' ) );
#281 = PLANE ( 'NONE',  #127 ) ;
#282 = EDGE_LOOP ( 'NONE', ( #111, #175 ) ) ;
#283 =( NAMED_UNIT ( * ) SI_UNIT ( $, .STERADIAN. ) SOLID_ANGLE_UNIT ( ) );
#284 = PRESENTATION_LAYER_ASSIGNMENT (  '', '', ( #132 ) ) ;
#285 =( NAMED_UNIT ( * ) PLANE_ANGLE_UNIT ( ) SI_UNIT ( $, .RADIAN. ) );
#286 = EDGE_LOOP ( 'NONE', ( #224, #330, #10, #195 ) ) ;
#287 =( NAMED_UNIT ( * ) PLANE_ANGLE_UNIT ( ) SI_UNIT ( $, .RADIAN. ) );
#288 = ORIENTED_EDGE ( 'NONE', *, *, #114, .F. ) ;
#289 = DIRECTION ( 'NONE',  ( 0.000000000000000000, -1.000000000000000000, -0.000000000000000000 ) ) ;
#290 = CARTESIAN_POINT ( 'NONE',  ( 0.000000000000000000, 24.00000000000000000, -4.000000000000000000 ) ) ;
#291 = DIRECTION ( 'NONE',  ( 1.223542297630008506E-16, -1.000000000000000000, 0.000000000000000000 ) ) ;
#292 = FACE_OUTER_BOUND ( 'NONE', #42, .T. ) ;
#293 = FILL_AREA_STYLE_COLOUR ( '', #276 ) ;
#294 = MANIFOLD_SOLID_BREP ( 'Revolve - Cutting Edge', #348 ) ;
#295 = SURFACE_STYLE_USAGE ( .BOTH. , #184 ) ;
#296 = AXIS2_PLACEMENT_3D ( 'NONE', #319, #252, #146 ) ;
#297 = STYLED_ITEM ( 'NONE', ( #26 ), #343 ) ;
#298 = STYLED_ITEM ( 'NONE', ( #115 ), #357 ) ;
#299 = DIRECTION ( 'NONE',  ( 1.000000000000000000, 0.000000000000000000, -1.224646799147353207E-16 ) ) ;
#300 = DIRECTION ( 'NONE',  ( -0.000000000000000000, -1.000000000000000000, -0.000000000000000000 ) ) ;
#301 = EDGE_LOOP ( 'NONE', ( #58, #201, #245, #78 ) ) ;
#302 =( NAMED_UNIT ( * ) PLANE_ANGLE_UNIT ( ) SI_UNIT ( $, .RADIAN. ) );
#303 = EDGE_CURVE ( 'NONE', #197, #244, #83, .T. ) ;
#304 = AXIS2_PLACEMENT_3D ( 'NONE', #334, #178, #182 ) ;
#305 = ORIENTED_EDGE ( 'NONE', *, *, #160, .F. ) ;
#306 = ORIENTED_EDGE ( 'NONE', *, *, #234, .T. ) ;
#307 = CLOSED_SHELL ( 'NONE', ( #9, #43, #352, #210 ) ) ;
#308 = SURFACE_SIDE_STYLE ('',( #219 ) ) ;
#309 = ORIENTED_EDGE ( 'NONE', *, *, #149, .T. ) ;
#310 = DIRECTION ( 'NONE',  ( 0.000000000000000000, 0.000000000000000000, -1.000000000000000000 ) ) ;
#311 = PRESENTATION_STYLE_ASSIGNMENT (( #313 ) ) ;
#312 = SURFACE_STYLE_FILL_AREA ( #199 ) ;
#313 = SURFACE_STYLE_USAGE ( .BOTH. , #308 ) ;
#314 = ORIENTED_EDGE ( 'NONE', *, *, #135, .T. ) ;
#315 = STYLED_ITEM ( 'NONE', ( #158 ), #189 ) ;
#316 = PRESENTATION_STYLE_ASSIGNMENT (( #255 ) ) ;
#317 = DIRECTION ( 'NONE',  ( -0.000000000000000000, -1.000000000000000000, -0.000000000000000000 ) ) ;
#318 = ORIENTED_EDGE ( 'NONE', *, *, #241, .T. ) ;
#319 = CARTESIAN_POINT ( 'NONE',  ( 0.000000000000000000, 24.00000000000000000, 0.000000000000000000 ) ) ;
#320 = CYLINDRICAL_SURFACE ( 'NONE', #247, 4.000000000000000000 ) ;
#321 = VECTOR ( 'NONE', #194, 1000.000000000000000 ) ;
#322 =( NAMED_UNIT ( * ) SI_UNIT ( $, .STERADIAN. ) SOLID_ANGLE_UNIT ( ) );
#323 = DIRECTION ( 'NONE',  ( -1.224646799147352961E-16, 0.000000000000000000, -1.000000000000000000 ) ) ;
#324 = FILL_AREA_STYLE ('',( #236 ) ) ;
#325 = PRODUCT_DEFINITION ( 'UNKNOWN', '', #332, #218 ) ;
#326 = DIRECTION ( 'NONE',  ( -1.223542297630008506E-16, 1.000000000000000000, -0.000000000000000000 ) ) ;
#327 = CARTESIAN_POINT ( 'NONE',  ( 0.000000000000000000, 0.000000000000000000, 0.000000000000000000 ) ) ;
#328 = AXIS2_PLACEMENT_3D ( 'NONE', #333, #167, #335 ) ;
#329 = PLANE ( 'NONE',  #45 ) ;
#330 = ORIENTED_EDGE ( 'NONE', *, *, #170, .T. ) ;
#331 =( GEOMETRIC_REPRESENTATION_CONTEXT ( 3 ) GLOBAL_UNCERTAINTY_ASSIGNED_CONTEXT ( ( #107 ) ) GLOBAL_UNIT_ASSIGNED_CONTEXT ( ( #166, #285, #22 ) ) REPRESENTATION_CONTEXT ( 'NONE', 'WORKASPACE' ) );
#332 = PRODUCT_DEFINITION_FORMATION_WITH_SPECIFIED_SOURCE ( 'ANY', '', #57, .NOT_KNOWN. ) ;
#333 = CARTESIAN_POINT ( 'NONE',  ( -1.469576158976823750E-15, 75.00000000000000000, 0.000000000000000000 ) ) ;
#334 = CARTESIAN_POINT ( 'NONE',  ( 0.000000000000000000, 1.000000000000000000, 0.000000000000000000 ) ) ;
#335 = DIRECTION ( 'NONE',  ( -1.000000000000000000, 0.000000000000000000, 0.000000000000000000 ) ) ;
#336 = ORIENTED_EDGE ( 'NONE', *, *, #47, .F. ) ;
#337 = VERTEX_POINT ( 'NONE', #290 ) ;
#338 =( LENGTH_UNIT ( ) NAMED_UNIT ( * ) SI_UNIT ( .MILLI., .METRE. ) );
#339 = VERTEX_POINT ( 'NONE', #87 ) ;
#340 = STYLED_ITEM ( 'NONE', ( #174 ), #80 ) ;
#341 = AXIS2_PLACEMENT_3D ( 'NONE', #354, #326, #1 ) ;
#342 =( NAMED_UNIT ( * ) PLANE_ANGLE_UNIT ( ) SI_UNIT ( $, .RADIAN. ) );
#343 = ADVANCED_FACE ( 'NONE', ( #117 ), #320, .T. ) ;
#344 = CARTESIAN_POINT ( 'NONE',  ( 4.770489558936219510E-15, 24.00000000000000000, 0.000000000000000000 ) ) ;
#345 = DIRECTION ( 'NONE',  ( 0.000000000000000000, 1.000000000000000000, 0.000000000000000000 ) ) ;
#346 = PRESENTATION_STYLE_ASSIGNMENT (( #126 ) ) ;
#347 = DIRECTION ( 'NONE',  ( -0.000000000000000000, -1.000000000000000000, -0.000000000000000000 ) ) ;
#348 = CLOSED_SHELL ( 'NONE', ( #343, #259, #68, #189, #357, #80 ) ) ;
#349 = COLOUR_RGB ( '',0.7921568627450980005, 0.8196078431372548767, 0.9333333333333333481 ) ;
#350 = PRESENTATION_LAYER_ASSIGNMENT (  '', '', ( #298 ) ) ;
#351 = CARTESIAN_POINT ( 'NONE',  ( 0.000000000000000000, 0.000000000000000000, 0.000000000000000000 ) ) ;
#352 = ADVANCED_FACE ( 'NONE', ( #292 ), #56, .T. ) ;
#353 = DIRECTION ( 'NONE',  ( 0.000000000000000000, -0.000000000000000000, 1.000000000000000000 ) ) ;
#354 = CARTESIAN_POINT ( 'NONE',  ( -1.469576158976823750E-15, 75.00000000000000000, 0.000000000000000000 ) ) ;
#355 = DIRECTION ( 'NONE',  ( 0.000000000000000000, 0.000000000000000000, 1.000000000000000000 ) ) ;
#356 = PRESENTATION_LAYER_ASSIGNMENT (  '', '', ( #297 ) ) ;
#357 = ADVANCED_FACE ( 'NONE', ( #92 ), #32, .T. ) ;
#358 = ORIENTED_EDGE ( 'NONE', *, *, #72, .T. ) ;
#359 = ORIENTED_EDGE ( 'NONE', *, *, #185, .F. ) ;
#360 = SURFACE_SIDE_STYLE ('',( #169 ) ) ;
#361 = EDGE_LOOP ( 'NONE', ( #131, #278 ) ) ;
#362 = CIRCLE ( 'NONE', #341, 4.000000000000001776 ) ;
#363 = SURFACE_SIDE_STYLE ('',( #179 ) ) ;
#364 = DIRECTION ( 'NONE',  ( -1.223542297630008506E-16, 1.000000000000000000, -0.000000000000000000 ) ) ;
#365 = UNCERTAINTY_MEASURE_WITH_UNIT (LENGTH_MEASURE( 1.000000000000000082E-05 ), #233, 'distance_accuracy_value', 'NONE');
#366 = SURFACE_STYLE_USAGE ( .BOTH. , #360 ) ;
#367 = FILL_AREA_STYLE ('',( #260 ) ) ;
#368 = DIRECTION ( 'NONE',  ( 0.000000000000000000, 0.000000000000000000, -1.000000000000000000 ) ) ;
#369 = AXIS2_PLACEMENT_3D ( 'NONE', #130, #95, #63 ) ;
#370 = CARTESIAN_POINT ( 'NONE',  ( 0.000000000000000000, 0.000000000000000000, 0.000000000000000000 ) ) ;
ENDSEC;
END-ISO-10303-21;
