ISO-10303-21;
HEADER;
FILE_DESCRIPTION (( 'STEP AP214' ),
    '1' );
FILE_NAME ('Micro_SEM-125-04.STEP',
    '2021-09-02T01:32:14',
    ( '' ),
    ( '' ),
    'SwSTEP 2.0',
    'SolidWorks 2020',
    '' );
FILE_SCHEMA (( 'AUTOMOTIVE_DESIGN' ));
ENDSEC;

DATA;
#1 = DIRECTION ( 'NONE',  ( -0.0000000000000000000, -0.0000000000000000000, -1.000000000000000000 ) ) ;
#2 = LINE ( 'NONE', #41, #146 ) ;
#3 =( LENGTH_UNIT ( ) NAMED_UNIT ( * ) SI_UNIT ( $, .METRE. ) );
#4 = AXIS2_PLACEMENT_3D ( 'NONE', #189, #84, #188 ) ;
#5 = CARTESIAN_POINT ( 'NONE',  ( -0.06243749999999997913, 7.646388452176288915E-18, 0.2500000000000000000 ) ) ;
#6 = CARTESIAN_POINT ( 'NONE',  ( 0.04750000000000064587, 6.735557395310482421E-18, 1.500000000000000222 ) ) ;
#7 = DIRECTION ( 'NONE',  ( -1.000000000000000000, 0.0000000000000000000, 0.0000000000000000000 ) ) ;
#8 = ORIENTED_EDGE ( 'NONE', *, *, #198, .F. ) ;
#9 = CARTESIAN_POINT ( 'NONE',  ( 0.0000000000000000000, 0.0000000000000000000, 0.0000000000000000000 ) ) ;
#10 = AXIS2_PLACEMENT_3D ( 'NONE', #101, #237, #91 ) ;
#11 = EDGE_LOOP ( 'NONE', ( #181, #244, #222, #113 ) ) ;
#12 = AXIS2_PLACEMENT_3D ( 'NONE', #105, #298, #235 ) ;
#13 = DIRECTION ( 'NONE',  ( -1.224646799147353454E-16, -0.0000000000000000000, -1.000000000000000000 ) ) ;
#14 = ADVANCED_FACE ( 'NONE', ( #38 ), #290, .T. ) ;
#15 = DIRECTION ( 'NONE',  ( -0.0000000000000000000, -0.0000000000000000000, -1.000000000000000000 ) ) ;
#16 = DIRECTION ( 'NONE',  ( 1.000000000000000000, 0.0000000000000000000, 0.0000000000000000000 ) ) ;
#17 = EDGE_CURVE ( 'NONE', #158, #63, #55, .T. ) ;
#18 = CIRCLE ( 'NONE', #259, 0.06250000000000000000 ) ;
#19 = CIRCLE ( 'NONE', #168, 0.04750000000000064587 ) ;
#20 =( NAMED_UNIT ( * ) SI_UNIT ( $, .STERADIAN. ) SOLID_ANGLE_UNIT ( ) );
#21 = DIRECTION ( 'NONE',  ( 0.7071067811865456854, 8.659560562354911904E-17, -0.7071067811865493491 ) ) ;
#22 = EDGE_CURVE ( 'NONE', #63, #56, #68, .T. ) ;
#23 = DIRECTION ( 'NONE',  ( -1.224646799147353454E-16, -0.0000000000000000000, -1.000000000000000000 ) ) ;
#24 = CARTESIAN_POINT ( 'NONE',  ( 0.0000000000000000000, 0.0000000000000000000, 1.485000000000000764 ) ) ;
#25 = ORIENTED_EDGE ( 'NONE', *, *, #129, .T. ) ;
#26 = MECHANICAL_DESIGN_GEOMETRIC_PRESENTATION_REPRESENTATION (  '', ( #220 ), #152 ) ;
#27 = CARTESIAN_POINT ( 'NONE',  ( 0.0000000000000000000, 0.0000000000000000000, 0.0000000000000000000 ) ) ;
#28 = ORIENTED_EDGE ( 'NONE', *, *, #22, .T. ) ;
#29 = SHAPE_DEFINITION_REPRESENTATION ( #34, #50 ) ;
#30 = ORIENTED_EDGE ( 'NONE', *, *, #43, .F. ) ;
#31 = VECTOR ( 'NONE', #260, 39.37007874015748143 ) ;
#32 = EDGE_LOOP ( 'NONE', ( #95, #25, #49, #294 ) ) ;
#33 = CLOSED_SHELL ( 'NONE', ( #65, #72, #232, #185, #14, #253, #287, #194, #119, #60 ) ) ;
#34 = PRODUCT_DEFINITION_SHAPE ( 'NONE', 'NONE',  #160 ) ;
#35 = EDGE_CURVE ( 'NONE', #96, #63, #124, .T. ) ;
#36 = CONICAL_SURFACE ( 'NONE', #231, 0.06243750000000001382, 0.1745329251994338637 ) ;
#37 = PRODUCT_DEFINITION_FORMATION_WITH_SPECIFIED_SOURCE ( 'ANY', '', #283, .NOT_KNOWN. ) ;
#38 = FACE_OUTER_BOUND ( 'NONE', #112, .T. ) ;
#39 = CARTESIAN_POINT ( 'NONE',  ( 0.0000000000000000000, 0.0000000000000000000, 1.500000000000000222 ) ) ;
#40 = AXIS2_PLACEMENT_3D ( 'NONE', #239, #47, #67 ) ;
#41 = CARTESIAN_POINT ( 'NONE',  ( -0.06243750000000001382, 0.0000000000000000000, 7.646388452176288915E-18 ) ) ;
#42 = FACE_OUTER_BOUND ( 'NONE', #204, .T. ) ;
#43 = EDGE_CURVE ( 'NONE', #63, #96, #120, .T. ) ;
#44 = CONICAL_SURFACE ( 'NONE', #203, 0.04750000000000064587, 0.7853981633974457255 ) ;
#45 = DIRECTION ( 'NONE',  ( -1.000000000000000000, 0.0000000000000000000, 0.0000000000000000000 ) ) ;
#46 = FACE_OUTER_BOUND ( 'NONE', #148, .T. ) ;
#47 = DIRECTION ( 'NONE',  ( 0.0000000000000000000, 0.0000000000000000000, 1.000000000000000000 ) ) ;
#48 = DIRECTION ( 'NONE',  ( 1.000000000000000000, 0.0000000000000000000, -0.0000000000000000000 ) ) ;
#49 = ORIENTED_EDGE ( 'NONE', *, *, #213, .F. ) ;
#50 = ADVANCED_BREP_SHAPE_REPRESENTATION ( 'Micro_SEM-125-04', ( #88, #292 ), #247 ) ;
#51 = FACE_OUTER_BOUND ( 'NONE', #282, .T. ) ;
#52 = DIRECTION ( 'NONE',  ( 0.0000000000000000000, 0.0000000000000000000, 1.000000000000000000 ) ) ;
#53 = ORIENTED_EDGE ( 'NONE', *, *, #35, .F. ) ;
#54 = VECTOR ( 'NONE', #21, 39.37007874015748143 ) ;
#55 = LINE ( 'NONE', #172, #286 ) ;
#56 = VERTEX_POINT ( 'NONE', #169 ) ;
#57 = ORIENTED_EDGE ( 'NONE', *, *, #213, .T. ) ;
#58 = AXIS2_PLACEMENT_3D ( 'NONE', #39, #15, #100 ) ;
#59 = PRESENTATION_STYLE_ASSIGNMENT (( #223 ) ) ;
#60 = ADVANCED_FACE ( 'NONE', ( #46 ), #243, .F. ) ;
#61 = ORIENTED_EDGE ( 'NONE', *, *, #140, .F. ) ;
#62 = CARTESIAN_POINT ( 'NONE',  ( 0.06243749999999999994, 7.646388452176287375E-18, -9.478001694819074349E-34 ) ) ;
#63 = VERTEX_POINT ( 'NONE', #127 ) ;
#64 = AXIS2_PLACEMENT_3D ( 'NONE', #175, #299, #109 ) ;
#65 = ADVANCED_FACE ( 'NONE', ( #42 ), #123, .T. ) ;
#66 = CARTESIAN_POINT ( 'NONE',  ( -0.06243749999999997913, 7.650215473423623230E-18, 0.2500000000000000000 ) ) ;
#67 = DIRECTION ( 'NONE',  ( 1.000000000000000000, 0.0000000000000000000, 0.0000000000000000000 ) ) ;
#68 = LINE ( 'NONE', #102, #83 ) ;
#69 = DIRECTION ( 'NONE',  ( 0.0000000000000000000, 0.0000000000000000000, -1.000000000000000000 ) ) ;
#70 = VECTOR ( 'NONE', #205, 39.37007874015748143 ) ;
#71 = DIRECTION ( 'NONE',  ( 0.0000000000000000000, 0.0000000000000000000, -1.000000000000000000 ) ) ;
#72 = ADVANCED_FACE ( 'NONE', ( #130 ), #114, .T. ) ;
#73 = SURFACE_STYLE_FILL_AREA ( #106 ) ;
#74 = VERTEX_POINT ( 'NONE', #267 ) ;
#75 = AXIS2_PLACEMENT_3D ( 'NONE', #27, #52, #48 ) ;
#76 = APPLICATION_PROTOCOL_DEFINITION ( 'draft international standard', 'automotive_design', 1998, #110 ) ;
#77 = EDGE_LOOP ( 'NONE', ( #236, #132, #258, #156 ) ) ;
#78 = EDGE_CURVE ( 'NONE', #275, #96, #193, .T. ) ;
#79 = SURFACE_STYLE_FILL_AREA ( #163 ) ;
#80 = COLOUR_RGB ( '',0.7921568627450980005, 0.8196078431372548767, 0.9333333333333333481 ) ;
#81 = LINE ( 'NONE', #229, #70 ) ;
#82 = EDGE_LOOP ( 'NONE', ( #184, #274 ) ) ;
#83 = VECTOR ( 'NONE', #1, 39.37007874015748143 ) ;
#84 = DIRECTION ( 'NONE',  ( -1.224646799147353454E-16, -0.0000000000000000000, -1.000000000000000000 ) ) ;
#85 = UNCERTAINTY_MEASURE_WITH_UNIT (LENGTH_MEASURE( 1.000000000000000082E-05 ), #226, 'distance_accuracy_value', 'NONE');
#86 = LENGTH_MEASURE_WITH_UNIT ( LENGTH_MEASURE( 0.02539999999999999897 ), #216 );
#87 = PRESENTATION_STYLE_ASSIGNMENT (( #246 ) ) ;
#88 = MANIFOLD_SOLID_BREP ( 'Cut-Revolve1', #33 ) ;
#89 = CARTESIAN_POINT ( 'NONE',  ( 0.0000000000000000000, 0.0000000000000000000, 1.500000000000000222 ) ) ;
#90 = EDGE_LOOP ( 'NONE', ( #176, #273, #57, #61 ) ) ;
#91 = DIRECTION ( 'NONE',  ( -1.000000000000000000, 0.0000000000000000000, 1.224646799147353700E-16 ) ) ;
#92 = ORIENTED_EDGE ( 'NONE', *, *, #263, .F. ) ;
#93 = PRODUCT_RELATED_PRODUCT_CATEGORY ( 'part', '', ( #283 ) ) ;
#94 = LENGTH_MEASURE_WITH_UNIT ( LENGTH_MEASURE( 0.02539999999999999897 ), #138 );
#95 = ORIENTED_EDGE ( 'NONE', *, *, #43, .T. ) ;
#96 = VERTEX_POINT ( 'NONE', #139 ) ;
#97 = UNCERTAINTY_MEASURE_WITH_UNIT (LENGTH_MEASURE( 1.000000000000000082E-05 ), #214, 'distance_accuracy_value', 'NONE');
#98 = PRESENTATION_LAYER_ASSIGNMENT (  '', '', ( #291 ) ) ;
#99 = DIRECTION ( 'NONE',  ( -0.0000000000000000000, -0.0000000000000000000, -1.000000000000000000 ) ) ;
#100 = DIRECTION ( 'NONE',  ( -1.000000000000000000, 0.0000000000000000000, 0.0000000000000000000 ) ) ;
#101 = CARTESIAN_POINT ( 'NONE',  ( 9.364125142994977476E-34, 0.0000000000000000000, 7.646388452176288915E-18 ) ) ;
#102 = CARTESIAN_POINT ( 'NONE',  ( -0.06250000000000000000, 0.0000000000000000000, 1.500000000000000222 ) ) ;
#103 =( NAMED_UNIT ( * ) PLANE_ANGLE_UNIT ( ) SI_UNIT ( $, .RADIAN. ) );
#104 = SURFACE_SIDE_STYLE ('',( #73 ) ) ;
#105 = CARTESIAN_POINT ( 'NONE',  ( 3.065957821073043634E-17, 0.0000000000000000000, 0.2503544551137260044 ) ) ;
#106 = FILL_AREA_STYLE ('',( #201 ) ) ;
#107 = DIRECTION ( 'NONE',  ( -1.224646799147353454E-16, -0.0000000000000000000, -1.000000000000000000 ) ) ;
#108 = AXIS2_PLACEMENT_3D ( 'NONE', #24, #71, #177 ) ;
#109 = DIRECTION ( 'NONE',  ( 1.000000000000000000, 0.0000000000000000000, 0.0000000000000000000 ) ) ;
#110 = APPLICATION_CONTEXT ( 'automotive_design' ) ;
#111 = CARTESIAN_POINT ( 'NONE',  ( 0.0000000000000000000, 0.0000000000000000000, 0.0000000000000000000 ) ) ;
#112 = EDGE_LOOP ( 'NONE', ( #115, #276, #28, #280 ) ) ;
#113 = ORIENTED_EDGE ( 'NONE', *, *, #182, .F. ) ;
#114 = CONICAL_SURFACE ( 'NONE', #64, 0.06243750000000001382, 0.1745329251994338637 ) ;
#115 = ORIENTED_EDGE ( 'NONE', *, *, #129, .F. ) ;
#116 = AXIS2_PLACEMENT_3D ( 'NONE', #256, #141, #186 ) ;
#117 = LINE ( 'NONE', #262, #31 ) ;
#118 = ORIENTED_EDGE ( 'NONE', *, *, #17, .F. ) ;
#119 = ADVANCED_FACE ( 'NONE', ( #215 ), #249, .T. ) ;
#120 = CIRCLE ( 'NONE', #108, 0.06250000000000000000 ) ;
#121 = CARTESIAN_POINT ( 'NONE',  ( 3.061616997868383634E-17, 0.0000000000000000000, 0.2500000000000000000 ) ) ;
#122 = ORIENTED_EDGE ( 'NONE', *, *, #293, .F. ) ;
#123 = CYLINDRICAL_SURFACE ( 'NONE', #145, 0.06243750000000001382 ) ;
#124 = CIRCLE ( 'NONE', #131, 0.06250000000000000000 ) ;
#125 = DIRECTION ( 'NONE',  ( 1.000000000000000000, 0.0000000000000000000, 0.0000000000000000000 ) ) ;
#126 = DIRECTION ( 'NONE',  ( 0.0000000000000000000, 0.0000000000000000000, 1.000000000000000000 ) ) ;
#127 = CARTESIAN_POINT ( 'NONE',  ( -0.06250000000000000000, 0.0000000000000000000, 1.485000000000000764 ) ) ;
#128 = VERTEX_POINT ( 'NONE', #250 ) ;
#129 = EDGE_CURVE ( 'NONE', #96, #74, #117, .T. ) ;
#130 = FACE_OUTER_BOUND ( 'NONE', #90, .T. ) ;
#131 = AXIS2_PLACEMENT_3D ( 'NONE', #242, #238, #191 ) ;
#132 = ORIENTED_EDGE ( 'NONE', *, *, #164, .F. ) ;
#133 =( NAMED_UNIT ( * ) PLANE_ANGLE_UNIT ( ) SI_UNIT ( $, .RADIAN. ) );
#134 = DIRECTION ( 'NONE',  ( -1.224646799147353454E-16, -0.0000000000000000000, -1.000000000000000000 ) ) ;
#135 = EDGE_CURVE ( 'NONE', #128, #165, #207, .T. ) ;
#136 = MECHANICAL_DESIGN_GEOMETRIC_PRESENTATION_REPRESENTATION (  '', ( #291 ), #245 ) ;
#137 = DIRECTION ( 'NONE',  ( 1.000000000000000000, 0.0000000000000000000, 0.0000000000000000000 ) ) ;
#138 =( LENGTH_UNIT ( ) NAMED_UNIT ( * ) SI_UNIT ( $, .METRE. ) );
#139 = CARTESIAN_POINT ( 'NONE',  ( 0.06250000000000000000, 7.654042494670956004E-18, 1.485000000000000764 ) ) ;
#140 = EDGE_CURVE ( 'NONE', #128, #74, #81, .T. ) ;
#141 = DIRECTION ( 'NONE',  ( -1.224646799147353454E-16, -0.0000000000000000000, -1.000000000000000000 ) ) ;
#142 = ORIENTED_EDGE ( 'NONE', *, *, #251, .T. ) ;
#143 = FACE_OUTER_BOUND ( 'NONE', #32, .T. ) ;
#144 = CARTESIAN_POINT ( 'NONE',  ( -0.04750000000000064587, 0.0000000000000000000, 1.500000000000000222 ) ) ;
#145 = AXIS2_PLACEMENT_3D ( 'NONE', #197, #134, #157 ) ;
#146 = VECTOR ( 'NONE', #150, 39.37007874015748143 ) ;
#147 = DIRECTION ( 'NONE',  ( -0.1736481776669311639, 2.126576849575783008E-17, 0.9848077530122080203 ) ) ;
#148 = EDGE_LOOP ( 'NONE', ( #187, #212 ) ) ;
#149 = CARTESIAN_POINT ( 'NONE',  ( 0.04750000000000064587, 5.817072295950006528E-18, 1.500000000000000222 ) ) ;
#150 = DIRECTION ( 'NONE',  ( -1.224646799147353454E-16, -0.0000000000000000000, -1.000000000000000000 ) ) ;
#151 = VECTOR ( 'NONE', #13, 39.37007874015748143 ) ;
#152 =( GEOMETRIC_REPRESENTATION_CONTEXT ( 3 ) GLOBAL_UNCERTAINTY_ASSIGNED_CONTEXT ( ( #85 ) ) GLOBAL_UNIT_ASSIGNED_CONTEXT ( ( #226, #133, #281 ) ) REPRESENTATION_CONTEXT ( 'NONE', 'WORKASPACE' ) );
#153 = FACE_OUTER_BOUND ( 'NONE', #221, .T. ) ;
#154 = VERTEX_POINT ( 'NONE', #265 ) ;
#155 = LINE ( 'NONE', #5, #209 ) ;
#156 = ORIENTED_EDGE ( 'NONE', *, *, #277, .T. ) ;
#157 = DIRECTION ( 'NONE',  ( -1.000000000000000000, 0.0000000000000000000, 1.224646799147353207E-16 ) ) ;
#158 = VERTEX_POINT ( 'NONE', #144 ) ;
#159 = CIRCLE ( 'NONE', #10, 0.06243749999999999994 ) ;
#160 = PRODUCT_DEFINITION ( 'UNKNOWN', '', #37, #228 ) ;
#161 = SURFACE_SIDE_STYLE ('',( #79 ) ) ;
#162 = DIRECTION ( 'NONE',  ( -1.000000000000000000, 0.0000000000000000000, 1.224646799147353207E-16 ) ) ;
#163 = FILL_AREA_STYLE ('',( #254 ) ) ;
#164 = EDGE_CURVE ( 'NONE', #128, #284, #166, .T. ) ;
#165 = VERTEX_POINT ( 'NONE', #62 ) ;
#166 = CIRCLE ( 'NONE', #116, 0.06243750000000001382 ) ;
#167 = CIRCLE ( 'NONE', #12, 0.06250000000000000000 ) ;
#168 = AXIS2_PLACEMENT_3D ( 'NONE', #272, #126, #125 ) ;
#169 = CARTESIAN_POINT ( 'NONE',  ( -0.06249999999999996531, 0.0000000000000000000, 0.2503544551137260044 ) ) ;
#170 = DIRECTION ( 'NONE',  ( -1.000000000000000000, 0.0000000000000000000, 0.0000000000000000000 ) ) ;
#171 = CARTESIAN_POINT ( 'NONE',  ( 0.0000000000000000000, 0.0000000000000000000, 1.500000000000000222 ) ) ;
#172 = CARTESIAN_POINT ( 'NONE',  ( -0.04750000000000064587, 0.0000000000000000000, 1.500000000000000222 ) ) ;
#173 = CIRCLE ( 'NONE', #40, 0.04750000000000064587 ) ;
#174 = CARTESIAN_POINT ( 'NONE',  ( 0.0000000000000000000, 0.0000000000000000000, 1.500000000000000222 ) ) ;
#175 = CARTESIAN_POINT ( 'NONE',  ( 3.061616997868383634E-17, 0.0000000000000000000, 0.2500000000000000000 ) ) ;
#176 = ORIENTED_EDGE ( 'NONE', *, *, #251, .F. ) ;
#177 = DIRECTION ( 'NONE',  ( 1.000000000000000000, 0.0000000000000000000, 0.0000000000000000000 ) ) ;
#178 = DIRECTION ( 'NONE',  ( 0.0000000000000000000, 0.0000000000000000000, 1.000000000000000000 ) ) ;
#179 = ORIENTED_EDGE ( 'NONE', *, *, #135, .T. ) ;
#180 = AXIS2_PLACEMENT_3D ( 'NONE', #111, #227, #162 ) ;
#181 = ORIENTED_EDGE ( 'NONE', *, *, #135, .F. ) ;
#182 = EDGE_CURVE ( 'NONE', #165, #154, #252, .T. ) ;
#183 = CONICAL_SURFACE ( 'NONE', #288, 0.04750000000000064587, 0.7853981633974457255 ) ;
#184 = ORIENTED_EDGE ( 'NONE', *, *, #224, .T. ) ;
#185 = ADVANCED_FACE ( 'NONE', ( #143 ), #233, .T. ) ;
#186 = DIRECTION ( 'NONE',  ( -1.000000000000000000, 0.0000000000000000000, 0.0000000000000000000 ) ) ;
#187 = ORIENTED_EDGE ( 'NONE', *, *, #198, .T. ) ;
#188 = DIRECTION ( 'NONE',  ( -1.000000000000000000, 0.0000000000000000000, 1.224646799147353700E-16 ) ) ;
#189 = CARTESIAN_POINT ( 'NONE',  ( 9.364125142994977476E-34, 0.0000000000000000000, 7.646388452176288915E-18 ) ) ;
#190 = CARTESIAN_POINT ( 'NONE',  ( 3.065957821073043634E-17, 0.0000000000000000000, 0.2503544551137260044 ) ) ;
#191 = DIRECTION ( 'NONE',  ( 1.000000000000000000, 0.0000000000000000000, 0.0000000000000000000 ) ) ;
#192 = DIRECTION ( 'NONE',  ( -1.000000000000000000, 0.0000000000000000000, 0.0000000000000000000 ) ) ;
#193 = LINE ( 'NONE', #149, #54 ) ;
#194 = ADVANCED_FACE ( 'NONE', ( #295 ), #36, .T. ) ;
#195 = DIRECTION ( 'NONE',  ( 1.000000000000000000, 0.0000000000000000000, 0.0000000000000000000 ) ) ;
#196 = DIRECTION ( 'NONE',  ( 0.0000000000000000000, 0.0000000000000000000, -1.000000000000000000 ) ) ;
#197 = CARTESIAN_POINT ( 'NONE',  ( 0.0000000000000000000, 0.0000000000000000000, 0.0000000000000000000 ) ) ;
#198 = EDGE_CURVE ( 'NONE', #154, #165, #159, .T. ) ;
#199 = AXIS2_PLACEMENT_3D ( 'NONE', #266, #23, #170 ) ;
#200 = DIRECTION ( 'NONE',  ( 1.000000000000000000, 0.0000000000000000000, -0.0000000000000000000 ) ) ;
#201 = FILL_AREA_STYLE_COLOUR ( '', #80 ) ;
#202 =( NAMED_UNIT ( * ) PLANE_ANGLE_UNIT ( ) SI_UNIT ( $, .RADIAN. ) );
#203 = AXIS2_PLACEMENT_3D ( 'NONE', #89, #69, #45 ) ;
#204 = EDGE_LOOP ( 'NONE', ( #142, #179, #8, #92 ) ) ;
#205 = DIRECTION ( 'NONE',  ( 0.1736481776669313581, 0.0000000000000000000, 0.9848077530122077983 ) ) ;
#206 = DIMENSIONAL_EXPONENTS ( 1.000000000000000000, 0.0000000000000000000, 0.0000000000000000000, 0.0000000000000000000, 0.0000000000000000000, 0.0000000000000000000, 0.0000000000000000000 ) ;
#207 = LINE ( 'NONE', #296, #151 ) ;
#208 = ORIENTED_EDGE ( 'NONE', *, *, #17, .T. ) ;
#209 = VECTOR ( 'NONE', #147, 39.37007874015747433 ) ;
#210 = DIRECTION ( 'NONE',  ( 1.224646799147353454E-16, 0.0000000000000000000, 1.000000000000000000 ) ) ;
#211 = DIMENSIONAL_EXPONENTS ( 1.000000000000000000, 0.0000000000000000000, 0.0000000000000000000, 0.0000000000000000000, 0.0000000000000000000, 0.0000000000000000000, 0.0000000000000000000 ) ;
#212 = ORIENTED_EDGE ( 'NONE', *, *, #182, .T. ) ;
#213 = EDGE_CURVE ( 'NONE', #56, #74, #18, .T. ) ;
#214 =( CONVERSION_BASED_UNIT ( 'INCH', #86 ) LENGTH_UNIT ( ) NAMED_UNIT ( #268 ) );
#215 = FACE_OUTER_BOUND ( 'NONE', #11, .T. ) ;
#216 =( LENGTH_UNIT ( ) NAMED_UNIT ( * ) SI_UNIT ( $, .METRE. ) );
#217 = PLANE ( 'NONE',  #297 ) ;
#218 = ORIENTED_EDGE ( 'NONE', *, *, #224, .F. ) ;
#219 = LENGTH_MEASURE_WITH_UNIT ( LENGTH_MEASURE( 0.02539999999999999897 ), #3 );
#220 = STYLED_ITEM ( 'NONE', ( #59 ), #50 ) ;
#221 = EDGE_LOOP ( 'NONE', ( #248, #218, #208, #53 ) ) ;
#222 = ORIENTED_EDGE ( 'NONE', *, *, #263, .T. ) ;
#223 = SURFACE_STYLE_USAGE ( .BOTH. , #161 ) ;
#224 = EDGE_CURVE ( 'NONE', #158, #275, #173, .T. ) ;
#225 = PRODUCT_CONTEXT ( 'NONE', #255, 'mechanical' ) ;
#226 =( CONVERSION_BASED_UNIT ( 'INCH', #94 ) LENGTH_UNIT ( ) NAMED_UNIT ( #211 ) );
#227 = DIRECTION ( 'NONE',  ( -1.224646799147353454E-16, -0.0000000000000000000, -1.000000000000000000 ) ) ;
#228 = PRODUCT_DEFINITION_CONTEXT ( 'detailed design', #110, 'design' ) ;
#229 = CARTESIAN_POINT ( 'NONE',  ( 0.06243750000000004852, 0.0000000000000000000, 0.2500000000000000000 ) ) ;
#230 = EDGE_CURVE ( 'NONE', #284, #56, #155, .T. ) ;
#231 = AXIS2_PLACEMENT_3D ( 'NONE', #121, #210, #16 ) ;
#232 = ADVANCED_FACE ( 'NONE', ( #51 ), #183, .T. ) ;
#233 = CYLINDRICAL_SURFACE ( 'NONE', #58, 0.06250000000000000000 ) ;
#234 = UNCERTAINTY_MEASURE_WITH_UNIT (LENGTH_MEASURE( 1.000000000000000082E-05 ), #289, 'distance_accuracy_value', 'NONE');
#235 = DIRECTION ( 'NONE',  ( 1.000000000000000000, 0.0000000000000000000, 0.0000000000000000000 ) ) ;
#236 = ORIENTED_EDGE ( 'NONE', *, *, #230, .F. ) ;
#237 = DIRECTION ( 'NONE',  ( -1.224646799147353454E-16, -0.0000000000000000000, -1.000000000000000000 ) ) ;
#238 = DIRECTION ( 'NONE',  ( 0.0000000000000000000, 0.0000000000000000000, -1.000000000000000000 ) ) ;
#239 = CARTESIAN_POINT ( 'NONE',  ( 0.0000000000000000000, 0.0000000000000000000, 1.500000000000000222 ) ) ;
#240 = PRESENTATION_LAYER_ASSIGNMENT (  '', '', ( #220 ) ) ;
#241 = DIRECTION ( 'NONE',  ( 0.0000000000000000000, 0.0000000000000000000, 1.000000000000000000 ) ) ;
#242 = CARTESIAN_POINT ( 'NONE',  ( 0.0000000000000000000, 0.0000000000000000000, 1.485000000000000764 ) ) ;
#243 = PLANE ( 'NONE',  #75 ) ;
#244 = ORIENTED_EDGE ( 'NONE', *, *, #164, .T. ) ;
#245 =( GEOMETRIC_REPRESENTATION_CONTEXT ( 3 ) GLOBAL_UNCERTAINTY_ASSIGNED_CONTEXT ( ( #234 ) ) GLOBAL_UNIT_ASSIGNED_CONTEXT ( ( #289, #202, #285 ) ) REPRESENTATION_CONTEXT ( 'NONE', 'WORKASPACE' ) );
#246 = SURFACE_STYLE_USAGE ( .BOTH. , #104 ) ;
#247 =( GEOMETRIC_REPRESENTATION_CONTEXT ( 3 ) GLOBAL_UNCERTAINTY_ASSIGNED_CONTEXT ( ( #97 ) ) GLOBAL_UNIT_ASSIGNED_CONTEXT ( ( #214, #103, #20 ) ) REPRESENTATION_CONTEXT ( 'NONE', 'WORKASPACE' ) );
#248 = ORIENTED_EDGE ( 'NONE', *, *, #78, .F. ) ;
#249 = CYLINDRICAL_SURFACE ( 'NONE', #180, 0.06243750000000001382 ) ;
#250 = CARTESIAN_POINT ( 'NONE',  ( 0.06243750000000004852, 0.0000000000000000000, 0.2500000000000000000 ) ) ;
#251 = EDGE_CURVE ( 'NONE', #284, #128, #264, .T. ) ;
#252 = CIRCLE ( 'NONE', #4, 0.06243749999999999994 ) ;
#253 = ADVANCED_FACE ( 'NONE', ( #271 ), #217, .T. ) ;
#254 = FILL_AREA_STYLE_COLOUR ( '', #279 ) ;
#255 = APPLICATION_CONTEXT ( 'automotive_design' ) ;
#256 = CARTESIAN_POINT ( 'NONE',  ( 3.061616997868383634E-17, 0.0000000000000000000, 0.2500000000000000000 ) ) ;
#257 = ORIENTED_EDGE ( 'NONE', *, *, #78, .T. ) ;
#258 = ORIENTED_EDGE ( 'NONE', *, *, #140, .T. ) ;
#259 = AXIS2_PLACEMENT_3D ( 'NONE', #190, #107, #195 ) ;
#260 = DIRECTION ( 'NONE',  ( -0.0000000000000000000, -0.0000000000000000000, -1.000000000000000000 ) ) ;
#261 = CARTESIAN_POINT ( 'NONE',  ( 0.0000000000000000000, 0.0000000000000000000, 1.500000000000000222 ) ) ;
#262 = CARTESIAN_POINT ( 'NONE',  ( 0.06250000000000000000, 7.654042494670956004E-18, 1.500000000000000222 ) ) ;
#263 = EDGE_CURVE ( 'NONE', #284, #154, #2, .T. ) ;
#264 = CIRCLE ( 'NONE', #199, 0.06243750000000001382 ) ;
#265 = CARTESIAN_POINT ( 'NONE',  ( -0.06243749999999999994, 0.0000000000000000000, 1.529277690435257783E-17 ) ) ;
#266 = CARTESIAN_POINT ( 'NONE',  ( 3.061616997868383634E-17, 0.0000000000000000000, 0.2500000000000000000 ) ) ;
#267 = CARTESIAN_POINT ( 'NONE',  ( 0.06250000000000002776, 7.654042494670959086E-18, 0.2503544551137260044 ) ) ;
#268 = DIMENSIONAL_EXPONENTS ( 1.000000000000000000, 0.0000000000000000000, 0.0000000000000000000, 0.0000000000000000000, 0.0000000000000000000, 0.0000000000000000000, 0.0000000000000000000 ) ;
#269 = APPLICATION_PROTOCOL_DEFINITION ( 'draft international standard', 'automotive_design', 1998, #255 ) ;
#270 = DIRECTION ( 'NONE',  ( -0.7071067811865456854, 0.0000000000000000000, -0.7071067811865493491 ) ) ;
#271 = FACE_OUTER_BOUND ( 'NONE', #82, .T. ) ;
#272 = CARTESIAN_POINT ( 'NONE',  ( 0.0000000000000000000, 0.0000000000000000000, 1.500000000000000222 ) ) ;
#273 = ORIENTED_EDGE ( 'NONE', *, *, #230, .T. ) ;
#274 = ORIENTED_EDGE ( 'NONE', *, *, #293, .T. ) ;
#275 = VERTEX_POINT ( 'NONE', #6 ) ;
#276 = ORIENTED_EDGE ( 'NONE', *, *, #35, .T. ) ;
#277 = EDGE_CURVE ( 'NONE', #74, #56, #167, .T. ) ;
#278 = AXIS2_PLACEMENT_3D ( 'NONE', #261, #99, #7 ) ;
#279 = COLOUR_RGB ( '',0.7921568627450980005, 0.8196078431372548767, 0.9333333333333333481 ) ;
#280 = ORIENTED_EDGE ( 'NONE', *, *, #277, .F. ) ;
#281 =( NAMED_UNIT ( * ) SI_UNIT ( $, .STERADIAN. ) SOLID_ANGLE_UNIT ( ) );
#282 = EDGE_LOOP ( 'NONE', ( #122, #257, #30, #118 ) ) ;
#283 = PRODUCT ( 'Micro_SEM-125-04', 'Micro_SEM-125-04', '', ( #225 ) ) ;
#284 = VERTEX_POINT ( 'NONE', #66 ) ;
#285 =( NAMED_UNIT ( * ) SI_UNIT ( $, .STERADIAN. ) SOLID_ANGLE_UNIT ( ) );
#286 = VECTOR ( 'NONE', #270, 39.37007874015748143 ) ;
#287 = ADVANCED_FACE ( 'NONE', ( #153 ), #44, .T. ) ;
#288 = AXIS2_PLACEMENT_3D ( 'NONE', #174, #196, #192 ) ;
#289 =( CONVERSION_BASED_UNIT ( 'INCH', #219 ) LENGTH_UNIT ( ) NAMED_UNIT ( #206 ) );
#290 = CYLINDRICAL_SURFACE ( 'NONE', #278, 0.06250000000000000000 ) ;
#291 = STYLED_ITEM ( 'NONE', ( #87 ), #88 ) ;
#292 = AXIS2_PLACEMENT_3D ( 'NONE', #9, #178, #137 ) ;
#293 = EDGE_CURVE ( 'NONE', #275, #158, #19, .T. ) ;
#294 = ORIENTED_EDGE ( 'NONE', *, *, #22, .F. ) ;
#295 = FACE_OUTER_BOUND ( 'NONE', #77, .T. ) ;
#296 = CARTESIAN_POINT ( 'NONE',  ( 0.06243750000000001382, 7.646388452176288915E-18, -7.646388452176288915E-18 ) ) ;
#297 = AXIS2_PLACEMENT_3D ( 'NONE', #171, #241, #200 ) ;
#298 = DIRECTION ( 'NONE',  ( -1.224646799147353454E-16, -0.0000000000000000000, -1.000000000000000000 ) ) ;
#299 = DIRECTION ( 'NONE',  ( 1.224646799147353454E-16, 0.0000000000000000000, 1.000000000000000000 ) ) ;
ENDSEC;
END-ISO-10303-21;
