ISO-10303-21;
HEADER;
FILE_DESCRIPTION (( 'STEP AP214' ),
    '1' );
FILE_NAME ('06168.STEP',
    '2023-07-05T16:00:57',
    ( '' ),
    ( '' ),
    'SwSTEP 2.0',
    'SolidWorks 2023',
    '' );
FILE_SCHEMA (( 'AUTOMOTIVE_DESIGN' ));
ENDSEC;

DATA;
#1 = STYLED_ITEM ( 'NONE', ( #219 ), #156 ) ;
#2 = CIRCLE ( 'NONE', #24, 0.2499999999999996947 ) ;
#3 = FILL_AREA_STYLE ('',( #222 ) ) ;
#4 = PRODUCT_DEFINITION ( 'UNKNOWN', '', #23, #16 ) ;
#5 = MECHANICAL_DESIGN_GEOMETRIC_PRESENTATION_REPRESENTATION (  '', ( #202 ), #84 ) ;
#6 = VERTEX_POINT ( 'NONE', #11 ) ;
#7 =( NAMED_UNIT ( * ) PLANE_ANGLE_UNIT ( ) SI_UNIT ( $, .RADIAN. ) );
#8 = ADVANCED_FACE ( 'NONE', ( #180 ), #56, .T. ) ;
#9 = COLOUR_RGB ( '',1.000000000000000000, 0.000000000000000000, 0.000000000000000000 ) ;
#10 = DIRECTION ( 'NONE',  ( 0.000000000000000000, 0.000000000000000000, 1.000000000000000000 ) ) ;
#11 = CARTESIAN_POINT ( 'NONE',  ( 3.061616997868383018E-17, 0.2499999999999991118, -0.2499999999999999722 ) ) ;
#12 = MANIFOLD_SOLID_BREP ( 'Revolve - Cutting Edge', #244 ) ;
#13 = EDGE_LOOP ( 'NONE', ( #43, #160, #122 ) ) ;
#14 = APPLICATION_PROTOCOL_DEFINITION ( 'draft international standard', 'automotive_design', 1998, #199 ) ;
#15 = MECHANICAL_DESIGN_GEOMETRIC_PRESENTATION_REPRESENTATION (  '', ( #127 ), #176 ) ;
#16 = PRODUCT_DEFINITION_CONTEXT ( 'detailed design', #199, 'design' ) ;
#17 = SURFACE_SIDE_STYLE ('',( #185 ) ) ;
#18 = FILL_AREA_STYLE ('',( #114 ) ) ;
#19 = SURFACE_SIDE_STYLE ('',( #89 ) ) ;
#20 = DIRECTION ( 'NONE',  ( 0.000000000000000000, 1.000000000000000000, 0.000000000000000000 ) ) ;
#21 = SURFACE_SIDE_STYLE ('',( #174 ) ) ;
#22 =( CONVERSION_BASED_UNIT ( 'INCH', #58 ) LENGTH_UNIT ( ) NAMED_UNIT ( #133 ) );
#23 = PRODUCT_DEFINITION_FORMATION_WITH_SPECIFIED_SOURCE ( 'ANY', '', #196, .NOT_KNOWN. ) ;
#24 = AXIS2_PLACEMENT_3D ( 'NONE', #197, #95, #154 ) ;
#25 = ORIENTED_EDGE ( 'NONE', *, *, #32, .T. ) ;
#26 = ORIENTED_EDGE ( 'NONE', *, *, #201, .T. ) ;
#27 = LENGTH_MEASURE_WITH_UNIT ( LENGTH_MEASURE( 0.02539999999999999897 ), #101 );
#28 = CARTESIAN_POINT ( 'NONE',  ( 0.2499999999999998057, 3.000000000000000444, 3.061616997868381785E-17 ) ) ;
#29 = APPLICATION_PROTOCOL_DEFINITION ( 'draft international standard', 'automotive_design', 1998, #186 ) ;
#30 = CARTESIAN_POINT ( 'NONE',  ( -0.2499999999999994171, 0.2499999999999992228, 0.000000000000000000 ) ) ;
#31 = CARTESIAN_POINT ( 'NONE',  ( 0.2499999999999999722, 0.2499999999999992784, 3.061616997868383018E-17 ) ) ;
#32 = EDGE_CURVE ( 'NONE', #162, #125, #254, .T. ) ;
#33 = CARTESIAN_POINT ( 'NONE',  ( 0.000000000000000000, 0.2499999999999991118, 0.000000000000000000 ) ) ;
#34 = DIRECTION ( 'NONE',  ( 0.000000000000000000, 0.000000000000000000, -1.000000000000000000 ) ) ;
#35 = AXIS2_PLACEMENT_3D ( 'NONE', #85, #168, #147 ) ;
#36 = CARTESIAN_POINT ( 'NONE',  ( 2.731847993664263711E-16, 0.2499999999999992506, 0.000000000000000000 ) ) ;
#37 = CARTESIAN_POINT ( 'NONE',  ( -0.2500000000000001110, 3.000000000000000444, 0.000000000000000000 ) ) ;
#38 = ADVANCED_FACE ( 'NONE', ( #169 ), #68, .T. ) ;
#39 = FACE_OUTER_BOUND ( 'NONE', #77, .T. ) ;
#40 =( NAMED_UNIT ( * ) PLANE_ANGLE_UNIT ( ) SI_UNIT ( $, .RADIAN. ) );
#41 = ADVANCED_FACE ( 'NONE', ( #126 ), #49, .F. ) ;
#42 = SURFACE_SIDE_STYLE ('',( #80 ) ) ;
#43 = ORIENTED_EDGE ( 'NONE', *, *, #45, .F. ) ;
#44 = ORIENTED_EDGE ( 'NONE', *, *, #201, .F. ) ;
#45 = EDGE_CURVE ( 'NONE', #76, #253, #211, .T. ) ;
#46 = LINE ( 'NONE', #28, #207 ) ;
#47 = COLOUR_RGB ( '',1.000000000000000000, 0.000000000000000000, 0.000000000000000000 ) ;
#48 = EDGE_LOOP ( 'NONE', ( #100, #248, #231 ) ) ;
#49 = PLANE ( 'NONE',  #193 ) ;
#50 = LINE ( 'NONE', #132, #142 ) ;
#51 = CARTESIAN_POINT ( 'NONE',  ( 0.000000000000000000, 0.2499999999999991118, 0.000000000000000000 ) ) ;
#52 = PRESENTATION_LAYER_ASSIGNMENT (  '', '', ( #144 ) ) ;
#53 = FACE_OUTER_BOUND ( 'NONE', #184, .T. ) ;
#54 = ADVANCED_BREP_SHAPE_REPRESENTATION ( '06168', ( #12, #175, #255 ), #153 ) ;
#55 = PRESENTATION_STYLE_ASSIGNMENT (( #94 ) ) ;
#56 = CONICAL_SURFACE ( 'NONE', #190, 39.37007874015762354, 0.7853981633974500554 ) ;
#57 =( GEOMETRIC_REPRESENTATION_CONTEXT ( 3 ) GLOBAL_UNCERTAINTY_ASSIGNED_CONTEXT ( ( #130 ) ) GLOBAL_UNIT_ASSIGNED_CONTEXT ( ( #183, #103, #145 ) ) REPRESENTATION_CONTEXT ( 'NONE', 'WORKASPACE' ) );
#58 = LENGTH_MEASURE_WITH_UNIT ( LENGTH_MEASURE( 0.02539999999999999897 ), #157 );
#59 =( LENGTH_UNIT ( ) NAMED_UNIT ( * ) SI_UNIT ( $, .METRE. ) );
#60 = ORIENTED_EDGE ( 'NONE', *, *, #90, .F. ) ;
#61 = ORIENTED_EDGE ( 'NONE', *, *, #129, .T. ) ;
#62 = FILL_AREA_STYLE ('',( #249 ) ) ;
#63 = VERTEX_POINT ( 'NONE', #30 ) ;
#64 = AXIS2_PLACEMENT_3D ( 'NONE', #36, #120, #171 ) ;
#65 = VERTEX_POINT ( 'NONE', #31 ) ;
#66 = CARTESIAN_POINT ( 'NONE',  ( -6.123233995736772199E-17, 3.000000000000000444, 0.000000000000000000 ) ) ;
#67 = UNCERTAINTY_MEASURE_WITH_UNIT (LENGTH_MEASURE( 1.000000000000000082E-05 ), #118, 'distance_accuracy_value', 'NONE');
#68 = CYLINDRICAL_SURFACE ( 'NONE', #158, 0.2499999999999998612 ) ;
#69 = AXIS2_PLACEMENT_3D ( 'NONE', #51, #20, #136 ) ;
#70 = CYLINDRICAL_SURFACE ( 'NONE', #74, 0.2499999999999998612 ) ;
#71 = SURFACE_STYLE_USAGE ( .BOTH. , #19 ) ;
#72 = ADVANCED_FACE ( 'NONE', ( #93 ), #70, .T. ) ;
#73 = PLANE ( 'NONE',  #134 ) ;
#74 = AXIS2_PLACEMENT_3D ( 'NONE', #66, #191, #239 ) ;
#75 = FILL_AREA_STYLE_COLOUR ( '', #9 ) ;
#76 = VERTEX_POINT ( 'NONE', #111 ) ;
#77 = EDGE_LOOP ( 'NONE', ( #203, #25 ) ) ;
#78 = EDGE_CURVE ( 'NONE', #125, #162, #200, .T. ) ;
#79 =( NAMED_UNIT ( * ) PLANE_ANGLE_UNIT ( ) SI_UNIT ( $, .RADIAN. ) );
#80 = SURFACE_STYLE_FILL_AREA ( #62 ) ;
#81 = DIMENSIONAL_EXPONENTS ( 1.000000000000000000, 0.000000000000000000, 0.000000000000000000, 0.000000000000000000, 0.000000000000000000, 0.000000000000000000, 0.000000000000000000 ) ;
#82 = PRESENTATION_STYLE_ASSIGNMENT (( #88 ) ) ;
#83 = AXIS2_PLACEMENT_3D ( 'NONE', #263, #87, #166 ) ;
#84 =( GEOMETRIC_REPRESENTATION_CONTEXT ( 3 ) GLOBAL_UNCERTAINTY_ASSIGNED_CONTEXT ( ( #112 ) ) GLOBAL_UNIT_ASSIGNED_CONTEXT ( ( #22, #140, #98 ) ) REPRESENTATION_CONTEXT ( 'NONE', 'WORKASPACE' ) );
#85 = CARTESIAN_POINT ( 'NONE',  ( -6.123233995736772199E-17, 3.000000000000000444, 0.000000000000000000 ) ) ;
#86 = UNCERTAINTY_MEASURE_WITH_UNIT (LENGTH_MEASURE( 1.000000000000000082E-05 ), #131, 'distance_accuracy_value', 'NONE');
#87 = DIRECTION ( 'NONE',  ( -1.216062324813796344E-16, 1.000000000000000000, -0.000000000000000000 ) ) ;
#88 = SURFACE_STYLE_USAGE ( .BOTH. , #17 ) ;
#89 = SURFACE_STYLE_FILL_AREA ( #18 ) ;
#90 = EDGE_CURVE ( 'NONE', #63, #125, #50, .T. ) ;
#91 =( NAMED_UNIT ( * ) SI_UNIT ( $, .STERADIAN. ) SOLID_ANGLE_UNIT ( ) );
#92 = VECTOR ( 'NONE', #106, 39.37007874015748854 ) ;
#93 = FACE_OUTER_BOUND ( 'NONE', #159, .T. ) ;
#94 = SURFACE_STYLE_USAGE ( .BOTH. , #21 ) ;
#95 = DIRECTION ( 'NONE',  ( -1.216062324813796344E-16, 1.000000000000000000, -0.000000000000000000 ) ) ;
#96 = LINE ( 'NONE', #250, #92 ) ;
#97 = CARTESIAN_POINT ( 'NONE',  ( 0.2499999999999999722, 3.000000000000000444, 3.061616997868383018E-17 ) ) ;
#98 =( NAMED_UNIT ( * ) SI_UNIT ( $, .STERADIAN. ) SOLID_ANGLE_UNIT ( ) );
#99 = MECHANICAL_DESIGN_GEOMETRIC_PRESENTATION_REPRESENTATION (  '', ( #1 ), #181 ) ;
#100 = ORIENTED_EDGE ( 'NONE', *, *, #206, .F. ) ;
#101 =( LENGTH_UNIT ( ) NAMED_UNIT ( * ) SI_UNIT ( $, .METRE. ) );
#102 = ORIENTED_EDGE ( 'NONE', *, *, #78, .F. ) ;
#103 =( NAMED_UNIT ( * ) PLANE_ANGLE_UNIT ( ) SI_UNIT ( $, .RADIAN. ) );
#104 = EDGE_CURVE ( 'NONE', #253, #6, #119, .T. ) ;
#105 = PRESENTATION_LAYER_ASSIGNMENT (  '', '', ( #182 ) ) ;
#106 = DIRECTION ( 'NONE',  ( 8.659560562354947649E-17, 0.7071067811865462405, -0.7071067811865486830 ) ) ;
#107 = ORIENTED_EDGE ( 'NONE', *, *, #262, .T. ) ;
#108 = PRODUCT_CONTEXT ( 'NONE', #186, 'mechanical' ) ;
#109 = DIMENSIONAL_EXPONENTS ( 1.000000000000000000, 0.000000000000000000, 0.000000000000000000, 0.000000000000000000, 0.000000000000000000, 0.000000000000000000, 0.000000000000000000 ) ;
#110 = AXIS2_PLACEMENT_3D ( 'NONE', #116, #195, #170 ) ;
#111 = CARTESIAN_POINT ( 'NONE',  ( 0.000000000000000000, 0.000000000000000000, 0.000000000000000000 ) ) ;
#112 = UNCERTAINTY_MEASURE_WITH_UNIT (LENGTH_MEASURE( 1.000000000000000082E-05 ), #22, 'distance_accuracy_value', 'NONE');
#113 = SHAPE_DEFINITION_REPRESENTATION ( #117, #54 ) ;
#114 = FILL_AREA_STYLE_COLOUR ( '', #247 ) ;
#115 = PRODUCT_RELATED_PRODUCT_CATEGORY ( 'part', '', ( #196 ) ) ;
#116 = CARTESIAN_POINT ( 'NONE',  ( 0.000000000000000000, 0.2499999999999991118, 0.000000000000000000 ) ) ;
#117 = PRODUCT_DEFINITION_SHAPE ( 'NONE', 'NONE',  #4 ) ;
#118 =( CONVERSION_BASED_UNIT ( 'INCH', #135 ) LENGTH_UNIT ( ) NAMED_UNIT ( #109 ) );
#119 = CIRCLE ( 'NONE', #151, 0.2499999999999999722 ) ;
#120 = DIRECTION ( 'NONE',  ( -1.216062324813796344E-16, 1.000000000000000000, -0.000000000000000000 ) ) ;
#121 = SURFACE_STYLE_USAGE ( .BOTH. , #42 ) ;
#122 = ORIENTED_EDGE ( 'NONE', *, *, #123, .T. ) ;
#123 = EDGE_CURVE ( 'NONE', #6, #253, #228, .T. ) ;
#124 = CARTESIAN_POINT ( 'NONE',  ( 0.000000000000000000, 0.2499999999999991118, 0.2499999999999999722 ) ) ;
#125 = VERTEX_POINT ( 'NONE', #37 ) ;
#126 = FACE_OUTER_BOUND ( 'NONE', #227, .T. ) ;
#127 = STYLED_ITEM ( 'NONE', ( #150 ), #12 ) ;
#128 =( NAMED_UNIT ( * ) PLANE_ANGLE_UNIT ( ) SI_UNIT ( $, .RADIAN. ) );
#129 = EDGE_CURVE ( 'NONE', #63, #65, #161, .T. ) ;
#130 = UNCERTAINTY_MEASURE_WITH_UNIT (LENGTH_MEASURE( 1.000000000000000082E-05 ), #183, 'distance_accuracy_value', 'NONE');
#131 =( CONVERSION_BASED_UNIT ( 'INCH', #257 ) LENGTH_UNIT ( ) NAMED_UNIT ( #81 ) );
#132 = CARTESIAN_POINT ( 'NONE',  ( -0.2499999999999999167, 3.000000000000000444, 0.000000000000000000 ) ) ;
#133 = DIMENSIONAL_EXPONENTS ( 1.000000000000000000, 0.000000000000000000, 0.000000000000000000, 0.000000000000000000, 0.000000000000000000, 0.000000000000000000, 0.000000000000000000 ) ;
#134 = AXIS2_PLACEMENT_3D ( 'NONE', #137, #198, #152 ) ;
#135 = LENGTH_MEASURE_WITH_UNIT ( LENGTH_MEASURE( 0.02539999999999999897 ), #242 );
#136 = DIRECTION ( 'NONE',  ( 0.000000000000000000, -0.000000000000000000, 1.000000000000000000 ) ) ;
#137 = CARTESIAN_POINT ( 'NONE',  ( 0.2499999999999999722, 3.000000000000000444, 0.000000000000000000 ) ) ;
#138 =( NAMED_UNIT ( * ) SI_UNIT ( $, .STERADIAN. ) SOLID_ANGLE_UNIT ( ) );
#139 = CLOSED_SHELL ( 'NONE', ( #72, #41, #38, #172 ) ) ;
#140 =( NAMED_UNIT ( * ) PLANE_ANGLE_UNIT ( ) SI_UNIT ( $, .RADIAN. ) );
#141 = ORIENTED_EDGE ( 'NONE', *, *, #104, .F. ) ;
#142 = VECTOR ( 'NONE', #167, 39.37007874015748143 ) ;
#143 = EDGE_LOOP ( 'NONE', ( #246, #26, #187, #178 ) ) ;
#144 = STYLED_ITEM ( 'NONE', ( #204 ), #8 ) ;
#145 =( NAMED_UNIT ( * ) SI_UNIT ( $, .STERADIAN. ) SOLID_ANGLE_UNIT ( ) );
#146 = CARTESIAN_POINT ( 'NONE',  ( 0.000000000000000000, 0.000000000000000000, 0.000000000000000000 ) ) ;
#147 = DIRECTION ( 'NONE',  ( -1.000000000000000000, 0.000000000000000000, 0.000000000000000000 ) ) ;
#148 =( NAMED_UNIT ( * ) SI_UNIT ( $, .STERADIAN. ) SOLID_ANGLE_UNIT ( ) );
#149 = DIRECTION ( 'NONE',  ( -1.000000000000000000, 0.000000000000000000, 0.000000000000000000 ) ) ;
#150 = PRESENTATION_STYLE_ASSIGNMENT (( #71 ) ) ;
#151 = AXIS2_PLACEMENT_3D ( 'NONE', #33, #217, #34 ) ;
#152 = DIRECTION ( 'NONE',  ( 1.000000000000000000, 1.216062324813796344E-16, 0.000000000000000000 ) ) ;
#153 =( GEOMETRIC_REPRESENTATION_CONTEXT ( 3 ) GLOBAL_UNCERTAINTY_ASSIGNED_CONTEXT ( ( #258 ) ) GLOBAL_UNIT_ASSIGNED_CONTEXT ( ( #223, #79, #252 ) ) REPRESENTATION_CONTEXT ( 'NONE', 'WORKASPACE' ) );
#154 = DIRECTION ( 'NONE',  ( -1.000000000000000000, -1.365923996832133335E-16, 0.000000000000000000 ) ) ;
#155 = FILL_AREA_STYLE ('',( #75 ) ) ;
#156 = ADVANCED_FACE ( 'NONE', ( #53 ), #221, .T. ) ;
#157 =( LENGTH_UNIT ( ) NAMED_UNIT ( * ) SI_UNIT ( $, .METRE. ) );
#158 = AXIS2_PLACEMENT_3D ( 'NONE', #240, #233, #149 ) ;
#159 = EDGE_LOOP ( 'NONE', ( #61, #107, #102, #60 ) ) ;
#160 = ORIENTED_EDGE ( 'NONE', *, *, #206, .T. ) ;
#161 = CIRCLE ( 'NONE', #64, 0.2499999999999996947 ) ;
#162 = VERTEX_POINT ( 'NONE', #97 ) ;
#163 = DIRECTION ( 'NONE',  ( -1.216062324813796344E-16, 1.000000000000000000, -0.000000000000000000 ) ) ;
#164 = DIRECTION ( 'NONE',  ( 0.000000000000000000, 1.000000000000000000, 0.000000000000000000 ) ) ;
#165 = CARTESIAN_POINT ( 'NONE',  ( 0.000000000000000000, 39.37007874015748143, 0.000000000000000000 ) ) ;
#166 = DIRECTION ( 'NONE',  ( -1.000000000000000000, 0.000000000000000000, 0.000000000000000000 ) ) ;
#167 = DIRECTION ( 'NONE',  ( -1.216062324813796344E-16, 1.000000000000000000, -0.000000000000000000 ) ) ;
#168 = DIRECTION ( 'NONE',  ( -1.216062324813796344E-16, 1.000000000000000000, -0.000000000000000000 ) ) ;
#169 = FACE_OUTER_BOUND ( 'NONE', #143, .T. ) ;
#170 = DIRECTION ( 'NONE',  ( 0.000000000000000000, 0.000000000000000000, -1.000000000000000000 ) ) ;
#171 = DIRECTION ( 'NONE',  ( -1.000000000000000000, -1.365923996832133335E-16, 0.000000000000000000 ) ) ;
#172 = ADVANCED_FACE ( 'NONE', ( #39 ), #73, .F. ) ;
#173 = SURFACE_STYLE_FILL_AREA ( #155 ) ;
#174 = SURFACE_STYLE_FILL_AREA ( #3 ) ;
#175 = MANIFOLD_SOLID_BREP ( 'Revolve - Tool Body (Pointed)', #139 ) ;
#176 =( GEOMETRIC_REPRESENTATION_CONTEXT ( 3 ) GLOBAL_UNCERTAINTY_ASSIGNED_CONTEXT ( ( #86 ) ) GLOBAL_UNIT_ASSIGNED_CONTEXT ( ( #131, #128, #91 ) ) REPRESENTATION_CONTEXT ( 'NONE', 'WORKASPACE' ) );
#177 = CONICAL_SURFACE ( 'NONE', #236, 39.37007874015762354, 0.7853981633974500554 ) ;
#178 = ORIENTED_EDGE ( 'NONE', *, *, #32, .F. ) ;
#179 =( CONVERSION_BASED_UNIT ( 'INCH', #27 ) LENGTH_UNIT ( ) NAMED_UNIT ( #261 ) );
#180 = FACE_OUTER_BOUND ( 'NONE', #48, .T. ) ;
#181 =( GEOMETRIC_REPRESENTATION_CONTEXT ( 3 ) GLOBAL_UNCERTAINTY_ASSIGNED_CONTEXT ( ( #67 ) ) GLOBAL_UNIT_ASSIGNED_CONTEXT ( ( #118, #40, #138 ) ) REPRESENTATION_CONTEXT ( 'NONE', 'WORKASPACE' ) );
#182 = STYLED_ITEM ( 'NONE', ( #82 ), #238 ) ;
#183 =( CONVERSION_BASED_UNIT ( 'INCH', #208 ) LENGTH_UNIT ( ) NAMED_UNIT ( #216 ) );
#184 = EDGE_LOOP ( 'NONE', ( #141, #205 ) ) ;
#185 = SURFACE_STYLE_FILL_AREA ( #230 ) ;
#186 = APPLICATION_CONTEXT ( 'automotive_design' ) ;
#187 = ORIENTED_EDGE ( 'NONE', *, *, #90, .T. ) ;
#188 = DIRECTION ( 'NONE',  ( 0.000000000000000000, 0.000000000000000000, 1.000000000000000000 ) ) ;
#189 = DIRECTION ( 'NONE',  ( 0.000000000000000000, 0.000000000000000000, 1.000000000000000000 ) ) ;
#190 = AXIS2_PLACEMENT_3D ( 'NONE', #251, #265, #189 ) ;
#191 = DIRECTION ( 'NONE',  ( -1.216062324813796344E-16, 1.000000000000000000, -0.000000000000000000 ) ) ;
#192 =( LENGTH_UNIT ( ) NAMED_UNIT ( * ) SI_UNIT ( $, .METRE. ) );
#193 = AXIS2_PLACEMENT_3D ( 'NONE', #264, #215, #260 ) ;
#194 = MECHANICAL_DESIGN_GEOMETRIC_PRESENTATION_REPRESENTATION (  '', ( #182 ), #57 ) ;
#195 = DIRECTION ( 'NONE',  ( -0.000000000000000000, -1.000000000000000000, -0.000000000000000000 ) ) ;
#196 = PRODUCT ( '06168', '06168', '', ( #108 ) ) ;
#197 = CARTESIAN_POINT ( 'NONE',  ( 2.731847993664263711E-16, 0.2499999999999992506, 0.000000000000000000 ) ) ;
#198 = DIRECTION ( 'NONE',  ( 1.216062324813796344E-16, -1.000000000000000000, 0.000000000000000000 ) ) ;
#199 = APPLICATION_CONTEXT ( 'automotive_design' ) ;
#200 = CIRCLE ( 'NONE', #83, 0.2500000000000000555 ) ;
#201 = EDGE_CURVE ( 'NONE', #65, #63, #2, .T. ) ;
#202 = STYLED_ITEM ( 'NONE', ( #55 ), #175 ) ;
#203 = ORIENTED_EDGE ( 'NONE', *, *, #78, .T. ) ;
#204 = PRESENTATION_STYLE_ASSIGNMENT (( #121 ) ) ;
#205 = ORIENTED_EDGE ( 'NONE', *, *, #123, .F. ) ;
#206 = EDGE_CURVE ( 'NONE', #76, #6, #96, .T. ) ;
#207 = VECTOR ( 'NONE', #163, 39.37007874015748143 ) ;
#208 = LENGTH_MEASURE_WITH_UNIT ( LENGTH_MEASURE( 0.02539999999999999897 ), #59 );
#209 = DIMENSIONAL_EXPONENTS ( 1.000000000000000000, 0.000000000000000000, 0.000000000000000000, 0.000000000000000000, 0.000000000000000000, 0.000000000000000000, 0.000000000000000000 ) ;
#210 = FACE_OUTER_BOUND ( 'NONE', #13, .T. ) ;
#211 = LINE ( 'NONE', #237, #224 ) ;
#212 = LENGTH_MEASURE_WITH_UNIT ( LENGTH_MEASURE( 0.02539999999999999897 ), #259 );
#213 = UNCERTAINTY_MEASURE_WITH_UNIT (LENGTH_MEASURE( 1.000000000000000082E-05 ), #179, 'distance_accuracy_value', 'NONE');
#214 = PRESENTATION_LAYER_ASSIGNMENT (  '', '', ( #127 ) ) ;
#215 = DIRECTION ( 'NONE',  ( -1.216062324813796344E-16, 1.000000000000000000, 0.000000000000000000 ) ) ;
#216 = DIMENSIONAL_EXPONENTS ( 1.000000000000000000, 0.000000000000000000, 0.000000000000000000, 0.000000000000000000, 0.000000000000000000, 0.000000000000000000, 0.000000000000000000 ) ;
#217 = DIRECTION ( 'NONE',  ( -0.000000000000000000, -1.000000000000000000, -0.000000000000000000 ) ) ;
#218 = PRESENTATION_LAYER_ASSIGNMENT (  '', '', ( #1 ) ) ;
#219 = PRESENTATION_STYLE_ASSIGNMENT (( #245 ) ) ;
#220 = COLOUR_RGB ( '',0.7921568627450980005, 0.8196078431372548767, 0.9333333333333333481 ) ;
#221 = PLANE ( 'NONE',  #69 ) ;
#222 = FILL_AREA_STYLE_COLOUR ( '', #220 ) ;
#223 =( CONVERSION_BASED_UNIT ( 'INCH', #212 ) LENGTH_UNIT ( ) NAMED_UNIT ( #209 ) );
#224 = VECTOR ( 'NONE', #234, 39.37007874015748854 ) ;
#225 = PRESENTATION_LAYER_ASSIGNMENT (  '', '', ( #202 ) ) ;
#226 = ORIENTED_EDGE ( 'NONE', *, *, #129, .F. ) ;
#227 = EDGE_LOOP ( 'NONE', ( #226, #44 ) ) ;
#228 = CIRCLE ( 'NONE', #110, 0.2499999999999999722 ) ;
#229 = COLOUR_RGB ( '',1.000000000000000000, 0.000000000000000000, 0.000000000000000000 ) ;
#230 = FILL_AREA_STYLE ('',( #256 ) ) ;
#231 = ORIENTED_EDGE ( 'NONE', *, *, #104, .T. ) ;
#232 = DIRECTION ( 'NONE',  ( 1.000000000000000000, 0.000000000000000000, 0.000000000000000000 ) ) ;
#233 = DIRECTION ( 'NONE',  ( -1.216062324813796344E-16, 1.000000000000000000, -0.000000000000000000 ) ) ;
#234 = DIRECTION ( 'NONE',  ( 0.000000000000000000, 0.7071067811865462405, 0.7071067811865486830 ) ) ;
#235 =( GEOMETRIC_REPRESENTATION_CONTEXT ( 3 ) GLOBAL_UNCERTAINTY_ASSIGNED_CONTEXT ( ( #213 ) ) GLOBAL_UNIT_ASSIGNED_CONTEXT ( ( #179, #7, #148 ) ) REPRESENTATION_CONTEXT ( 'NONE', 'WORKASPACE' ) );
#236 = AXIS2_PLACEMENT_3D ( 'NONE', #165, #164, #10 ) ;
#237 = CARTESIAN_POINT ( 'NONE',  ( 0.000000000000000000, 0.000000000000000000, 0.000000000000000000 ) ) ;
#238 = ADVANCED_FACE ( 'NONE', ( #210 ), #177, .T. ) ;
#239 = DIRECTION ( 'NONE',  ( -1.000000000000000000, 0.000000000000000000, 0.000000000000000000 ) ) ;
#240 = CARTESIAN_POINT ( 'NONE',  ( -6.123233995736772199E-17, 3.000000000000000444, 0.000000000000000000 ) ) ;
#241 = MECHANICAL_DESIGN_GEOMETRIC_PRESENTATION_REPRESENTATION (  '', ( #144 ), #235 ) ;
#242 =( LENGTH_UNIT ( ) NAMED_UNIT ( * ) SI_UNIT ( $, .METRE. ) );
#243 = SURFACE_SIDE_STYLE ('',( #173 ) ) ;
#244 = CLOSED_SHELL ( 'NONE', ( #238, #156, #8 ) ) ;
#245 = SURFACE_STYLE_USAGE ( .BOTH. , #243 ) ;
#246 = ORIENTED_EDGE ( 'NONE', *, *, #262, .F. ) ;
#247 = COLOUR_RGB ( '',0.7921568627450980005, 0.8196078431372548767, 0.9333333333333333481 ) ;
#248 = ORIENTED_EDGE ( 'NONE', *, *, #45, .T. ) ;
#249 = FILL_AREA_STYLE_COLOUR ( '', #47 ) ;
#250 = CARTESIAN_POINT ( 'NONE',  ( 0.000000000000000000, 0.000000000000000000, 0.000000000000000000 ) ) ;
#251 = CARTESIAN_POINT ( 'NONE',  ( 0.000000000000000000, 39.37007874015748143, 0.000000000000000000 ) ) ;
#252 =( NAMED_UNIT ( * ) SI_UNIT ( $, .STERADIAN. ) SOLID_ANGLE_UNIT ( ) );
#253 = VERTEX_POINT ( 'NONE', #124 ) ;
#254 = CIRCLE ( 'NONE', #35, 0.2500000000000000555 ) ;
#255 = AXIS2_PLACEMENT_3D ( 'NONE', #146, #188, #232 ) ;
#256 = FILL_AREA_STYLE_COLOUR ( '', #229 ) ;
#257 = LENGTH_MEASURE_WITH_UNIT ( LENGTH_MEASURE( 0.02539999999999999897 ), #192 );
#258 = UNCERTAINTY_MEASURE_WITH_UNIT (LENGTH_MEASURE( 1.000000000000000082E-05 ), #223, 'distance_accuracy_value', 'NONE');
#259 =( LENGTH_UNIT ( ) NAMED_UNIT ( * ) SI_UNIT ( $, .METRE. ) );
#260 = DIRECTION ( 'NONE',  ( -1.000000000000000000, -1.216062324813796344E-16, 0.000000000000000000 ) ) ;
#261 = DIMENSIONAL_EXPONENTS ( 1.000000000000000000, 0.000000000000000000, 0.000000000000000000, 0.000000000000000000, 0.000000000000000000, 0.000000000000000000, 0.000000000000000000 ) ;
#262 = EDGE_CURVE ( 'NONE', #65, #162, #46, .T. ) ;
#263 = CARTESIAN_POINT ( 'NONE',  ( -6.123233995736772199E-17, 3.000000000000000444, 0.000000000000000000 ) ) ;
#264 = CARTESIAN_POINT ( 'NONE',  ( 2.731847993664263218E-16, 0.2499999999999991118, 0.000000000000000000 ) ) ;
#265 = DIRECTION ( 'NONE',  ( 0.000000000000000000, 1.000000000000000000, 0.000000000000000000 ) ) ;
ENDSEC;
END-ISO-10303-21;
