ISO-10303-21;
HEADER;
FILE_DESCRIPTION (( 'STEP AP214' ),
    '1' );
FILE_NAME ('82267W.STEP',
    '2023-06-23T04:55:35',
    ( '' ),
    ( '' ),
    'SwSTEP 2.0',
    'SolidWorks 2023',
    '' );
FILE_SCHEMA (( 'AUTOMOTIVE_DESIGN' ));
ENDSEC;

DATA;
#1 = CARTESIAN_POINT ( 'NONE',  ( 1.516480271171051896E-32, 0.8749999999999997780, 0.000000000000000000 ) ) ;
#2 = AXIS2_PLACEMENT_3D ( 'NONE', #208, #308, #256 ) ;
#3 = UNCERTAINTY_MEASURE_WITH_UNIT (LENGTH_MEASURE( 1.000000000000000082E-05 ), #178, 'distance_accuracy_value', 'NONE');
#4 = CARTESIAN_POINT ( 'NONE',  ( -1.224646799147353700E-16, 3.000000000000000444, 0.000000000000000000 ) ) ;
#5 = CIRCLE ( 'NONE', #174, 0.1875000000000001388 ) ;
#6 = LENGTH_MEASURE_WITH_UNIT ( LENGTH_MEASURE( 0.02539999999999999897 ), #203 );
#7 = ADVANCED_FACE ( 'NONE', ( #142 ), #248, .F. ) ;
#8 = CARTESIAN_POINT ( 'NONE',  ( 0.000000000000000000, 0.000000000000000000, 0.000000000000000000 ) ) ;
#9 = DIMENSIONAL_EXPONENTS ( 1.000000000000000000, 0.000000000000000000, 0.000000000000000000, 0.000000000000000000, 0.000000000000000000, 0.000000000000000000, 0.000000000000000000 ) ;
#10 =( NAMED_UNIT ( * ) PLANE_ANGLE_UNIT ( ) SI_UNIT ( $, .RADIAN. ) );
#11 = MECHANICAL_DESIGN_GEOMETRIC_PRESENTATION_REPRESENTATION (  '', ( #83 ), #272 ) ;
#12 = PLANE ( 'NONE',  #89 ) ;
#13 = FILL_AREA_STYLE_COLOUR ( '', #181 ) ;
#14 = PRESENTATION_STYLE_ASSIGNMENT (( #140 ) ) ;
#15 = MANIFOLD_SOLID_BREP ( 'Revolve - Tool Body (Straight Shanked)', #274 ) ;
#16 = CARTESIAN_POINT ( 'NONE',  ( 2.296212748401287726E-17, 0.000000000000000000, 0.1875000000000000278 ) ) ;
#17 = FILL_AREA_STYLE ('',( #286 ) ) ;
#18 = PRODUCT_RELATED_PRODUCT_CATEGORY ( 'part', '', ( #74 ) ) ;
#19 =( GEOMETRIC_REPRESENTATION_CONTEXT ( 3 ) GLOBAL_UNCERTAINTY_ASSIGNED_CONTEXT ( ( #3 ) ) GLOBAL_UNIT_ASSIGNED_CONTEXT ( ( #178, #156, #28 ) ) REPRESENTATION_CONTEXT ( 'NONE', 'WORKASPACE' ) );
#20 = FACE_OUTER_BOUND ( 'NONE', #288, .T. ) ;
#21 = VERTEX_POINT ( 'NONE', #148 ) ;
#22 = PRESENTATION_LAYER_ASSIGNMENT (  '', '', ( #291 ) ) ;
#23 =( NAMED_UNIT ( * ) SI_UNIT ( $, .STERADIAN. ) SOLID_ANGLE_UNIT ( ) );
#24 = ORIENTED_EDGE ( 'NONE', *, *, #276, .T. ) ;
#25 = DIMENSIONAL_EXPONENTS ( 1.000000000000000000, 0.000000000000000000, 0.000000000000000000, 0.000000000000000000, 0.000000000000000000, 0.000000000000000000, 0.000000000000000000 ) ;
#26 = DIRECTION ( 'NONE',  ( -1.000000000000000000, 0.000000000000000000, 0.000000000000000000 ) ) ;
#27 = LINE ( 'NONE', #125, #260 ) ;
#28 =( NAMED_UNIT ( * ) SI_UNIT ( $, .STERADIAN. ) SOLID_ANGLE_UNIT ( ) );
#29 =( LENGTH_UNIT ( ) NAMED_UNIT ( * ) SI_UNIT ( $, .METRE. ) );
#30 = CARTESIAN_POINT ( 'NONE',  ( -0.1875000000000000278, 0.8749999999999997780, 0.000000000000000000 ) ) ;
#31 = CARTESIAN_POINT ( 'NONE',  ( 0.000000000000000000, 0.000000000000000000, -0.1875000000000000278 ) ) ;
#32 = VECTOR ( 'NONE', #128, 39.37007874015748143 ) ;
#33 = STYLED_ITEM ( 'NONE', ( #163 ), #133 ) ;
#34 = ORIENTED_EDGE ( 'NONE', *, *, #297, .F. ) ;
#35 = SURFACE_STYLE_FILL_AREA ( #107 ) ;
#36 = FACE_OUTER_BOUND ( 'NONE', #213, .T. ) ;
#37 = PRESENTATION_STYLE_ASSIGNMENT (( #136 ) ) ;
#38 = SURFACE_STYLE_FILL_AREA ( #247 ) ;
#39 = AXIS2_PLACEMENT_3D ( 'NONE', #244, #231, #261 ) ;
#40 = DIRECTION ( 'NONE',  ( 5.763043760693429322E-17, -1.000000000000000000, 0.000000000000000000 ) ) ;
#41 = DIRECTION ( 'NONE',  ( 1.000000000000000000, 0.000000000000000000, 0.000000000000000000 ) ) ;
#42 = ADVANCED_FACE ( 'NONE', ( #96 ), #123, .T. ) ;
#43 = PRESENTATION_STYLE_ASSIGNMENT (( #233 ) ) ;
#44 = VECTOR ( 'NONE', #78, 39.37007874015748143 ) ;
#45 =( NAMED_UNIT ( * ) PLANE_ANGLE_UNIT ( ) SI_UNIT ( $, .RADIAN. ) );
#46 = UNCERTAINTY_MEASURE_WITH_UNIT (LENGTH_MEASURE( 1.000000000000000082E-05 ), #254, 'distance_accuracy_value', 'NONE');
#47 = CIRCLE ( 'NONE', #222, 0.1875000000000000278 ) ;
#48 = ADVANCED_FACE ( 'NONE', ( #76 ), #50, .T. ) ;
#49 = CARTESIAN_POINT ( 'NONE',  ( 0.000000000000000000, 0.8750000000000000000, 0.000000000000000000 ) ) ;
#50 = CYLINDRICAL_SURFACE ( 'NONE', #171, 0.1875000000000000278 ) ;
#51 = FACE_OUTER_BOUND ( 'NONE', #73, .T. ) ;
#52 = CARTESIAN_POINT ( 'NONE',  ( 0.000000000000000000, 0.000000000000000000, 0.000000000000000000 ) ) ;
#53 = DIRECTION ( 'NONE',  ( -1.000000000000000000, 0.000000000000000000, 0.000000000000000000 ) ) ;
#54 = PRODUCT_DEFINITION ( 'UNKNOWN', '', #77, #250 ) ;
#55 = EDGE_LOOP ( 'NONE', ( #211, #86 ) ) ;
#56 = PRESENTATION_LAYER_ASSIGNMENT (  '', '', ( #129 ) ) ;
#57 = DIMENSIONAL_EXPONENTS ( 1.000000000000000000, 0.000000000000000000, 0.000000000000000000, 0.000000000000000000, 0.000000000000000000, 0.000000000000000000, 0.000000000000000000 ) ;
#58 = STYLED_ITEM ( 'NONE', ( #37 ), #224 ) ;
#59 = SURFACE_STYLE_FILL_AREA ( #91 ) ;
#60 = CARTESIAN_POINT ( 'NONE',  ( 0.000000000000000000, 0.000000000000000000, -0.1875000000000000278 ) ) ;
#61 = SURFACE_SIDE_STYLE ('',( #35 ) ) ;
#62 = CARTESIAN_POINT ( 'NONE',  ( 0.000000000000000000, 0.000000000000000000, 0.000000000000000000 ) ) ;
#63 = ORIENTED_EDGE ( 'NONE', *, *, #65, .F. ) ;
#64 = PLANE ( 'NONE',  #2 ) ;
#65 = EDGE_CURVE ( 'NONE', #273, #269, #5, .T. ) ;
#66 = STYLED_ITEM ( 'NONE', ( #14 ), #48 ) ;
#67 =( CONVERSION_BASED_UNIT ( 'INCH', #109 ) LENGTH_UNIT ( ) NAMED_UNIT ( #57 ) );
#68 = ORIENTED_EDGE ( 'NONE', *, *, #223, .F. ) ;
#69 = PRODUCT_CONTEXT ( 'NONE', #253, 'mechanical' ) ;
#70 = SURFACE_STYLE_FILL_AREA ( #120 ) ;
#71 = ORIENTED_EDGE ( 'NONE', *, *, #80, .T. ) ;
#72 = UNCERTAINTY_MEASURE_WITH_UNIT (LENGTH_MEASURE( 1.000000000000000082E-05 ), #214, 'distance_accuracy_value', 'NONE');
#73 = EDGE_LOOP ( 'NONE', ( #132, #166, #298, #34 ) ) ;
#74 = PRODUCT ( '82267W', '82267W', '', ( #69 ) ) ;
#75 = DIRECTION ( 'NONE',  ( -0.000000000000000000, -1.000000000000000000, -0.000000000000000000 ) ) ;
#76 = FACE_OUTER_BOUND ( 'NONE', #246, .T. ) ;
#77 = PRODUCT_DEFINITION_FORMATION_WITH_SPECIFIED_SOURCE ( 'ANY', '', #74, .NOT_KNOWN. ) ;
#78 = DIRECTION ( 'NONE',  ( -5.763043760693429322E-17, 1.000000000000000000, -0.000000000000000000 ) ) ;
#79 = DIRECTION ( 'NONE',  ( 0.000000000000000000, -0.000000000000000000, 1.000000000000000000 ) ) ;
#80 = EDGE_CURVE ( 'NONE', #264, #130, #240, .T. ) ;
#81 = COLOUR_RGB ( '',1.000000000000000000, 0.000000000000000000, 0.000000000000000000 ) ;
#82 = CLOSED_SHELL ( 'NONE', ( #48, #133, #154, #108 ) ) ;
#83 = STYLED_ITEM ( 'NONE', ( #201 ), #154 ) ;
#84 =( CONVERSION_BASED_UNIT ( 'INCH', #131 ) LENGTH_UNIT ( ) NAMED_UNIT ( #216 ) );
#85 = DIRECTION ( 'NONE',  ( 0.000000000000000000, 0.000000000000000000, -1.000000000000000000 ) ) ;
#86 = ORIENTED_EDGE ( 'NONE', *, *, #297, .T. ) ;
#87 = CARTESIAN_POINT ( 'NONE',  ( 0.1875000000000000278, 3.000000000000000444, 2.296212748401288650E-17 ) ) ;
#88 = AXIS2_PLACEMENT_3D ( 'NONE', #49, #151, #235 ) ;
#89 = AXIS2_PLACEMENT_3D ( 'NONE', #95, #238, #79 ) ;
#90 = DIMENSIONAL_EXPONENTS ( 1.000000000000000000, 0.000000000000000000, 0.000000000000000000, 0.000000000000000000, 0.000000000000000000, 0.000000000000000000, 0.000000000000000000 ) ;
#91 = FILL_AREA_STYLE ('',( #113 ) ) ;
#92 = EDGE_CURVE ( 'NONE', #130, #21, #206, .T. ) ;
#93 = DIRECTION ( 'NONE',  ( 0.000000000000000000, -1.000000000000000000, -0.000000000000000000 ) ) ;
#94 = SURFACE_STYLE_FILL_AREA ( #17 ) ;
#95 = CARTESIAN_POINT ( 'NONE',  ( 0.000000000000000000, 0.8750000000000000000, 0.000000000000000000 ) ) ;
#96 = FACE_OUTER_BOUND ( 'NONE', #162, .T. ) ;
#97 = UNCERTAINTY_MEASURE_WITH_UNIT (LENGTH_MEASURE( 1.000000000000000082E-05 ), #268, 'distance_accuracy_value', 'NONE');
#98 = DIRECTION ( 'NONE',  ( -5.763043760693429322E-17, 1.000000000000000000, -0.000000000000000000 ) ) ;
#99 = ORIENTED_EDGE ( 'NONE', *, *, #276, .F. ) ;
#100 =( CONVERSION_BASED_UNIT ( 'INCH', #124 ) LENGTH_UNIT ( ) NAMED_UNIT ( #90 ) );
#101 = MECHANICAL_DESIGN_GEOMETRIC_PRESENTATION_REPRESENTATION (  '', ( #129 ), #215 ) ;
#102 = DIRECTION ( 'NONE',  ( 0.000000000000000000, 0.000000000000000000, -1.000000000000000000 ) ) ;
#103 = CARTESIAN_POINT ( 'NONE',  ( 0.000000000000000000, 0.8750000000000000000, 0.000000000000000000 ) ) ;
#104 = ADVANCED_FACE ( 'NONE', ( #116 ), #64, .F. ) ;
#105 = PRESENTATION_LAYER_ASSIGNMENT (  '', '', ( #33 ) ) ;
#106 = AXIS2_PLACEMENT_3D ( 'NONE', #251, #234, #41 ) ;
#107 = FILL_AREA_STYLE ('',( #177 ) ) ;
#108 = ADVANCED_FACE ( 'NONE', ( #150 ), #295, .T. ) ;
#109 = LENGTH_MEASURE_WITH_UNIT ( LENGTH_MEASURE( 0.02539999999999999897 ), #280 );
#110 = ORIENTED_EDGE ( 'NONE', *, *, #198, .T. ) ;
#111 = AXIS2_PLACEMENT_3D ( 'NONE', #284, #75, #102 ) ;
#112 = AXIS2_PLACEMENT_3D ( 'NONE', #283, #98, #26 ) ;
#113 = FILL_AREA_STYLE_COLOUR ( '', #81 ) ;
#114 = EDGE_CURVE ( 'NONE', #196, #21, #159, .T. ) ;
#115 = CARTESIAN_POINT ( 'NONE',  ( 0.1875000000000000278, 3.000000000000000444, 0.000000000000000000 ) ) ;
#116 = FACE_OUTER_BOUND ( 'NONE', #242, .T. ) ;
#117 = LENGTH_MEASURE_WITH_UNIT ( LENGTH_MEASURE( 0.02539999999999999897 ), #135 );
#118 = UNCERTAINTY_MEASURE_WITH_UNIT (LENGTH_MEASURE( 1.000000000000000082E-05 ), #84, 'distance_accuracy_value', 'NONE');
#119 = CIRCLE ( 'NONE', #289, 0.1875000000000000278 ) ;
#120 = FILL_AREA_STYLE ('',( #197 ) ) ;
#121 = DIRECTION ( 'NONE',  ( 1.000000000000000000, 5.763043760693429322E-17, 0.000000000000000000 ) ) ;
#122 = COLOUR_RGB ( '',0.7921568627450980005, 0.8196078431372548767, 0.9333333333333333481 ) ;
#123 = CYLINDRICAL_SURFACE ( 'NONE', #157, 0.1875000000000000833 ) ;
#124 = LENGTH_MEASURE_WITH_UNIT ( LENGTH_MEASURE( 0.02539999999999999897 ), #29 );
#125 = CARTESIAN_POINT ( 'NONE',  ( -0.1875000000000002220, 3.000000000000000444, 0.000000000000000000 ) ) ;
#126 =( NAMED_UNIT ( * ) PLANE_ANGLE_UNIT ( ) SI_UNIT ( $, .RADIAN. ) );
#127 = CIRCLE ( 'NONE', #180, 0.1875000000000000278 ) ;
#128 = DIRECTION ( 'NONE',  ( -0.000000000000000000, -1.000000000000000000, -0.000000000000000000 ) ) ;
#129 = STYLED_ITEM ( 'NONE', ( #139 ), #108 ) ;
#130 = VERTEX_POINT ( 'NONE', #60 ) ;
#131 = LENGTH_MEASURE_WITH_UNIT ( LENGTH_MEASURE( 0.02539999999999999897 ), #226 );
#132 = ORIENTED_EDGE ( 'NONE', *, *, #182, .F. ) ;
#133 = ADVANCED_FACE ( 'NONE', ( #36 ), #12, .T. ) ;
#134 = DIRECTION ( 'NONE',  ( -1.000000000000000000, 0.000000000000000000, 0.000000000000000000 ) ) ;
#135 =( LENGTH_UNIT ( ) NAMED_UNIT ( * ) SI_UNIT ( $, .METRE. ) );
#136 = SURFACE_STYLE_USAGE ( .BOTH. , #61 ) ;
#137 = EDGE_CURVE ( 'NONE', #264, #196, #127, .T. ) ;
#138 = AXIS2_PLACEMENT_3D ( 'NONE', #153, #236, #252 ) ;
#139 = PRESENTATION_STYLE_ASSIGNMENT (( #210 ) ) ;
#140 = SURFACE_STYLE_USAGE ( .BOTH. , #278 ) ;
#141 = APPLICATION_PROTOCOL_DEFINITION ( 'draft international standard', 'automotive_design', 1998, #202 ) ;
#142 = FACE_OUTER_BOUND ( 'NONE', #55, .T. ) ;
#143 = EDGE_CURVE ( 'NONE', #160, #281, #119, .T. ) ;
#144 = CIRCLE ( 'NONE', #88, 0.1875000000000000278 ) ;
#145 = DIRECTION ( 'NONE',  ( -0.000000000000000000, -1.000000000000000000, -0.000000000000000000 ) ) ;
#146 = AXIS2_PLACEMENT_3D ( 'NONE', #115, #40, #121 ) ;
#147 = DIRECTION ( 'NONE',  ( -1.000000000000000000, 0.000000000000000000, 0.000000000000000000 ) ) ;
#148 = CARTESIAN_POINT ( 'NONE',  ( 2.296212748401287726E-17, 0.000000000000000000, 0.1875000000000000278 ) ) ;
#149 =( GEOMETRIC_REPRESENTATION_CONTEXT ( 3 ) GLOBAL_UNCERTAINTY_ASSIGNED_CONTEXT ( ( #118 ) ) GLOBAL_UNIT_ASSIGNED_CONTEXT ( ( #84, #209, #184 ) ) REPRESENTATION_CONTEXT ( 'NONE', 'WORKASPACE' ) );
#150 = FACE_OUTER_BOUND ( 'NONE', #193, .T. ) ;
#151 = DIRECTION ( 'NONE',  ( -0.000000000000000000, -1.000000000000000000, -0.000000000000000000 ) ) ;
#152 = DIRECTION ( 'NONE',  ( -5.763043760693429322E-17, 1.000000000000000000, -0.000000000000000000 ) ) ;
#153 = CARTESIAN_POINT ( 'NONE',  ( -1.224646799147353700E-16, 3.000000000000000444, 0.000000000000000000 ) ) ;
#154 = ADVANCED_FACE ( 'NONE', ( #20 ), #306, .T. ) ;
#155 = DIRECTION ( 'NONE',  ( -0.000000000000000000, -1.000000000000000000, -0.000000000000000000 ) ) ;
#156 =( NAMED_UNIT ( * ) PLANE_ANGLE_UNIT ( ) SI_UNIT ( $, .RADIAN. ) );
#157 = AXIS2_PLACEMENT_3D ( 'NONE', #307, #152, #195 ) ;
#158 = MECHANICAL_DESIGN_GEOMETRIC_PRESENTATION_REPRESENTATION (  '', ( #291 ), #205 ) ;
#159 = LINE ( 'NONE', #16, #189 ) ;
#160 = VERTEX_POINT ( 'NONE', #30 ) ;
#161 =( NAMED_UNIT ( * ) PLANE_ANGLE_UNIT ( ) SI_UNIT ( $, .RADIAN. ) );
#162 = EDGE_LOOP ( 'NONE', ( #259, #217, #63, #68 ) ) ;
#163 = PRESENTATION_STYLE_ASSIGNMENT (( #165 ) ) ;
#164 = ORIENTED_EDGE ( 'NONE', *, *, #227, .F. ) ;
#165 = SURFACE_STYLE_USAGE ( .BOTH. , #190 ) ;
#166 = ORIENTED_EDGE ( 'NONE', *, *, #227, .T. ) ;
#167 = SURFACE_SIDE_STYLE ('',( #38 ) ) ;
#168 = ORIENTED_EDGE ( 'NONE', *, *, #114, .F. ) ;
#169 = LENGTH_MEASURE_WITH_UNIT ( LENGTH_MEASURE( 0.02539999999999999897 ), #176 );
#170 = LENGTH_MEASURE_WITH_UNIT ( LENGTH_MEASURE( 0.02539999999999999897 ), #285 );
#171 = AXIS2_PLACEMENT_3D ( 'NONE', #52, #155, #239 ) ;
#172 = DIRECTION ( 'NONE',  ( 0.000000000000000000, 0.000000000000000000, -1.000000000000000000 ) ) ;
#173 = LINE ( 'NONE', #200, #44 ) ;
#174 = AXIS2_PLACEMENT_3D ( 'NONE', #4, #220, #53 ) ;
#175 = APPLICATION_PROTOCOL_DEFINITION ( 'draft international standard', 'automotive_design', 1998, #253 ) ;
#176 =( LENGTH_UNIT ( ) NAMED_UNIT ( * ) SI_UNIT ( $, .METRE. ) );
#177 = FILL_AREA_STYLE_COLOUR ( '', #232 ) ;
#178 =( CONVERSION_BASED_UNIT ( 'INCH', #6 ) LENGTH_UNIT ( ) NAMED_UNIT ( #293 ) );
#179 = CARTESIAN_POINT ( 'NONE',  ( 1.516480271171051896E-32, 0.8749999999999997780, 0.000000000000000000 ) ) ;
#180 = AXIS2_PLACEMENT_3D ( 'NONE', #103, #194, #219 ) ;
#181 = COLOUR_RGB ( '',1.000000000000000000, 0.000000000000000000, 0.000000000000000000 ) ;
#182 = EDGE_CURVE ( 'NONE', #281, #269, #173, .T. ) ;
#183 = ORIENTED_EDGE ( 'NONE', *, *, #137, .F. ) ;
#184 =( NAMED_UNIT ( * ) SI_UNIT ( $, .STERADIAN. ) SOLID_ANGLE_UNIT ( ) );
#185 = DIRECTION ( 'NONE',  ( -0.000000000000000000, -1.000000000000000000, -0.000000000000000000 ) ) ;
#186 = ORIENTED_EDGE ( 'NONE', *, *, #80, .F. ) ;
#187 = CARTESIAN_POINT ( 'NONE',  ( -0.1875000000000002776, 3.000000000000000444, 0.000000000000000000 ) ) ;
#188 = AXIS2_PLACEMENT_3D ( 'NONE', #62, #93, #85 ) ;
#189 = VECTOR ( 'NONE', #185, 39.37007874015748143 ) ;
#190 = SURFACE_SIDE_STYLE ('',( #59 ) ) ;
#191 = SURFACE_SIDE_STYLE ('',( #94 ) ) ;
#192 = UNCERTAINTY_MEASURE_WITH_UNIT (LENGTH_MEASURE( 1.000000000000000082E-05 ), #100, 'distance_accuracy_value', 'NONE');
#193 = EDGE_LOOP ( 'NONE', ( #230, #24 ) ) ;
#194 = DIRECTION ( 'NONE',  ( -0.000000000000000000, -1.000000000000000000, -0.000000000000000000 ) ) ;
#195 = DIRECTION ( 'NONE',  ( -1.000000000000000000, 0.000000000000000000, 0.000000000000000000 ) ) ;
#196 = VERTEX_POINT ( 'NONE', #263 ) ;
#197 = FILL_AREA_STYLE_COLOUR ( '', #275 ) ;
#198 = EDGE_CURVE ( 'NONE', #196, #264, #144, .T. ) ;
#199 = MECHANICAL_DESIGN_GEOMETRIC_PRESENTATION_REPRESENTATION (  '', ( #58 ), #149 ) ;
#200 = CARTESIAN_POINT ( 'NONE',  ( 0.1874999999999999445, 3.000000000000000444, 2.296212748401288342E-17 ) ) ;
#201 = PRESENTATION_STYLE_ASSIGNMENT (( #265 ) ) ;
#202 = APPLICATION_CONTEXT ( 'automotive_design' ) ;
#203 =( LENGTH_UNIT ( ) NAMED_UNIT ( * ) SI_UNIT ( $, .METRE. ) );
#204 = PRESENTATION_LAYER_ASSIGNMENT (  '', '', ( #66 ) ) ;
#205 =( GEOMETRIC_REPRESENTATION_CONTEXT ( 3 ) GLOBAL_UNCERTAINTY_ASSIGNED_CONTEXT ( ( #72 ) ) GLOBAL_UNIT_ASSIGNED_CONTEXT ( ( #214, #45, #229 ) ) REPRESENTATION_CONTEXT ( 'NONE', 'WORKASPACE' ) );
#206 = CIRCLE ( 'NONE', #299, 0.1875000000000000278 ) ;
#207 = DIRECTION ( 'NONE',  ( -5.763043760693429322E-17, 1.000000000000000000, -0.000000000000000000 ) ) ;
#208 = CARTESIAN_POINT ( 'NONE',  ( 3.113688130093824870E-34, 0.8750000000000000000, 0.000000000000000000 ) ) ;
#209 =( NAMED_UNIT ( * ) PLANE_ANGLE_UNIT ( ) SI_UNIT ( $, .RADIAN. ) );
#210 = SURFACE_STYLE_USAGE ( .BOTH. , #167 ) ;
#211 = ORIENTED_EDGE ( 'NONE', *, *, #65, .T. ) ;
#212 = FILL_AREA_STYLE ('',( #13 ) ) ;
#213 = EDGE_LOOP ( 'NONE', ( #183, #305 ) ) ;
#214 =( CONVERSION_BASED_UNIT ( 'INCH', #170 ) LENGTH_UNIT ( ) NAMED_UNIT ( #270 ) );
#215 =( GEOMETRIC_REPRESENTATION_CONTEXT ( 3 ) GLOBAL_UNCERTAINTY_ASSIGNED_CONTEXT ( ( #97 ) ) GLOBAL_UNIT_ASSIGNED_CONTEXT ( ( #268, #10, #277 ) ) REPRESENTATION_CONTEXT ( 'NONE', 'WORKASPACE' ) );
#216 = DIMENSIONAL_EXPONENTS ( 1.000000000000000000, 0.000000000000000000, 0.000000000000000000, 0.000000000000000000, 0.000000000000000000, 0.000000000000000000, 0.000000000000000000 ) ;
#217 = ORIENTED_EDGE ( 'NONE', *, *, #182, .T. ) ;
#218 = SURFACE_SIDE_STYLE ('',( #70 ) ) ;
#219 = DIRECTION ( 'NONE',  ( 0.000000000000000000, 0.000000000000000000, -1.000000000000000000 ) ) ;
#220 = DIRECTION ( 'NONE',  ( -5.763043760693429322E-17, 1.000000000000000000, -0.000000000000000000 ) ) ;
#221 = MECHANICAL_DESIGN_GEOMETRIC_PRESENTATION_REPRESENTATION (  '', ( #66 ), #19 ) ;
#222 = AXIS2_PLACEMENT_3D ( 'NONE', #179, #294, #134 ) ;
#223 = EDGE_CURVE ( 'NONE', #160, #273, #27, .T. ) ;
#224 = MANIFOLD_SOLID_BREP ( 'Revolve - Cutting Edge', #82 ) ;
#225 = ORIENTED_EDGE ( 'NONE', *, *, #143, .F. ) ;
#226 =( LENGTH_UNIT ( ) NAMED_UNIT ( * ) SI_UNIT ( $, .METRE. ) );
#227 = EDGE_CURVE ( 'NONE', #281, #160, #47, .T. ) ;
#228 = FILL_AREA_STYLE_COLOUR ( '', #266 ) ;
#229 =( NAMED_UNIT ( * ) SI_UNIT ( $, .STERADIAN. ) SOLID_ANGLE_UNIT ( ) );
#230 = ORIENTED_EDGE ( 'NONE', *, *, #92, .T. ) ;
#231 = DIRECTION ( 'NONE',  ( -0.000000000000000000, -1.000000000000000000, -0.000000000000000000 ) ) ;
#232 = COLOUR_RGB ( '',0.7921568627450980005, 0.8196078431372548767, 0.9333333333333333481 ) ;
#233 = SURFACE_STYLE_USAGE ( .BOTH. , #191 ) ;
#234 = DIRECTION ( 'NONE',  ( 0.000000000000000000, 0.000000000000000000, 1.000000000000000000 ) ) ;
#235 = DIRECTION ( 'NONE',  ( 0.000000000000000000, 0.000000000000000000, -1.000000000000000000 ) ) ;
#236 = DIRECTION ( 'NONE',  ( -5.763043760693429322E-17, 1.000000000000000000, -0.000000000000000000 ) ) ;
#237 = DIRECTION ( 'NONE',  ( -5.763043760693429322E-17, 1.000000000000000000, -0.000000000000000000 ) ) ;
#238 = DIRECTION ( 'NONE',  ( 0.000000000000000000, 1.000000000000000000, 0.000000000000000000 ) ) ;
#239 = DIRECTION ( 'NONE',  ( 0.000000000000000000, 0.000000000000000000, -1.000000000000000000 ) ) ;
#240 = LINE ( 'NONE', #31, #32 ) ;
#241 =( GEOMETRIC_REPRESENTATION_CONTEXT ( 3 ) GLOBAL_UNCERTAINTY_ASSIGNED_CONTEXT ( ( #301 ) ) GLOBAL_UNIT_ASSIGNED_CONTEXT ( ( #67, #161, #304 ) ) REPRESENTATION_CONTEXT ( 'NONE', 'WORKASPACE' ) );
#242 = EDGE_LOOP ( 'NONE', ( #225, #164 ) ) ;
#243 = MECHANICAL_DESIGN_GEOMETRIC_PRESENTATION_REPRESENTATION (  '', ( #33 ), #241 ) ;
#244 = CARTESIAN_POINT ( 'NONE',  ( 0.000000000000000000, 0.000000000000000000, 0.000000000000000000 ) ) ;
#245 = ADVANCED_BREP_SHAPE_REPRESENTATION ( '82267W', ( #224, #15, #106 ), #282 ) ;
#246 = EDGE_LOOP ( 'NONE', ( #255, #302, #267, #186 ) ) ;
#247 = FILL_AREA_STYLE ('',( #228 ) ) ;
#248 = PLANE ( 'NONE',  #146 ) ;
#249 = PRESENTATION_LAYER_ASSIGNMENT (  '', '', ( #83 ) ) ;
#250 = PRODUCT_DEFINITION_CONTEXT ( 'detailed design', #202, 'design' ) ;
#251 = CARTESIAN_POINT ( 'NONE',  ( 0.000000000000000000, 0.000000000000000000, 0.000000000000000000 ) ) ;
#252 = DIRECTION ( 'NONE',  ( -1.000000000000000000, 0.000000000000000000, 0.000000000000000000 ) ) ;
#253 = APPLICATION_CONTEXT ( 'automotive_design' ) ;
#254 =( CONVERSION_BASED_UNIT ( 'INCH', #169 ) LENGTH_UNIT ( ) NAMED_UNIT ( #25 ) );
#255 = ORIENTED_EDGE ( 'NONE', *, *, #137, .T. ) ;
#256 = DIRECTION ( 'NONE',  ( -1.000000000000000000, -5.763043760693429322E-17, 0.000000000000000000 ) ) ;
#257 = CYLINDRICAL_SURFACE ( 'NONE', #112, 0.1875000000000000833 ) ;
#258 =( NAMED_UNIT ( * ) PLANE_ANGLE_UNIT ( ) SI_UNIT ( $, .RADIAN. ) );
#259 = ORIENTED_EDGE ( 'NONE', *, *, #143, .T. ) ;
#260 = VECTOR ( 'NONE', #207, 39.37007874015748143 ) ;
#261 = DIRECTION ( 'NONE',  ( 0.000000000000000000, 0.000000000000000000, -1.000000000000000000 ) ) ;
#262 = CIRCLE ( 'NONE', #39, 0.1875000000000000278 ) ;
#263 = CARTESIAN_POINT ( 'NONE',  ( 2.296212748401287726E-17, 0.8750000000000000000, 0.1875000000000000278 ) ) ;
#264 = VERTEX_POINT ( 'NONE', #271 ) ;
#265 = SURFACE_STYLE_USAGE ( .BOTH. , #218 ) ;
#266 = COLOUR_RGB ( '',1.000000000000000000, 0.000000000000000000, 0.000000000000000000 ) ;
#267 = ORIENTED_EDGE ( 'NONE', *, *, #92, .F. ) ;
#268 =( CONVERSION_BASED_UNIT ( 'INCH', #117 ) LENGTH_UNIT ( ) NAMED_UNIT ( #9 ) );
#269 = VERTEX_POINT ( 'NONE', #87 ) ;
#270 = DIMENSIONAL_EXPONENTS ( 1.000000000000000000, 0.000000000000000000, 0.000000000000000000, 0.000000000000000000, 0.000000000000000000, 0.000000000000000000, 0.000000000000000000 ) ;
#271 = CARTESIAN_POINT ( 'NONE',  ( 0.000000000000000000, 0.8750000000000000000, -0.1875000000000000278 ) ) ;
#272 =( GEOMETRIC_REPRESENTATION_CONTEXT ( 3 ) GLOBAL_UNCERTAINTY_ASSIGNED_CONTEXT ( ( #46 ) ) GLOBAL_UNIT_ASSIGNED_CONTEXT ( ( #254, #258, #23 ) ) REPRESENTATION_CONTEXT ( 'NONE', 'WORKASPACE' ) );
#273 = VERTEX_POINT ( 'NONE', #187 ) ;
#274 = CLOSED_SHELL ( 'NONE', ( #42, #104, #292, #7 ) ) ;
#275 = COLOUR_RGB ( '',1.000000000000000000, 0.000000000000000000, 0.000000000000000000 ) ;
#276 = EDGE_CURVE ( 'NONE', #21, #130, #262, .T. ) ;
#277 =( NAMED_UNIT ( * ) SI_UNIT ( $, .STERADIAN. ) SOLID_ANGLE_UNIT ( ) );
#278 = SURFACE_SIDE_STYLE ('',( #300 ) ) ;
#279 = CARTESIAN_POINT ( 'NONE',  ( 0.1875000000000000278, 0.8749999999999997780, 2.296212748401288650E-17 ) ) ;
#280 =( LENGTH_UNIT ( ) NAMED_UNIT ( * ) SI_UNIT ( $, .METRE. ) );
#281 = VERTEX_POINT ( 'NONE', #279 ) ;
#282 =( GEOMETRIC_REPRESENTATION_CONTEXT ( 3 ) GLOBAL_UNCERTAINTY_ASSIGNED_CONTEXT ( ( #192 ) ) GLOBAL_UNIT_ASSIGNED_CONTEXT ( ( #100, #126, #287 ) ) REPRESENTATION_CONTEXT ( 'NONE', 'WORKASPACE' ) );
#283 = CARTESIAN_POINT ( 'NONE',  ( -1.224646799147353700E-16, 3.000000000000000444, 0.000000000000000000 ) ) ;
#284 = CARTESIAN_POINT ( 'NONE',  ( 0.000000000000000000, 0.000000000000000000, 0.000000000000000000 ) ) ;
#285 =( LENGTH_UNIT ( ) NAMED_UNIT ( * ) SI_UNIT ( $, .METRE. ) );
#286 = FILL_AREA_STYLE_COLOUR ( '', #122 ) ;
#287 =( NAMED_UNIT ( * ) SI_UNIT ( $, .STERADIAN. ) SOLID_ANGLE_UNIT ( ) );
#288 = EDGE_LOOP ( 'NONE', ( #168, #110, #71, #99 ) ) ;
#289 = AXIS2_PLACEMENT_3D ( 'NONE', #1, #237, #147 ) ;
#290 = CIRCLE ( 'NONE', #138, 0.1875000000000001388 ) ;
#291 = STYLED_ITEM ( 'NONE', ( #43 ), #15 ) ;
#292 = ADVANCED_FACE ( 'NONE', ( #51 ), #257, .T. ) ;
#293 = DIMENSIONAL_EXPONENTS ( 1.000000000000000000, 0.000000000000000000, 0.000000000000000000, 0.000000000000000000, 0.000000000000000000, 0.000000000000000000, 0.000000000000000000 ) ;
#294 = DIRECTION ( 'NONE',  ( -5.763043760693429322E-17, 1.000000000000000000, -0.000000000000000000 ) ) ;
#295 = PLANE ( 'NONE',  #188 ) ;
#296 = PRESENTATION_LAYER_ASSIGNMENT (  '', '', ( #58 ) ) ;
#297 = EDGE_CURVE ( 'NONE', #269, #273, #290, .T. ) ;
#298 = ORIENTED_EDGE ( 'NONE', *, *, #223, .T. ) ;
#299 = AXIS2_PLACEMENT_3D ( 'NONE', #8, #145, #172 ) ;
#300 = SURFACE_STYLE_FILL_AREA ( #212 ) ;
#301 = UNCERTAINTY_MEASURE_WITH_UNIT (LENGTH_MEASURE( 1.000000000000000082E-05 ), #67, 'distance_accuracy_value', 'NONE');
#302 = ORIENTED_EDGE ( 'NONE', *, *, #114, .T. ) ;
#303 = PRODUCT_DEFINITION_SHAPE ( 'NONE', 'NONE',  #54 ) ;
#304 =( NAMED_UNIT ( * ) SI_UNIT ( $, .STERADIAN. ) SOLID_ANGLE_UNIT ( ) );
#305 = ORIENTED_EDGE ( 'NONE', *, *, #198, .F. ) ;
#306 = CYLINDRICAL_SURFACE ( 'NONE', #111, 0.1875000000000000278 ) ;
#307 = CARTESIAN_POINT ( 'NONE',  ( -1.224646799147353700E-16, 3.000000000000000444, 0.000000000000000000 ) ) ;
#308 = DIRECTION ( 'NONE',  ( -5.763043760693429322E-17, 1.000000000000000000, 0.000000000000000000 ) ) ;
#309 = SHAPE_DEFINITION_REPRESENTATION ( #303, #245 ) ;
ENDSEC;
END-ISO-10303-21;
