ISO-10303-21;
HEADER;
FILE_DESCRIPTION (( 'STEP AP214' ),
    '1' );
FILE_NAME ('81320.STEP',
    '2023-06-30T22:23:18',
    ( '' ),
    ( '' ),
    'SwSTEP 2.0',
    'SolidWorks 2023',
    '' );
FILE_SCHEMA (( 'AUTOMOTIVE_DESIGN' ));
ENDSEC;

DATA;
#1 = PRODUCT_RELATED_PRODUCT_CATEGORY ( 'part', '', ( #32 ) ) ;
#2 = ORIENTED_EDGE ( 'NONE', *, *, #24, .F. ) ;
#3 =( NAMED_UNIT ( * ) PLANE_ANGLE_UNIT ( ) SI_UNIT ( $, .RADIAN. ) );
#4 = VERTEX_POINT ( 'NONE', #222 ) ;
#5 = CARTESIAN_POINT ( 'NONE',  ( 2.449293598294706907E-16, 2.500000000000000000, 0.000000000000000000 ) ) ;
#6 = DIRECTION ( 'NONE',  ( -1.000000000000000000, 0.000000000000000000, 0.000000000000000000 ) ) ;
#7 = STYLED_ITEM ( 'NONE', ( #188 ), #242 ) ;
#8 = SURFACE_STYLE_FILL_AREA ( #149 ) ;
#9 =( GEOMETRIC_REPRESENTATION_CONTEXT ( 3 ) GLOBAL_UNCERTAINTY_ASSIGNED_CONTEXT ( ( #332 ) ) GLOBAL_UNIT_ASSIGNED_CONTEXT ( ( #98, #20, #74 ) ) REPRESENTATION_CONTEXT ( 'NONE', 'WORKASPACE' ) );
#10 = EDGE_LOOP ( 'NONE', ( #82, #130, #331, #281 ) ) ;
#11 = ORIENTED_EDGE ( 'NONE', *, *, #57, .F. ) ;
#12 = DIRECTION ( 'NONE',  ( 0.000000000000000000, 0.000000000000000000, 1.000000000000000000 ) ) ;
#13 = PLANE ( 'NONE',  #321 ) ;
#14 =( CONVERSION_BASED_UNIT ( 'INCH', #209 ) LENGTH_UNIT ( ) NAMED_UNIT ( #351 ) );
#15 = CARTESIAN_POINT ( 'NONE',  ( 1.148106374200643247E-17, 0.000000000000000000, 0.09374999999999997224 ) ) ;
#16 = FILL_AREA_STYLE_COLOUR ( '', #279 ) ;
#17 = CIRCLE ( 'NONE', #132, 0.09375000000000002776 ) ;
#18 = MECHANICAL_DESIGN_GEOMETRIC_PRESENTATION_REPRESENTATION (  '', ( #362 ), #230 ) ;
#19 = DIRECTION ( 'NONE',  ( 1.000000000000000000, 0.000000000000000000, 0.000000000000000000 ) ) ;
#20 =( NAMED_UNIT ( * ) PLANE_ANGLE_UNIT ( ) SI_UNIT ( $, .RADIAN. ) );
#21 = FILL_AREA_STYLE_COLOUR ( '', #244 ) ;
#22 = STYLED_ITEM ( 'NONE', ( #79 ), #284 ) ;
#23 = AXIS2_PLACEMENT_3D ( 'NONE', #159, #223, #19 ) ;
#24 = EDGE_CURVE ( 'NONE', #247, #36, #270, .T. ) ;
#25 = ORIENTED_EDGE ( 'NONE', *, *, #101, .F. ) ;
#26 = STYLED_ITEM ( 'NONE', ( #139 ), #156 ) ;
#27 = DIRECTION ( 'NONE',  ( 0.000000000000000000, -0.000000000000000000, 1.000000000000000000 ) ) ;
#28 = DIRECTION ( 'NONE',  ( -0.000000000000000000, -1.000000000000000000, -0.000000000000000000 ) ) ;
#29 = CARTESIAN_POINT ( 'NONE',  ( 0.000000000000000000, 0.7499999999999998890, 0.000000000000000000 ) ) ;
#30 = VERTEX_POINT ( 'NONE', #49 ) ;
#31 = LENGTH_MEASURE_WITH_UNIT ( LENGTH_MEASURE( 0.02539999999999999897 ), #167 );
#32 = PRODUCT ( '81320', '81320', '', ( #273 ) ) ;
#33 = EDGE_LOOP ( 'NONE', ( #51, #241, #110, #115 ) ) ;
#34 = VECTOR ( 'NONE', #92, 39.37007874015748143 ) ;
#35 = CARTESIAN_POINT ( 'NONE',  ( 0.09375000000000002776, 0.09375000000000002776, 0.000000000000000000 ) ) ;
#36 = VERTEX_POINT ( 'NONE', #127 ) ;
#37 = VERTEX_POINT ( 'NONE', #94 ) ;
#38 = EDGE_CURVE ( 'NONE', #36, #104, #95, .T. ) ;
#39 = LENGTH_MEASURE_WITH_UNIT ( LENGTH_MEASURE( 0.02539999999999999897 ), #257 );
#40 = DIRECTION ( 'NONE',  ( 0.000000000000000000, 0.000000000000000000, -1.000000000000000000 ) ) ;
#41 = DIRECTION ( 'NONE',  ( -1.000000000000000000, 0.000000000000000000, 0.000000000000000000 ) ) ;
#42 = EDGE_CURVE ( 'NONE', #227, #214, #337, .T. ) ;
#43 = PRESENTATION_STYLE_ASSIGNMENT (( #88 ) ) ;
#44 = DIRECTION ( 'NONE',  ( -0.000000000000000000, -1.000000000000000000, -0.000000000000000000 ) ) ;
#45 = DIRECTION ( 'NONE',  ( -0.000000000000000000, -1.000000000000000000, -0.000000000000000000 ) ) ;
#46 = VECTOR ( 'NONE', #45, 39.37007874015748143 ) ;
#47 = SPHERICAL_SURFACE ( 'NONE', #23, 0.09375000000000002776 ) ;
#48 = AXIS2_PLACEMENT_3D ( 'NONE', #165, #367, #335 ) ;
#49 = CARTESIAN_POINT ( 'NONE',  ( 1.148106374200643863E-17, 0.09375000000000002776, 0.09375000000000001388 ) ) ;
#50 = AXIS2_PLACEMENT_3D ( 'NONE', #185, #302, #41 ) ;
#51 = ORIENTED_EDGE ( 'NONE', *, *, #309, .F. ) ;
#52 = SURFACE_SIDE_STYLE ('',( #231 ) ) ;
#53 =( GEOMETRIC_REPRESENTATION_CONTEXT ( 3 ) GLOBAL_UNCERTAINTY_ASSIGNED_CONTEXT ( ( #124 ) ) GLOBAL_UNIT_ASSIGNED_CONTEXT ( ( #312, #233, #288 ) ) REPRESENTATION_CONTEXT ( 'NONE', 'WORKASPACE' ) );
#54 = VERTEX_POINT ( 'NONE', #66 ) ;
#55 = DIRECTION ( 'NONE',  ( -1.483672453417965792E-16, 1.000000000000000000, -0.000000000000000000 ) ) ;
#56 =( LENGTH_UNIT ( ) NAMED_UNIT ( * ) SI_UNIT ( $, .METRE. ) );
#57 = EDGE_CURVE ( 'NONE', #30, #54, #278, .T. ) ;
#58 = MECHANICAL_DESIGN_GEOMETRIC_PRESENTATION_REPRESENTATION (  '', ( #7 ), #53 ) ;
#59 = FILL_AREA_STYLE ('',( #174 ) ) ;
#60 = ORIENTED_EDGE ( 'NONE', *, *, #228, .F. ) ;
#61 = ORIENTED_EDGE ( 'NONE', *, *, #38, .F. ) ;
#62 = LENGTH_MEASURE_WITH_UNIT ( LENGTH_MEASURE( 0.02539999999999999897 ), #56 );
#63 = LENGTH_MEASURE_WITH_UNIT ( LENGTH_MEASURE( 0.02539999999999999897 ), #354 );
#64 = CARTESIAN_POINT ( 'NONE',  ( -0.09374999999999891753, 0.7499999999999998890, 0.000000000000000000 ) ) ;
#65 = PRESENTATION_LAYER_ASSIGNMENT (  '', '', ( #203 ) ) ;
#66 = CARTESIAN_POINT ( 'NONE',  ( -0.09375000000000002776, 0.09375000000000002776, 1.148106374200643863E-17 ) ) ;
#67 = SURFACE_STYLE_USAGE ( .BOTH. , #330 ) ;
#68 = UNCERTAINTY_MEASURE_WITH_UNIT (LENGTH_MEASURE( 1.000000000000000082E-05 ), #14, 'distance_accuracy_value', 'NONE');
#69 = EDGE_CURVE ( 'NONE', #37, #30, #272, .T. ) ;
#70 = STYLED_ITEM ( 'NONE', ( #172 ), #151 ) ;
#71 = DIRECTION ( 'NONE',  ( 0.000000000000000000, 0.000000000000000000, 1.000000000000000000 ) ) ;
#72 = AXIS2_PLACEMENT_3D ( 'NONE', #131, #201, #262 ) ;
#73 = PRODUCT_DEFINITION_FORMATION_WITH_SPECIFIED_SOURCE ( 'ANY', '', #32, .NOT_KNOWN. ) ;
#74 =( NAMED_UNIT ( * ) SI_UNIT ( $, .STERADIAN. ) SOLID_ANGLE_UNIT ( ) );
#75 = DIRECTION ( 'NONE',  ( 1.224646799147353207E-16, -0.000000000000000000, 1.000000000000000000 ) ) ;
#76 = ORIENTED_EDGE ( 'NONE', *, *, #189, .T. ) ;
#77 = PRESENTATION_LAYER_ASSIGNMENT (  '', '', ( #7 ) ) ;
#78 = UNCERTAINTY_MEASURE_WITH_UNIT (LENGTH_MEASURE( 1.000000000000000082E-05 ), #344, 'distance_accuracy_value', 'NONE');
#79 = PRESENTATION_STYLE_ASSIGNMENT (( #336 ) ) ;
#80 = CARTESIAN_POINT ( 'NONE',  ( -5.740531871003217773E-18, -1.707404996040164512E-17, 0.000000000000000000 ) ) ;
#81 = MECHANICAL_DESIGN_GEOMETRIC_PRESENTATION_REPRESENTATION (  '', ( #89 ), #245 ) ;
#82 = ORIENTED_EDGE ( 'NONE', *, *, #42, .T. ) ;
#83 = DIRECTION ( 'NONE',  ( -0.000000000000000000, -1.000000000000000000, -0.000000000000000000 ) ) ;
#84 = EDGE_LOOP ( 'NONE', ( #76, #264 ) ) ;
#85 = SURFACE_STYLE_USAGE ( .BOTH. , #146 ) ;
#86 = EDGE_CURVE ( 'NONE', #104, #30, #293, .T. ) ;
#87 = FACE_OUTER_BOUND ( 'NONE', #103, .T. ) ;
#88 = SURFACE_STYLE_USAGE ( .BOTH. , #217 ) ;
#89 = STYLED_ITEM ( 'NONE', ( #177 ), #198 ) ;
#90 = CARTESIAN_POINT ( 'NONE',  ( 2.449293598294706907E-16, 2.500000000000000000, 0.000000000000000000 ) ) ;
#91 = SURFACE_STYLE_USAGE ( .BOTH. , #353 ) ;
#92 = DIRECTION ( 'NONE',  ( -1.483672453417965792E-16, 1.000000000000000000, -0.000000000000000000 ) ) ;
#93 =( NAMED_UNIT ( * ) PLANE_ANGLE_UNIT ( ) SI_UNIT ( $, .RADIAN. ) );
#94 = CARTESIAN_POINT ( 'NONE',  ( 1.148106374200642938E-17, 0.7500000000000001110, 0.09374999999999991673 ) ) ;
#95 = CIRCLE ( 'NONE', #129, 0.09375000000000002776 ) ;
#96 = SURFACE_STYLE_FILL_AREA ( #356 ) ;
#97 = COLOUR_RGB ( '',1.000000000000000000, 0.000000000000000000, 0.000000000000000000 ) ;
#98 =( CONVERSION_BASED_UNIT ( 'INCH', #100 ) LENGTH_UNIT ( ) NAMED_UNIT ( #324 ) );
#99 = UNCERTAINTY_MEASURE_WITH_UNIT (LENGTH_MEASURE( 1.000000000000000082E-05 ), #295, 'distance_accuracy_value', 'NONE');
#100 = LENGTH_MEASURE_WITH_UNIT ( LENGTH_MEASURE( 0.02539999999999999897 ), #280 );
#101 = EDGE_CURVE ( 'NONE', #54, #298, #17, .T. ) ;
#102 = CARTESIAN_POINT ( 'NONE',  ( -1.148106374200643863E-17, 0.09375000000000001388, 0.000000000000000000 ) ) ;
#103 = EDGE_LOOP ( 'NONE', ( #171, #365 ) ) ;
#104 = VERTEX_POINT ( 'NONE', #35 ) ;
#105 = FILL_AREA_STYLE ('',( #372 ) ) ;
#106 = CIRCLE ( 'NONE', #48, 0.09374999999999991673 ) ;
#107 = AXIS2_PLACEMENT_3D ( 'NONE', #322, #334, #128 ) ;
#108 = CARTESIAN_POINT ( 'NONE',  ( 2.449293598294706907E-16, 2.500000000000000000, 0.000000000000000000 ) ) ;
#109 = CYLINDRICAL_SURFACE ( 'NONE', #315, 0.09374999999999997224 ) ;
#110 = ORIENTED_EDGE ( 'NONE', *, *, #224, .T. ) ;
#111 = SURFACE_STYLE_USAGE ( .BOTH. , #166 ) ;
#112 = CARTESIAN_POINT ( 'NONE',  ( 0.000000000000000000, 0.000000000000000000, 0.000000000000000000 ) ) ;
#113 =( CONVERSION_BASED_UNIT ( 'INCH', #62 ) LENGTH_UNIT ( ) NAMED_UNIT ( #373 ) );
#114 = VECTOR ( 'NONE', #358, 39.37007874015748143 ) ;
#115 = ORIENTED_EDGE ( 'NONE', *, *, #349, .F. ) ;
#116 =( GEOMETRIC_REPRESENTATION_CONTEXT ( 3 ) GLOBAL_UNCERTAINTY_ASSIGNED_CONTEXT ( ( #220 ) ) GLOBAL_UNIT_ASSIGNED_CONTEXT ( ( #283, #3, #138 ) ) REPRESENTATION_CONTEXT ( 'NONE', 'WORKASPACE' ) );
#117 = DIRECTION ( 'NONE',  ( -1.483672453417965792E-16, 1.000000000000000000, -0.000000000000000000 ) ) ;
#118 = DIMENSIONAL_EXPONENTS ( 1.000000000000000000, 0.000000000000000000, 0.000000000000000000, 0.000000000000000000, 0.000000000000000000, 0.000000000000000000, 0.000000000000000000 ) ;
#119 = DIRECTION ( 'NONE',  ( -0.000000000000000000, -1.000000000000000000, -0.000000000000000000 ) ) ;
#120 = ORIENTED_EDGE ( 'NONE', *, *, #101, .T. ) ;
#121 = APPLICATION_CONTEXT ( 'automotive_design' ) ;
#122 =( NAMED_UNIT ( * ) SI_UNIT ( $, .STERADIAN. ) SOLID_ANGLE_UNIT ( ) );
#123 = DIRECTION ( 'NONE',  ( -1.000000000000000000, -1.483672453417965792E-16, 0.000000000000000000 ) ) ;
#124 = UNCERTAINTY_MEASURE_WITH_UNIT (LENGTH_MEASURE( 1.000000000000000082E-05 ), #312, 'distance_accuracy_value', 'NONE');
#125 = CIRCLE ( 'NONE', #255, 0.09374999999999968081 ) ;
#126 = PLANE ( 'NONE',  #176 ) ;
#127 = CARTESIAN_POINT ( 'NONE',  ( 0.000000000000000000, 0.09375000000000002776, -0.09375000000000002776 ) ) ;
#128 = DIRECTION ( 'NONE',  ( 0.000000000000000000, 0.000000000000000000, -1.000000000000000000 ) ) ;
#129 = AXIS2_PLACEMENT_3D ( 'NONE', #277, #355, #40 ) ;
#130 = ORIENTED_EDGE ( 'NONE', *, *, #309, .T. ) ;
#131 = CARTESIAN_POINT ( 'NONE',  ( 0.09374999999999991673, 2.500000000000000000, 0.000000000000000000 ) ) ;
#132 = AXIS2_PLACEMENT_3D ( 'NONE', #102, #75, #193 ) ;
#133 = DIRECTION ( 'NONE',  ( 0.000000000000000000, 0.000000000000000000, -1.000000000000000000 ) ) ;
#134 = SURFACE_STYLE_FILL_AREA ( #364 ) ;
#135 = FACE_OUTER_BOUND ( 'NONE', #180, .T. ) ;
#136 = DIRECTION ( 'NONE',  ( 0.000000000000000000, 0.000000000000000000, -1.000000000000000000 ) ) ;
#137 =( LENGTH_UNIT ( ) NAMED_UNIT ( * ) SI_UNIT ( $, .METRE. ) );
#138 =( NAMED_UNIT ( * ) SI_UNIT ( $, .STERADIAN. ) SOLID_ANGLE_UNIT ( ) );
#139 = PRESENTATION_STYLE_ASSIGNMENT (( #286 ) ) ;
#140 = FACE_OUTER_BOUND ( 'NONE', #343, .T. ) ;
#141 = PRESENTATION_LAYER_ASSIGNMENT (  '', '', ( #26 ) ) ;
#142 = CIRCLE ( 'NONE', #195, 0.09374999999999943101 ) ;
#143 = ORIENTED_EDGE ( 'NONE', *, *, #86, .F. ) ;
#144 = CIRCLE ( 'NONE', #368, 0.09374999999999968081 ) ;
#145 = ORIENTED_EDGE ( 'NONE', *, *, #69, .T. ) ;
#146 = SURFACE_SIDE_STYLE ('',( #8 ) ) ;
#147 = EDGE_CURVE ( 'NONE', #54, #36, #285, .T. ) ;
#148 =( NAMED_UNIT ( * ) PLANE_ANGLE_UNIT ( ) SI_UNIT ( $, .RADIAN. ) );
#149 = FILL_AREA_STYLE ('',( #178 ) ) ;
#150 = AXIS2_PLACEMENT_3D ( 'NONE', #108, #235, #339 ) ;
#151 = MANIFOLD_SOLID_BREP ( 'Revolve - Tool Body (Straight Shanked)', #161 ) ;
#152 = CARTESIAN_POINT ( 'NONE',  ( 5.045720391776147351E-16, 0.7499999999999998890, 0.000000000000000000 ) ) ;
#153 =( NAMED_UNIT ( * ) SI_UNIT ( $, .STERADIAN. ) SOLID_ANGLE_UNIT ( ) );
#154 = DIRECTION ( 'NONE',  ( 0.000000000000000000, 0.000000000000000000, -1.000000000000000000 ) ) ;
#155 =( LENGTH_UNIT ( ) NAMED_UNIT ( * ) SI_UNIT ( $, .METRE. ) );
#156 = MANIFOLD_SOLID_BREP ( 'Revolve - Cutting Edge', #225 ) ;
#157 =( GEOMETRIC_REPRESENTATION_CONTEXT ( 3 ) GLOBAL_UNCERTAINTY_ASSIGNED_CONTEXT ( ( #78 ) ) GLOBAL_UNIT_ASSIGNED_CONTEXT ( ( #344, #212, #153 ) ) REPRESENTATION_CONTEXT ( 'NONE', 'WORKASPACE' ) );
#158 = AXIS2_PLACEMENT_3D ( 'NONE', #184, #119, #240 ) ;
#159 = CARTESIAN_POINT ( 'NONE',  ( -1.148106374200643863E-17, 0.09375000000000001388, 0.000000000000000000 ) ) ;
#160 = ADVANCED_FACE ( 'NONE', ( #297 ), #338, .T. ) ;
#161 = CLOSED_SHELL ( 'NONE', ( #290, #183, #160, #269 ) ) ;
#162 = MECHANICAL_DESIGN_GEOMETRIC_PRESENTATION_REPRESENTATION (  '', ( #203 ), #246 ) ;
#163 = ORIENTED_EDGE ( 'NONE', *, *, #371, .T. ) ;
#164 = EDGE_CURVE ( 'NONE', #214, #227, #142, .T. ) ;
#165 = CARTESIAN_POINT ( 'NONE',  ( 0.000000000000000000, 0.7500000000000001110, 0.000000000000000000 ) ) ;
#166 = SURFACE_SIDE_STYLE ('',( #134 ) ) ;
#167 =( LENGTH_UNIT ( ) NAMED_UNIT ( * ) SI_UNIT ( $, .METRE. ) );
#168 = PRODUCT_DEFINITION ( 'UNKNOWN', '', #73, #307 ) ;
#169 = PRESENTATION_LAYER_ASSIGNMENT (  '', '', ( #89 ) ) ;
#170 = DIMENSIONAL_EXPONENTS ( 1.000000000000000000, 0.000000000000000000, 0.000000000000000000, 0.000000000000000000, 0.000000000000000000, 0.000000000000000000, 0.000000000000000000 ) ;
#171 = ORIENTED_EDGE ( 'NONE', *, *, #42, .F. ) ;
#172 = PRESENTATION_STYLE_ASSIGNMENT (( #111 ) ) ;
#173 = EDGE_LOOP ( 'NONE', ( #25, #256, #206, #296 ) ) ;
#174 = FILL_AREA_STYLE_COLOUR ( '', #210 ) ;
#175 = AXIS2_PLACEMENT_3D ( 'NONE', #202, #333, #314 ) ;
#176 = AXIS2_PLACEMENT_3D ( 'NONE', #29, #291, #27 ) ;
#177 = PRESENTATION_STYLE_ASSIGNMENT (( #91 ) ) ;
#178 = FILL_AREA_STYLE_COLOUR ( '', #361 ) ;
#179 = CARTESIAN_POINT ( 'NONE',  ( 0.000000000000000000, 0.09375000000000002776, 0.000000000000000000 ) ) ;
#180 = EDGE_LOOP ( 'NONE', ( #352, #346, #310, #327, #11 ) ) ;
#181 = CARTESIAN_POINT ( 'NONE',  ( -0.09374999999999930611, 2.500000000000000000, 0.000000000000000000 ) ) ;
#182 = PRESENTATION_STYLE_ASSIGNMENT (( #85 ) ) ;
#183 = ADVANCED_FACE ( 'NONE', ( #87 ), #13, .F. ) ;
#184 = CARTESIAN_POINT ( 'NONE',  ( 0.000000000000000000, 0.000000000000000000, 0.000000000000000000 ) ) ;
#185 = CARTESIAN_POINT ( 'NONE',  ( -1.148106374200643863E-17, 0.09375000000000001388, 0.000000000000000000 ) ) ;
#186 = CARTESIAN_POINT ( 'NONE',  ( 0.000000000000000000, 0.09375000000000002776, 0.000000000000000000 ) ) ;
#187 = ADVANCED_BREP_SHAPE_REPRESENTATION ( '81320', ( #156, #151, #191 ), #9 ) ;
#188 = PRESENTATION_STYLE_ASSIGNMENT (( #67 ) ) ;
#189 = EDGE_CURVE ( 'NONE', #194, #4, #125, .T. ) ;
#190 = COLOUR_RGB ( '',0.7921568627450980005, 0.8196078431372548767, 0.9333333333333333481 ) ;
#191 = AXIS2_PLACEMENT_3D ( 'NONE', #363, #71, #192 ) ;
#192 = DIRECTION ( 'NONE',  ( 1.000000000000000000, 0.000000000000000000, 0.000000000000000000 ) ) ;
#193 = DIRECTION ( 'NONE',  ( 1.000000000000000000, 0.000000000000000000, -1.224646799147353207E-16 ) ) ;
#194 = VERTEX_POINT ( 'NONE', #239 ) ;
#195 = AXIS2_PLACEMENT_3D ( 'NONE', #207, #117, #6 ) ;
#196 =( CONVERSION_BASED_UNIT ( 'INCH', #234 ) LENGTH_UNIT ( ) NAMED_UNIT ( #170 ) );
#197 = CARTESIAN_POINT ( 'NONE',  ( 0.000000000000000000, 0.7500000000000001110, -0.09374999999999991673 ) ) ;
#198 = ADVANCED_FACE ( 'NONE', ( #268 ), #265, .T. ) ;
#199 = FILL_AREA_STYLE_COLOUR ( '', #190 ) ;
#200 = APPLICATION_CONTEXT ( 'automotive_design' ) ;
#201 = DIRECTION ( 'NONE',  ( 1.483672453417965792E-16, -1.000000000000000000, 0.000000000000000000 ) ) ;
#202 = CARTESIAN_POINT ( 'NONE',  ( 0.000000000000000000, 0.09375000000000002776, 0.000000000000000000 ) ) ;
#203 = STYLED_ITEM ( 'NONE', ( #182 ), #326 ) ;
#204 = FILL_AREA_STYLE ('',( #199 ) ) ;
#205 = LINE ( 'NONE', #317, #236 ) ;
#206 = ORIENTED_EDGE ( 'NONE', *, *, #38, .T. ) ;
#207 = CARTESIAN_POINT ( 'NONE',  ( 5.045720391776147351E-16, 0.7499999999999998890, 0.000000000000000000 ) ) ;
#208 = DIRECTION ( 'NONE',  ( -1.000000000000000000, 0.000000000000000000, 0.000000000000000000 ) ) ;
#209 = LENGTH_MEASURE_WITH_UNIT ( LENGTH_MEASURE( 0.02539999999999999897 ), #303 );
#210 = COLOUR_RGB ( '',1.000000000000000000, 0.000000000000000000, 0.000000000000000000 ) ;
#211 = PRESENTATION_LAYER_ASSIGNMENT (  '', '', ( #362 ) ) ;
#212 =( NAMED_UNIT ( * ) PLANE_ANGLE_UNIT ( ) SI_UNIT ( $, .RADIAN. ) );
#213 = DIRECTION ( 'NONE',  ( -1.000000000000000000, 0.000000000000000000, 0.000000000000000000 ) ) ;
#214 = VERTEX_POINT ( 'NONE', #250 ) ;
#215 = DIRECTION ( 'NONE',  ( -1.483672453417965792E-16, 1.000000000000000000, 0.000000000000000000 ) ) ;
#216 = CARTESIAN_POINT ( 'NONE',  ( 2.449293598294706907E-16, 2.500000000000000000, 0.000000000000000000 ) ) ;
#217 = SURFACE_SIDE_STYLE ('',( #345 ) ) ;
#218 = DIRECTION ( 'NONE',  ( -1.000000000000000000, 0.000000000000000000, 0.000000000000000000 ) ) ;
#219 = FACE_OUTER_BOUND ( 'NONE', #340, .T. ) ;
#220 = UNCERTAINTY_MEASURE_WITH_UNIT (LENGTH_MEASURE( 1.000000000000000082E-05 ), #283, 'distance_accuracy_value', 'NONE');
#221 = APPLICATION_PROTOCOL_DEFINITION ( 'draft international standard', 'automotive_design', 1998, #200 ) ;
#222 = CARTESIAN_POINT ( 'NONE',  ( 0.09374999999999991673, 2.500000000000000000, 1.148106374200638932E-17 ) ) ;
#223 = DIRECTION ( 'NONE',  ( 0.000000000000000000, 0.000000000000000000, 1.000000000000000000 ) ) ;
#224 = EDGE_CURVE ( 'NONE', #227, #194, #348, .T. ) ;
#225 = CLOSED_SHELL ( 'NONE', ( #366, #326, #242, #284, #198 ) ) ;
#226 =( NAMED_UNIT ( * ) SI_UNIT ( $, .STERADIAN. ) SOLID_ANGLE_UNIT ( ) );
#227 = VERTEX_POINT ( 'NONE', #64 ) ;
#228 = EDGE_CURVE ( 'NONE', #104, #298, #229, .T. ) ;
#229 = CIRCLE ( 'NONE', #50, 0.09375000000000002776 ) ;
#230 =( GEOMETRIC_REPRESENTATION_CONTEXT ( 3 ) GLOBAL_UNCERTAINTY_ASSIGNED_CONTEXT ( ( #99 ) ) GLOBAL_UNIT_ASSIGNED_CONTEXT ( ( #295, #359, #226 ) ) REPRESENTATION_CONTEXT ( 'NONE', 'WORKASPACE' ) );
#231 = SURFACE_STYLE_FILL_AREA ( #105 ) ;
#232 =( NAMED_UNIT ( * ) SI_UNIT ( $, .STERADIAN. ) SOLID_ANGLE_UNIT ( ) );
#233 =( NAMED_UNIT ( * ) PLANE_ANGLE_UNIT ( ) SI_UNIT ( $, .RADIAN. ) );
#234 = LENGTH_MEASURE_WITH_UNIT ( LENGTH_MEASURE( 0.02539999999999999897 ), #137 );
#235 = DIRECTION ( 'NONE',  ( -1.483672453417965792E-16, 1.000000000000000000, -0.000000000000000000 ) ) ;
#236 = VECTOR ( 'NONE', #55, 39.37007874015748143 ) ;
#237 = ORIENTED_EDGE ( 'NONE', *, *, #260, .F. ) ;
#238 = DIRECTION ( 'NONE',  ( -1.483672453417965792E-16, 1.000000000000000000, -0.000000000000000000 ) ) ;
#239 = CARTESIAN_POINT ( 'NONE',  ( -0.09374999999999944489, 2.500000000000000000, 0.000000000000000000 ) ) ;
#240 = DIRECTION ( 'NONE',  ( 0.000000000000000000, 0.000000000000000000, -1.000000000000000000 ) ) ;
#241 = ORIENTED_EDGE ( 'NONE', *, *, #164, .T. ) ;
#242 = ADVANCED_FACE ( 'NONE', ( #219 ), #126, .T. ) ;
#243 = DIRECTION ( 'NONE',  ( 1.000000000000000000, 0.000000000000000000, 0.000000000000000000 ) ) ;
#244 = COLOUR_RGB ( '',0.7921568627450980005, 0.8196078431372548767, 0.9333333333333333481 ) ;
#245 =( GEOMETRIC_REPRESENTATION_CONTEXT ( 3 ) GLOBAL_UNCERTAINTY_ASSIGNED_CONTEXT ( ( #287 ) ) GLOBAL_UNIT_ASSIGNED_CONTEXT ( ( #113, #148, #122 ) ) REPRESENTATION_CONTEXT ( 'NONE', 'WORKASPACE' ) );
#246 =( GEOMETRIC_REPRESENTATION_CONTEXT ( 3 ) GLOBAL_UNCERTAINTY_ASSIGNED_CONTEXT ( ( #68 ) ) GLOBAL_UNIT_ASSIGNED_CONTEXT ( ( #14, #93, #319 ) ) REPRESENTATION_CONTEXT ( 'NONE', 'WORKASPACE' ) );
#247 = VERTEX_POINT ( 'NONE', #197 ) ;
#248 = DIRECTION ( 'NONE',  ( -1.483672453417965792E-16, 1.000000000000000000, -0.000000000000000000 ) ) ;
#249 = CYLINDRICAL_SURFACE ( 'NONE', #158, 0.09374999999999997224 ) ;
#250 = CARTESIAN_POINT ( 'NONE',  ( 0.09374999999999994449, 0.7499999999999998890, 1.148106374200639087E-17 ) ) ;
#251 = DIRECTION ( 'NONE',  ( -1.483672453417965792E-16, 1.000000000000000000, -0.000000000000000000 ) ) ;
#252 = SURFACE_STYLE_FILL_AREA ( #59 ) ;
#253 = MECHANICAL_DESIGN_GEOMETRIC_PRESENTATION_REPRESENTATION (  '', ( #70 ), #350 ) ;
#254 = CARTESIAN_POINT ( 'NONE',  ( 0.000000000000000000, 0.000000000000000000, -0.09374999999999997224 ) ) ;
#255 = AXIS2_PLACEMENT_3D ( 'NONE', #216, #248, #208 ) ;
#256 = ORIENTED_EDGE ( 'NONE', *, *, #147, .T. ) ;
#257 =( LENGTH_UNIT ( ) NAMED_UNIT ( * ) SI_UNIT ( $, .METRE. ) );
#258 = FACE_OUTER_BOUND ( 'NONE', #10, .T. ) ;
#259 = PRESENTATION_LAYER_ASSIGNMENT (  '', '', ( #22 ) ) ;
#260 = EDGE_CURVE ( 'NONE', #37, #247, #106, .T. ) ;
#261 = AXIS2_PLACEMENT_3D ( 'NONE', #186, #44, #154 ) ;
#262 = DIRECTION ( 'NONE',  ( 1.000000000000000000, 1.483672453417965792E-16, 0.000000000000000000 ) ) ;
#263 = COLOUR_RGB ( '',1.000000000000000000, 0.000000000000000000, 0.000000000000000000 ) ;
#264 = ORIENTED_EDGE ( 'NONE', *, *, #349, .T. ) ;
#265 = SPHERICAL_SURFACE ( 'NONE', #357, 0.09375000000000002776 ) ;
#266 = DIMENSIONAL_EXPONENTS ( 1.000000000000000000, 0.000000000000000000, 0.000000000000000000, 0.000000000000000000, 0.000000000000000000, 0.000000000000000000, 0.000000000000000000 ) ;
#267 = EDGE_LOOP ( 'NONE', ( #304, #120, #60, #292 ) ) ;
#268 = FACE_OUTER_BOUND ( 'NONE', #173, .T. ) ;
#269 = ADVANCED_FACE ( 'NONE', ( #282 ), #311, .F. ) ;
#270 = LINE ( 'NONE', #254, #46 ) ;
#271 = DIRECTION ( 'NONE',  ( -1.483672453417965792E-16, 1.000000000000000000, -0.000000000000000000 ) ) ;
#272 = LINE ( 'NONE', #15, #114 ) ;
#273 = PRODUCT_CONTEXT ( 'NONE', #200, 'mechanical' ) ;
#274 = AXIS2_PLACEMENT_3D ( 'NONE', #5, #271, #328 ) ;
#275 = CIRCLE ( 'NONE', #107, 0.09374999999999991673 ) ;
#276 = APPLICATION_PROTOCOL_DEFINITION ( 'draft international standard', 'automotive_design', 1998, #121 ) ;
#277 = CARTESIAN_POINT ( 'NONE',  ( 0.000000000000000000, 0.09375000000000002776, 0.000000000000000000 ) ) ;
#278 = CIRCLE ( 'NONE', #261, 0.09375000000000002776 ) ;
#279 = COLOUR_RGB ( '',1.000000000000000000, 0.000000000000000000, 0.000000000000000000 ) ;
#280 =( LENGTH_UNIT ( ) NAMED_UNIT ( * ) SI_UNIT ( $, .METRE. ) );
#281 = ORIENTED_EDGE ( 'NONE', *, *, #224, .F. ) ;
#282 = FACE_OUTER_BOUND ( 'NONE', #84, .T. ) ;
#283 =( CONVERSION_BASED_UNIT ( 'INCH', #31 ) LENGTH_UNIT ( ) NAMED_UNIT ( #316 ) );
#284 = ADVANCED_FACE ( 'NONE', ( #135 ), #109, .T. ) ;
#285 = CIRCLE ( 'NONE', #347, 0.09375000000000002776 ) ;
#286 = SURFACE_STYLE_USAGE ( .BOTH. , #341 ) ;
#287 = UNCERTAINTY_MEASURE_WITH_UNIT (LENGTH_MEASURE( 1.000000000000000082E-05 ), #113, 'distance_accuracy_value', 'NONE');
#288 =( NAMED_UNIT ( * ) SI_UNIT ( $, .STERADIAN. ) SOLID_ANGLE_UNIT ( ) );
#289 = SURFACE_STYLE_FILL_AREA ( #204 ) ;
#290 = ADVANCED_FACE ( 'NONE', ( #258 ), #369, .T. ) ;
#291 = DIRECTION ( 'NONE',  ( 0.000000000000000000, 1.000000000000000000, 0.000000000000000000 ) ) ;
#292 = ORIENTED_EDGE ( 'NONE', *, *, #86, .T. ) ;
#293 = CIRCLE ( 'NONE', #175, 0.09375000000000002776 ) ;
#294 = PRESENTATION_LAYER_ASSIGNMENT (  '', '', ( #70 ) ) ;
#295 =( CONVERSION_BASED_UNIT ( 'INCH', #63 ) LENGTH_UNIT ( ) NAMED_UNIT ( #320 ) );
#296 = ORIENTED_EDGE ( 'NONE', *, *, #228, .T. ) ;
#297 = FACE_OUTER_BOUND ( 'NONE', #33, .T. ) ;
#298 = VERTEX_POINT ( 'NONE', #80 ) ;
#299 = CARTESIAN_POINT ( 'NONE',  ( -1.148106374200643863E-17, 0.09375000000000001388, 0.000000000000000000 ) ) ;
#300 = PRODUCT_DEFINITION_SHAPE ( 'NONE', 'NONE',  #168 ) ;
#301 = MECHANICAL_DESIGN_GEOMETRIC_PRESENTATION_REPRESENTATION (  '', ( #26 ), #157 ) ;
#302 = DIRECTION ( 'NONE',  ( 0.000000000000000000, 0.000000000000000000, -1.000000000000000000 ) ) ;
#303 =( LENGTH_UNIT ( ) NAMED_UNIT ( * ) SI_UNIT ( $, .METRE. ) );
#304 = ORIENTED_EDGE ( 'NONE', *, *, #57, .T. ) ;
#305 = AXIS2_PLACEMENT_3D ( 'NONE', #152, #251, #218 ) ;
#306 = MECHANICAL_DESIGN_GEOMETRIC_PRESENTATION_REPRESENTATION (  '', ( #22 ), #116 ) ;
#307 = PRODUCT_DEFINITION_CONTEXT ( 'detailed design', #121, 'design' ) ;
#308 = SHAPE_DEFINITION_REPRESENTATION ( #300, #187 ) ;
#309 = EDGE_CURVE ( 'NONE', #214, #4, #205, .T. ) ;
#310 = ORIENTED_EDGE ( 'NONE', *, *, #24, .T. ) ;
#311 = PLANE ( 'NONE',  #72 ) ;
#312 =( CONVERSION_BASED_UNIT ( 'INCH', #313 ) LENGTH_UNIT ( ) NAMED_UNIT ( #266 ) );
#313 = LENGTH_MEASURE_WITH_UNIT ( LENGTH_MEASURE( 0.02539999999999999897 ), #155 );
#314 = DIRECTION ( 'NONE',  ( 0.000000000000000000, 0.000000000000000000, -1.000000000000000000 ) ) ;
#315 = AXIS2_PLACEMENT_3D ( 'NONE', #112, #83, #133 ) ;
#316 = DIMENSIONAL_EXPONENTS ( 1.000000000000000000, 0.000000000000000000, 0.000000000000000000, 0.000000000000000000, 0.000000000000000000, 0.000000000000000000, 0.000000000000000000 ) ;
#317 = CARTESIAN_POINT ( 'NONE',  ( 0.09374999999999979183, 2.500000000000000000, 1.148106374200638162E-17 ) ) ;
#318 = CARTESIAN_POINT ( 'NONE',  ( 5.045720391776147351E-16, 0.7499999999999998890, 0.000000000000000000 ) ) ;
#319 =( NAMED_UNIT ( * ) SI_UNIT ( $, .STERADIAN. ) SOLID_ANGLE_UNIT ( ) );
#320 = DIMENSIONAL_EXPONENTS ( 1.000000000000000000, 0.000000000000000000, 0.000000000000000000, 0.000000000000000000, 0.000000000000000000, 0.000000000000000000, 0.000000000000000000 ) ;
#321 = AXIS2_PLACEMENT_3D ( 'NONE', #318, #215, #123 ) ;
#322 = CARTESIAN_POINT ( 'NONE',  ( 0.000000000000000000, 0.7500000000000001110, 0.000000000000000000 ) ) ;
#323 = ORIENTED_EDGE ( 'NONE', *, *, #371, .F. ) ;
#324 = DIMENSIONAL_EXPONENTS ( 1.000000000000000000, 0.000000000000000000, 0.000000000000000000, 0.000000000000000000, 0.000000000000000000, 0.000000000000000000, 0.000000000000000000 ) ;
#325 = FILL_AREA_STYLE_COLOUR ( '', #97 ) ;
#326 = ADVANCED_FACE ( 'NONE', ( #140 ), #249, .T. ) ;
#327 = ORIENTED_EDGE ( 'NONE', *, *, #147, .F. ) ;
#328 = DIRECTION ( 'NONE',  ( -1.000000000000000000, 0.000000000000000000, 0.000000000000000000 ) ) ;
#329 = FACE_OUTER_BOUND ( 'NONE', #267, .T. ) ;
#330 = SURFACE_SIDE_STYLE ('',( #96 ) ) ;
#331 = ORIENTED_EDGE ( 'NONE', *, *, #189, .F. ) ;
#332 = UNCERTAINTY_MEASURE_WITH_UNIT (LENGTH_MEASURE( 1.000000000000000082E-05 ), #98, 'distance_accuracy_value', 'NONE');
#333 = DIRECTION ( 'NONE',  ( -0.000000000000000000, -1.000000000000000000, -0.000000000000000000 ) ) ;
#334 = DIRECTION ( 'NONE',  ( -0.000000000000000000, -1.000000000000000000, -0.000000000000000000 ) ) ;
#335 = DIRECTION ( 'NONE',  ( 0.000000000000000000, 0.000000000000000000, -1.000000000000000000 ) ) ;
#336 = SURFACE_STYLE_USAGE ( .BOTH. , #52 ) ;
#337 = CIRCLE ( 'NONE', #305, 0.09374999999999943101 ) ;
#338 = CYLINDRICAL_SURFACE ( 'NONE', #274, 0.09374999999999954203 ) ;
#339 = DIRECTION ( 'NONE',  ( -1.000000000000000000, 0.000000000000000000, 0.000000000000000000 ) ) ;
#340 = EDGE_LOOP ( 'NONE', ( #323, #237 ) ) ;
#341 = SURFACE_SIDE_STYLE ('',( #289 ) ) ;
#342 = FILL_AREA_STYLE ('',( #325 ) ) ;
#343 = EDGE_LOOP ( 'NONE', ( #163, #145, #143, #61, #2 ) ) ;
#344 =( CONVERSION_BASED_UNIT ( 'INCH', #39 ) LENGTH_UNIT ( ) NAMED_UNIT ( #118 ) );
#345 = SURFACE_STYLE_FILL_AREA ( #342 ) ;
#346 = ORIENTED_EDGE ( 'NONE', *, *, #260, .T. ) ;
#347 = AXIS2_PLACEMENT_3D ( 'NONE', #179, #28, #136 ) ;
#348 = LINE ( 'NONE', #181, #34 ) ;
#349 = EDGE_CURVE ( 'NONE', #4, #194, #144, .T. ) ;
#350 =( GEOMETRIC_REPRESENTATION_CONTEXT ( 3 ) GLOBAL_UNCERTAINTY_ASSIGNED_CONTEXT ( ( #360 ) ) GLOBAL_UNIT_ASSIGNED_CONTEXT ( ( #196, #370, #232 ) ) REPRESENTATION_CONTEXT ( 'NONE', 'WORKASPACE' ) );
#351 = DIMENSIONAL_EXPONENTS ( 1.000000000000000000, 0.000000000000000000, 0.000000000000000000, 0.000000000000000000, 0.000000000000000000, 0.000000000000000000, 0.000000000000000000 ) ;
#352 = ORIENTED_EDGE ( 'NONE', *, *, #69, .F. ) ;
#353 = SURFACE_SIDE_STYLE ('',( #252 ) ) ;
#354 =( LENGTH_UNIT ( ) NAMED_UNIT ( * ) SI_UNIT ( $, .METRE. ) );
#355 = DIRECTION ( 'NONE',  ( -0.000000000000000000, -1.000000000000000000, -0.000000000000000000 ) ) ;
#356 = FILL_AREA_STYLE ('',( #16 ) ) ;
#357 = AXIS2_PLACEMENT_3D ( 'NONE', #299, #12, #243 ) ;
#358 = DIRECTION ( 'NONE',  ( -0.000000000000000000, -1.000000000000000000, -0.000000000000000000 ) ) ;
#359 =( NAMED_UNIT ( * ) PLANE_ANGLE_UNIT ( ) SI_UNIT ( $, .RADIAN. ) );
#360 = UNCERTAINTY_MEASURE_WITH_UNIT (LENGTH_MEASURE( 1.000000000000000082E-05 ), #196, 'distance_accuracy_value', 'NONE');
#361 = COLOUR_RGB ( '',1.000000000000000000, 0.000000000000000000, 0.000000000000000000 ) ;
#362 = STYLED_ITEM ( 'NONE', ( #43 ), #366 ) ;
#363 = CARTESIAN_POINT ( 'NONE',  ( 0.000000000000000000, 0.000000000000000000, 0.000000000000000000 ) ) ;
#364 = FILL_AREA_STYLE ('',( #21 ) ) ;
#365 = ORIENTED_EDGE ( 'NONE', *, *, #164, .F. ) ;
#366 = ADVANCED_FACE ( 'NONE', ( #329 ), #47, .T. ) ;
#367 = DIRECTION ( 'NONE',  ( -0.000000000000000000, -1.000000000000000000, -0.000000000000000000 ) ) ;
#368 = AXIS2_PLACEMENT_3D ( 'NONE', #90, #238, #213 ) ;
#369 = CYLINDRICAL_SURFACE ( 'NONE', #150, 0.09374999999999954203 ) ;
#370 =( NAMED_UNIT ( * ) PLANE_ANGLE_UNIT ( ) SI_UNIT ( $, .RADIAN. ) );
#371 = EDGE_CURVE ( 'NONE', #247, #37, #275, .T. ) ;
#372 = FILL_AREA_STYLE_COLOUR ( '', #263 ) ;
#373 = DIMENSIONAL_EXPONENTS ( 1.000000000000000000, 0.000000000000000000, 0.000000000000000000, 0.000000000000000000, 0.000000000000000000, 0.000000000000000000, 0.000000000000000000 ) ;
ENDSEC;
END-ISO-10303-21;
