ISO-10303-21;
HEADER;
FILE_DESCRIPTION (( 'STEP AP214' ),
    '1' );
FILE_NAME ('03240.STEP',
    '2023-06-22T15:04:09',
    ( '' ),
    ( '' ),
    'SwSTEP 2.0',
    'SolidWorks 2023',
    '' );
FILE_SCHEMA (( 'AUTOMOTIVE_DESIGN' ));
ENDSEC;

DATA;
#1 = SURFACE_STYLE_FILL_AREA ( #279 ) ;
#2 = EDGE_CURVE ( 'NONE', #39, #221, #212, .T. ) ;
#3 = PRODUCT_CONTEXT ( 'NONE', #236, 'mechanical' ) ;
#4 = VERTEX_POINT ( 'NONE', #205 ) ;
#5 =( GEOMETRIC_REPRESENTATION_CONTEXT ( 3 ) GLOBAL_UNCERTAINTY_ASSIGNED_CONTEXT ( ( #72 ) ) GLOBAL_UNIT_ASSIGNED_CONTEXT ( ( #71, #140, #235 ) ) REPRESENTATION_CONTEXT ( 'NONE', 'WORKASPACE' ) );
#6 = PRESENTATION_STYLE_ASSIGNMENT (( #143 ) ) ;
#7 = APPLICATION_PROTOCOL_DEFINITION ( 'draft international standard', 'automotive_design', 1998, #23 ) ;
#8 = DIRECTION ( 'NONE',  ( 1.000000000000000000, -1.567547902908612085E-16, 0.000000000000000000 ) ) ;
#9 = ORIENTED_EDGE ( 'NONE', *, *, #88, .F. ) ;
#10 = FILL_AREA_STYLE ('',( #200 ) ) ;
#11 = ORIENTED_EDGE ( 'NONE', *, *, #195, .F. ) ;
#12 = DIRECTION ( 'NONE',  ( -1.000000000000000000, 0.000000000000000000, 0.000000000000000000 ) ) ;
#13 = AXIS2_PLACEMENT_3D ( 'NONE', #85, #31, #153 ) ;
#14 = ORIENTED_EDGE ( 'NONE', *, *, #155, .T. ) ;
#15 = AXIS2_PLACEMENT_3D ( 'NONE', #49, #239, #172 ) ;
#16 = EDGE_LOOP ( 'NONE', ( #187, #81 ) ) ;
#17 = DIMENSIONAL_EXPONENTS ( 1.000000000000000000, 0.000000000000000000, 0.000000000000000000, 0.000000000000000000, 0.000000000000000000, 0.000000000000000000, 0.000000000000000000 ) ;
#18 = DIRECTION ( 'NONE',  ( -1.567547902908612085E-16, -1.000000000000000000, 0.000000000000000000 ) ) ;
#19 = EDGE_LOOP ( 'NONE', ( #11, #273 ) ) ;
#20 = ADVANCED_FACE ( 'NONE', ( #103 ), #244, .T. ) ;
#21 = SURFACE_SIDE_STYLE ('',( #188 ) ) ;
#22 = CIRCLE ( 'NONE', #37, 0.1562500000000000000 ) ;
#23 = APPLICATION_CONTEXT ( 'automotive_design' ) ;
#24 = SURFACE_STYLE_FILL_AREA ( #44 ) ;
#25 = DIRECTION ( 'NONE',  ( 0.000000000000000000, 0.000000000000000000, -1.000000000000000000 ) ) ;
#26 = SURFACE_SIDE_STYLE ('',( #24 ) ) ;
#27 = UNCERTAINTY_MEASURE_WITH_UNIT (LENGTH_MEASURE( 1.000000000000000082E-05 ), #97, 'distance_accuracy_value', 'NONE');
#28 = CARTESIAN_POINT ( 'NONE',  ( 0.000000000000000000, 0.000000000000000000, 0.000000000000000000 ) ) ;
#29 = PLANE ( 'NONE',  #13 ) ;
#30 = EDGE_CURVE ( 'NONE', #4, #39, #110, .T. ) ;
#31 = DIRECTION ( 'NONE',  ( 0.000000000000000000, -1.000000000000000000, -0.000000000000000000 ) ) ;
#32 = COLOUR_RGB ( '',0.7921568627450980005, 0.8196078431372548767, 0.9333333333333333481 ) ;
#33 = ADVANCED_FACE ( 'NONE', ( #198 ), #157, .T. ) ;
#34 = DIRECTION ( 'NONE',  ( -0.000000000000000000, -1.000000000000000000, -0.000000000000000000 ) ) ;
#35 = SURFACE_STYLE_USAGE ( .BOTH. , #275 ) ;
#36 = LINE ( 'NONE', #182, #42 ) ;
#37 = AXIS2_PLACEMENT_3D ( 'NONE', #222, #176, #160 ) ;
#38 = FACE_OUTER_BOUND ( 'NONE', #19, .T. ) ;
#39 = VERTEX_POINT ( 'NONE', #299 ) ;
#40 = PRESENTATION_STYLE_ASSIGNMENT (( #191 ) ) ;
#41 = CARTESIAN_POINT ( 'NONE',  ( 0.000000000000000000, 0.4374999999999998890, 0.000000000000000000 ) ) ;
#42 = VECTOR ( 'NONE', #62, 39.37007874015748143 ) ;
#43 = PRESENTATION_LAYER_ASSIGNMENT (  '', '', ( #294 ) ) ;
#44 = FILL_AREA_STYLE ('',( #165 ) ) ;
#45 = CARTESIAN_POINT ( 'NONE',  ( -0.1562500000000000000, 0.4374999999999998890, 0.000000000000000000 ) ) ;
#46 = UNCERTAINTY_MEASURE_WITH_UNIT (LENGTH_MEASURE( 1.000000000000000082E-05 ), #189, 'distance_accuracy_value', 'NONE');
#47 = CARTESIAN_POINT ( 'NONE',  ( 1.913510623667739463E-17, 0.000000000000000000, 0.1562500000000000000 ) ) ;
#48 = CIRCLE ( 'NONE', #190, 0.1562500000000000000 ) ;
#49 = CARTESIAN_POINT ( 'NONE',  ( 0.000000000000000000, 0.000000000000000000, 0.000000000000000000 ) ) ;
#50 = UNCERTAINTY_MEASURE_WITH_UNIT (LENGTH_MEASURE( 1.000000000000000082E-05 ), #118, 'distance_accuracy_value', 'NONE');
#51 =( NAMED_UNIT ( * ) SI_UNIT ( $, .STERADIAN. ) SOLID_ANGLE_UNIT ( ) );
#52 = CARTESIAN_POINT ( 'NONE',  ( 0.000000000000000000, 0.000000000000000000, 0.000000000000000000 ) ) ;
#53 = LENGTH_MEASURE_WITH_UNIT ( LENGTH_MEASURE( 0.02539999999999999897 ), #93 );
#54 = APPLICATION_PROTOCOL_DEFINITION ( 'draft international standard', 'automotive_design', 1998, #236 ) ;
#55 = DIRECTION ( 'NONE',  ( -0.000000000000000000, -1.000000000000000000, -0.000000000000000000 ) ) ;
#56 = CIRCLE ( 'NONE', #120, 0.1562500000000000000 ) ;
#57 = MECHANICAL_DESIGN_GEOMETRIC_PRESENTATION_REPRESENTATION (  '', ( #294 ), #186 ) ;
#58 = ORIENTED_EDGE ( 'NONE', *, *, #247, .T. ) ;
#59 =( CONVERSION_BASED_UNIT ( 'INCH', #228 ) LENGTH_UNIT ( ) NAMED_UNIT ( #303 ) );
#60 = DIRECTION ( 'NONE',  ( 1.567547902908612085E-16, 1.000000000000000000, -0.000000000000000000 ) ) ;
#61 = CARTESIAN_POINT ( 'NONE',  ( 2.449293598294706414E-16, 2.000000000000000000, 0.000000000000000000 ) ) ;
#62 = DIRECTION ( 'NONE',  ( -0.000000000000000000, -1.000000000000000000, -0.000000000000000000 ) ) ;
#63 = SURFACE_STYLE_FILL_AREA ( #245 ) ;
#64 = AXIS2_PLACEMENT_3D ( 'NONE', #66, #163, #302 ) ;
#65 = EDGE_LOOP ( 'NONE', ( #180, #58 ) ) ;
#66 = CARTESIAN_POINT ( 'NONE',  ( 2.449293598294706414E-16, 2.000000000000000000, 0.000000000000000000 ) ) ;
#67 = FILL_AREA_STYLE ('',( #232 ) ) ;
#68 = COLOUR_RGB ( '',0.7921568627450980005, 0.8196078431372548767, 0.9333333333333333481 ) ;
#69 = CIRCLE ( 'NONE', #291, 0.1562500000000000000 ) ;
#70 = DIRECTION ( 'NONE',  ( 0.000000000000000000, 0.000000000000000000, -1.000000000000000000 ) ) ;
#71 =( CONVERSION_BASED_UNIT ( 'INCH', #192 ) LENGTH_UNIT ( ) NAMED_UNIT ( #87 ) );
#72 = UNCERTAINTY_MEASURE_WITH_UNIT (LENGTH_MEASURE( 1.000000000000000082E-05 ), #71, 'distance_accuracy_value', 'NONE');
#73 = STYLED_ITEM ( 'NONE', ( #40 ), #96 ) ;
#74 = STYLED_ITEM ( 'NONE', ( #113 ), #266 ) ;
#75 = DIRECTION ( 'NONE',  ( 0.000000000000000000, 0.000000000000000000, -1.000000000000000000 ) ) ;
#76 = FACE_OUTER_BOUND ( 'NONE', #16, .T. ) ;
#77 = UNCERTAINTY_MEASURE_WITH_UNIT (LENGTH_MEASURE( 1.000000000000000082E-05 ), #237, 'distance_accuracy_value', 'NONE');
#78 = PRODUCT_RELATED_PRODUCT_CATEGORY ( 'part', '', ( #194 ) ) ;
#79 = SURFACE_SIDE_STYLE ('',( #295 ) ) ;
#80 = SURFACE_SIDE_STYLE ('',( #296 ) ) ;
#81 = ORIENTED_EDGE ( 'NONE', *, *, #119, .T. ) ;
#82 = PRESENTATION_LAYER_ASSIGNMENT (  '', '', ( #123 ) ) ;
#83 = ORIENTED_EDGE ( 'NONE', *, *, #155, .F. ) ;
#84 = ADVANCED_FACE ( 'NONE', ( #38 ), #276, .F. ) ;
#85 = CARTESIAN_POINT ( 'NONE',  ( 0.000000000000000000, 0.000000000000000000, 0.000000000000000000 ) ) ;
#86 = PLANE ( 'NONE',  #129 ) ;
#87 = DIMENSIONAL_EXPONENTS ( 1.000000000000000000, 0.000000000000000000, 0.000000000000000000, 0.000000000000000000, 0.000000000000000000, 0.000000000000000000, 0.000000000000000000 ) ;
#88 = EDGE_CURVE ( 'NONE', #225, #221, #36, .T. ) ;
#89 = AXIS2_PLACEMENT_3D ( 'NONE', #52, #174, #264 ) ;
#90 = DIRECTION ( 'NONE',  ( 1.567547902908612085E-16, 1.000000000000000000, -0.000000000000000000 ) ) ;
#91 =( LENGTH_UNIT ( ) NAMED_UNIT ( * ) SI_UNIT ( $, .METRE. ) );
#92 = CARTESIAN_POINT ( 'NONE',  ( 1.913510623667739463E-17, 0.4374999999999998890, 0.1562500000000000000 ) ) ;
#93 =( LENGTH_UNIT ( ) NAMED_UNIT ( * ) SI_UNIT ( $, .METRE. ) );
#94 = ORIENTED_EDGE ( 'NONE', *, *, #247, .F. ) ;
#95 = CIRCLE ( 'NONE', #287, 0.1562500000000000000 ) ;
#96 = ADVANCED_FACE ( 'NONE', ( #108 ), #86, .T. ) ;
#97 =( CONVERSION_BASED_UNIT ( 'INCH', #121 ) LENGTH_UNIT ( ) NAMED_UNIT ( #283 ) );
#98 = AXIS2_PLACEMENT_3D ( 'NONE', #61, #272, #12 ) ;
#99 = DIRECTION ( 'NONE',  ( 0.000000000000000000, 0.000000000000000000, -1.000000000000000000 ) ) ;
#100 = CYLINDRICAL_SURFACE ( 'NONE', #106, 0.1562500000000000000 ) ;
#101 = EDGE_LOOP ( 'NONE', ( #297, #14, #256, #201 ) ) ;
#102 = CARTESIAN_POINT ( 'NONE',  ( 0.1562500000000000000, 2.000000000000000000, 0.000000000000000000 ) ) ;
#103 = FACE_OUTER_BOUND ( 'NONE', #101, .T. ) ;
#104 = COLOUR_RGB ( '',1.000000000000000000, 0.000000000000000000, 0.000000000000000000 ) ;
#105 = LINE ( 'NONE', #175, #173 ) ;
#106 = AXIS2_PLACEMENT_3D ( 'NONE', #211, #259, #70 ) ;
#107 = ORIENTED_EDGE ( 'NONE', *, *, #88, .T. ) ;
#108 = FACE_OUTER_BOUND ( 'NONE', #282, .T. ) ;
#109 = SURFACE_STYLE_USAGE ( .BOTH. , #80 ) ;
#110 = LINE ( 'NONE', #305, #184 ) ;
#111 =( GEOMETRIC_REPRESENTATION_CONTEXT ( 3 ) GLOBAL_UNCERTAINTY_ASSIGNED_CONTEXT ( ( #144 ) ) GLOBAL_UNIT_ASSIGNED_CONTEXT ( ( #213, #261, #260 ) ) REPRESENTATION_CONTEXT ( 'NONE', 'WORKASPACE' ) );
#112 = CARTESIAN_POINT ( 'NONE',  ( 2.449293598294706414E-16, 2.000000000000000000, 0.000000000000000000 ) ) ;
#113 = PRESENTATION_STYLE_ASSIGNMENT (( #285 ) ) ;
#114 = AXIS2_PLACEMENT_3D ( 'NONE', #125, #90, #246 ) ;
#115 = PRESENTATION_LAYER_ASSIGNMENT (  '', '', ( #74 ) ) ;
#116 = FACE_OUTER_BOUND ( 'NONE', #197, .T. ) ;
#117 =( LENGTH_UNIT ( ) NAMED_UNIT ( * ) SI_UNIT ( $, .METRE. ) );
#118 =( CONVERSION_BASED_UNIT ( 'INCH', #53 ) LENGTH_UNIT ( ) NAMED_UNIT ( #251 ) );
#119 = EDGE_CURVE ( 'NONE', #221, #39, #56, .T. ) ;
#120 = AXIS2_PLACEMENT_3D ( 'NONE', #28, #55, #99 ) ;
#121 = LENGTH_MEASURE_WITH_UNIT ( LENGTH_MEASURE( 0.02539999999999999897 ), #117 );
#122 = FILL_AREA_STYLE_COLOUR ( '', #104 ) ;
#123 = STYLED_ITEM ( 'NONE', ( #6 ), #126 ) ;
#124 = CARTESIAN_POINT ( 'NONE',  ( 1.919692521807178203E-33, 0.4374999999999998890, 0.000000000000000000 ) ) ;
#125 = CARTESIAN_POINT ( 'NONE',  ( 2.449293598294706414E-16, 2.000000000000000000, 0.000000000000000000 ) ) ;
#126 = ADVANCED_FACE ( 'NONE', ( #76 ), #29, .T. ) ;
#127 = PRESENTATION_STYLE_ASSIGNMENT (( #35 ) ) ;
#128 = ORIENTED_EDGE ( 'NONE', *, *, #231, .F. ) ;
#129 = AXIS2_PLACEMENT_3D ( 'NONE', #263, #218, #293 ) ;
#130 = LINE ( 'NONE', #224, #280 ) ;
#131 =( GEOMETRIC_REPRESENTATION_CONTEXT ( 3 ) GLOBAL_UNCERTAINTY_ASSIGNED_CONTEXT ( ( #27 ) ) GLOBAL_UNIT_ASSIGNED_CONTEXT ( ( #97, #238, #149 ) ) REPRESENTATION_CONTEXT ( 'NONE', 'WORKASPACE' ) );
#132 = ORIENTED_EDGE ( 'NONE', *, *, #307, .F. ) ;
#133 =( NAMED_UNIT ( * ) PLANE_ANGLE_UNIT ( ) SI_UNIT ( $, .RADIAN. ) );
#134 = CARTESIAN_POINT ( 'NONE',  ( 0.000000000000000000, 0.000000000000000000, 0.000000000000000000 ) ) ;
#135 = CYLINDRICAL_SURFACE ( 'NONE', #15, 0.1562500000000000000 ) ;
#136 = SURFACE_STYLE_USAGE ( .BOTH. , #21 ) ;
#137 = AXIS2_PLACEMENT_3D ( 'NONE', #134, #34, #248 ) ;
#138 = EDGE_CURVE ( 'NONE', #154, #177, #166, .T. ) ;
#139 = DIRECTION ( 'NONE',  ( -1.000000000000000000, 0.000000000000000000, 0.000000000000000000 ) ) ;
#140 =( NAMED_UNIT ( * ) PLANE_ANGLE_UNIT ( ) SI_UNIT ( $, .RADIAN. ) );
#141 = CLOSED_SHELL ( 'NONE', ( #209, #96, #298, #126 ) ) ;
#142 = COLOUR_RGB ( '',1.000000000000000000, 0.000000000000000000, 0.000000000000000000 ) ;
#143 = SURFACE_STYLE_USAGE ( .BOTH. , #79 ) ;
#144 = UNCERTAINTY_MEASURE_WITH_UNIT (LENGTH_MEASURE( 1.000000000000000082E-05 ), #213, 'distance_accuracy_value', 'NONE');
#145 =( NAMED_UNIT ( * ) SI_UNIT ( $, .STERADIAN. ) SOLID_ANGLE_UNIT ( ) );
#146 =( GEOMETRIC_REPRESENTATION_CONTEXT ( 3 ) GLOBAL_UNCERTAINTY_ASSIGNED_CONTEXT ( ( #50 ) ) GLOBAL_UNIT_ASSIGNED_CONTEXT ( ( #118, #148, #51 ) ) REPRESENTATION_CONTEXT ( 'NONE', 'WORKASPACE' ) );
#147 = MECHANICAL_DESIGN_GEOMETRIC_PRESENTATION_REPRESENTATION (  '', ( #242 ), #111 ) ;
#148 =( NAMED_UNIT ( * ) PLANE_ANGLE_UNIT ( ) SI_UNIT ( $, .RADIAN. ) );
#149 =( NAMED_UNIT ( * ) SI_UNIT ( $, .STERADIAN. ) SOLID_ANGLE_UNIT ( ) );
#150 = PRODUCT_DEFINITION ( 'UNKNOWN', '', #207, #234 ) ;
#151 = PLANE ( 'NONE',  #262 ) ;
#152 = STYLED_ITEM ( 'NONE', ( #127 ), #167 ) ;
#153 = DIRECTION ( 'NONE',  ( 0.000000000000000000, 0.000000000000000000, -1.000000000000000000 ) ) ;
#154 = VERTEX_POINT ( 'NONE', #304 ) ;
#155 = EDGE_CURVE ( 'NONE', #229, #177, #130, .T. ) ;
#156 = FILL_AREA_STYLE_COLOUR ( '', #68 ) ;
#157 = CYLINDRICAL_SURFACE ( 'NONE', #64, 0.1562499999999998612 ) ;
#158 = ORIENTED_EDGE ( 'NONE', *, *, #231, .T. ) ;
#159 = AXIS2_PLACEMENT_3D ( 'NONE', #112, #254, #208 ) ;
#160 = DIRECTION ( 'NONE',  ( -1.000000000000000000, 0.000000000000000000, 0.000000000000000000 ) ) ;
#161 = ORIENTED_EDGE ( 'NONE', *, *, #119, .F. ) ;
#162 = DIRECTION ( 'NONE',  ( -0.000000000000000000, -1.000000000000000000, -0.000000000000000000 ) ) ;
#163 = DIRECTION ( 'NONE',  ( 1.567547902908612085E-16, 1.000000000000000000, -0.000000000000000000 ) ) ;
#164 = PRESENTATION_STYLE_ASSIGNMENT (( #136 ) ) ;
#165 = FILL_AREA_STYLE_COLOUR ( '', #32 ) ;
#166 = CIRCLE ( 'NONE', #98, 0.1562499999999997780 ) ;
#167 = MANIFOLD_SOLID_BREP ( 'Revolve - Cutting Edge', #141 ) ;
#168 = DIRECTION ( 'NONE',  ( -0.000000000000000000, -1.000000000000000000, -0.000000000000000000 ) ) ;
#169 = COLOUR_RGB ( '',1.000000000000000000, 0.000000000000000000, 0.000000000000000000 ) ;
#170 =( NAMED_UNIT ( * ) PLANE_ANGLE_UNIT ( ) SI_UNIT ( $, .RADIAN. ) );
#171 = LENGTH_MEASURE_WITH_UNIT ( LENGTH_MEASURE( 0.02539999999999999897 ), #216 );
#172 = DIRECTION ( 'NONE',  ( 0.000000000000000000, 0.000000000000000000, -1.000000000000000000 ) ) ;
#173 = VECTOR ( 'NONE', #277, 39.37007874015748143 ) ;
#174 = DIRECTION ( 'NONE',  ( 0.000000000000000000, 0.000000000000000000, 1.000000000000000000 ) ) ;
#175 = CARTESIAN_POINT ( 'NONE',  ( -0.1562499999999996392, 2.000000000000000000, 0.000000000000000000 ) ) ;
#176 = DIRECTION ( 'NONE',  ( 1.567547902908612085E-16, 1.000000000000000000, -0.000000000000000000 ) ) ;
#177 = VERTEX_POINT ( 'NONE', #220 ) ;
#178 = ADVANCED_BREP_SHAPE_REPRESENTATION ( '03240', ( #167, #266, #89 ), #131 ) ;
#179 = FACE_OUTER_BOUND ( 'NONE', #215, .T. ) ;
#180 = ORIENTED_EDGE ( 'NONE', *, *, #138, .T. ) ;
#181 = PRESENTATION_STYLE_ASSIGNMENT (( #109 ) ) ;
#182 = CARTESIAN_POINT ( 'NONE',  ( 1.913510623667739463E-17, 0.000000000000000000, 0.1562500000000000000 ) ) ;
#183 = FILL_AREA_STYLE_COLOUR ( '', #219 ) ;
#184 = VECTOR ( 'NONE', #223, 39.37007874015748143 ) ;
#185 = EDGE_CURVE ( 'NONE', #270, #154, #105, .T. ) ;
#186 =( GEOMETRIC_REPRESENTATION_CONTEXT ( 3 ) GLOBAL_UNCERTAINTY_ASSIGNED_CONTEXT ( ( #46 ) ) GLOBAL_UNIT_ASSIGNED_CONTEXT ( ( #189, #170, #145 ) ) REPRESENTATION_CONTEXT ( 'NONE', 'WORKASPACE' ) );
#187 = ORIENTED_EDGE ( 'NONE', *, *, #2, .T. ) ;
#188 = SURFACE_STYLE_FILL_AREA ( #67 ) ;
#189 =( CONVERSION_BASED_UNIT ( 'INCH', #210 ) LENGTH_UNIT ( ) NAMED_UNIT ( #255 ) );
#190 = AXIS2_PLACEMENT_3D ( 'NONE', #257, #162, #25 ) ;
#191 = SURFACE_STYLE_USAGE ( .BOTH. , #289 ) ;
#192 = LENGTH_MEASURE_WITH_UNIT ( LENGTH_MEASURE( 0.02539999999999999897 ), #309 );
#193 = EDGE_LOOP ( 'NONE', ( #83, #230, #253, #94 ) ) ;
#194 = PRODUCT ( '03240', '03240', '', ( #3 ) ) ;
#195 = EDGE_CURVE ( 'NONE', #270, #229, #22, .T. ) ;
#196 =( LENGTH_UNIT ( ) NAMED_UNIT ( * ) SI_UNIT ( $, .METRE. ) );
#197 = EDGE_LOOP ( 'NONE', ( #9, #158, #240, #161 ) ) ;
#198 = FACE_OUTER_BOUND ( 'NONE', #193, .T. ) ;
#199 = AXIS2_PLACEMENT_3D ( 'NONE', #124, #60, #203 ) ;
#200 = FILL_AREA_STYLE_COLOUR ( '', #169 ) ;
#201 = ORIENTED_EDGE ( 'NONE', *, *, #185, .F. ) ;
#202 =( NAMED_UNIT ( * ) SI_UNIT ( $, .STERADIAN. ) SOLID_ANGLE_UNIT ( ) );
#203 = DIRECTION ( 'NONE',  ( -1.000000000000000000, 1.567547902908612085E-16, 0.000000000000000000 ) ) ;
#204 = ADVANCED_FACE ( 'NONE', ( #252 ), #151, .F. ) ;
#205 = CARTESIAN_POINT ( 'NONE',  ( 0.000000000000000000, 0.4374999999999998890, -0.1562500000000000000 ) ) ;
#206 =( GEOMETRIC_REPRESENTATION_CONTEXT ( 3 ) GLOBAL_UNCERTAINTY_ASSIGNED_CONTEXT ( ( #77 ) ) GLOBAL_UNIT_ASSIGNED_CONTEXT ( ( #237, #133, #267 ) ) REPRESENTATION_CONTEXT ( 'NONE', 'WORKASPACE' ) );
#207 = PRODUCT_DEFINITION_FORMATION_WITH_SPECIFIED_SOURCE ( 'ANY', '', #194, .NOT_KNOWN. ) ;
#208 = DIRECTION ( 'NONE',  ( -1.000000000000000000, 0.000000000000000000, 0.000000000000000000 ) ) ;
#209 = ADVANCED_FACE ( 'NONE', ( #179 ), #100, .T. ) ;
#210 = LENGTH_MEASURE_WITH_UNIT ( LENGTH_MEASURE( 0.02539999999999999897 ), #91 );
#211 = CARTESIAN_POINT ( 'NONE',  ( 0.000000000000000000, 0.000000000000000000, 0.000000000000000000 ) ) ;
#212 = CIRCLE ( 'NONE', #137, 0.1562500000000000000 ) ;
#213 =( CONVERSION_BASED_UNIT ( 'INCH', #284 ) LENGTH_UNIT ( ) NAMED_UNIT ( #17 ) );
#214 = FILL_AREA_STYLE ('',( #122 ) ) ;
#215 = EDGE_LOOP ( 'NONE', ( #301, #107, #217, #268 ) ) ;
#216 =( LENGTH_UNIT ( ) NAMED_UNIT ( * ) SI_UNIT ( $, .METRE. ) );
#217 = ORIENTED_EDGE ( 'NONE', *, *, #2, .F. ) ;
#218 = DIRECTION ( 'NONE',  ( 0.000000000000000000, 1.000000000000000000, 0.000000000000000000 ) ) ;
#219 = COLOUR_RGB ( '',1.000000000000000000, 0.000000000000000000, 0.000000000000000000 ) ;
#220 = CARTESIAN_POINT ( 'NONE',  ( 0.1562500000000000000, 2.000000000000000000, 1.913510623667738539E-17 ) ) ;
#221 = VERTEX_POINT ( 'NONE', #47 ) ;
#222 = CARTESIAN_POINT ( 'NONE',  ( 0.000000000000000000, 0.4374999999999998890, 0.000000000000000000 ) ) ;
#223 = DIRECTION ( 'NONE',  ( -0.000000000000000000, -1.000000000000000000, -0.000000000000000000 ) ) ;
#224 = CARTESIAN_POINT ( 'NONE',  ( 0.1562500000000001110, 2.000000000000000000, 1.913510623667737923E-17 ) ) ;
#225 = VERTEX_POINT ( 'NONE', #92 ) ;
#226 = PRESENTATION_LAYER_ASSIGNMENT (  '', '', ( #152 ) ) ;
#227 = CIRCLE ( 'NONE', #159, 0.1562499999999997780 ) ;
#228 = LENGTH_MEASURE_WITH_UNIT ( LENGTH_MEASURE( 0.02539999999999999897 ), #196 );
#229 = VERTEX_POINT ( 'NONE', #233 ) ;
#230 = ORIENTED_EDGE ( 'NONE', *, *, #274, .T. ) ;
#231 = EDGE_CURVE ( 'NONE', #225, #4, #48, .T. ) ;
#232 = FILL_AREA_STYLE_COLOUR ( '', #142 ) ;
#233 = CARTESIAN_POINT ( 'NONE',  ( 0.1562500000000000000, 0.4374999999999998890, 1.913510623667738539E-17 ) ) ;
#234 = PRODUCT_DEFINITION_CONTEXT ( 'detailed design', #23, 'design' ) ;
#235 =( NAMED_UNIT ( * ) SI_UNIT ( $, .STERADIAN. ) SOLID_ANGLE_UNIT ( ) );
#236 = APPLICATION_CONTEXT ( 'automotive_design' ) ;
#237 =( CONVERSION_BASED_UNIT ( 'INCH', #171 ) LENGTH_UNIT ( ) NAMED_UNIT ( #278 ) );
#238 =( NAMED_UNIT ( * ) PLANE_ANGLE_UNIT ( ) SI_UNIT ( $, .RADIAN. ) );
#239 = DIRECTION ( 'NONE',  ( -0.000000000000000000, -1.000000000000000000, -0.000000000000000000 ) ) ;
#240 = ORIENTED_EDGE ( 'NONE', *, *, #30, .T. ) ;
#241 = PRODUCT_DEFINITION_SHAPE ( 'NONE', 'NONE',  #150 ) ;
#242 = STYLED_ITEM ( 'NONE', ( #181 ), #209 ) ;
#243 = DIRECTION ( 'NONE',  ( 1.567547902908612085E-16, 1.000000000000000000, -0.000000000000000000 ) ) ;
#244 = CYLINDRICAL_SURFACE ( 'NONE', #114, 0.1562499999999998612 ) ;
#245 = FILL_AREA_STYLE ('',( #156 ) ) ;
#246 = DIRECTION ( 'NONE',  ( -1.000000000000000000, 0.000000000000000000, 0.000000000000000000 ) ) ;
#247 = EDGE_CURVE ( 'NONE', #177, #154, #227, .T. ) ;
#248 = DIRECTION ( 'NONE',  ( 0.000000000000000000, 0.000000000000000000, -1.000000000000000000 ) ) ;
#249 = CLOSED_SHELL ( 'NONE', ( #20, #84, #33, #204 ) ) ;
#250 = PRESENTATION_LAYER_ASSIGNMENT (  '', '', ( #242 ) ) ;
#251 = DIMENSIONAL_EXPONENTS ( 1.000000000000000000, 0.000000000000000000, 0.000000000000000000, 0.000000000000000000, 0.000000000000000000, 0.000000000000000000, 0.000000000000000000 ) ;
#252 = FACE_OUTER_BOUND ( 'NONE', #65, .T. ) ;
#253 = ORIENTED_EDGE ( 'NONE', *, *, #185, .T. ) ;
#254 = DIRECTION ( 'NONE',  ( 1.567547902908612085E-16, 1.000000000000000000, -0.000000000000000000 ) ) ;
#255 = DIMENSIONAL_EXPONENTS ( 1.000000000000000000, 0.000000000000000000, 0.000000000000000000, 0.000000000000000000, 0.000000000000000000, 0.000000000000000000, 0.000000000000000000 ) ;
#256 = ORIENTED_EDGE ( 'NONE', *, *, #138, .F. ) ;
#257 = CARTESIAN_POINT ( 'NONE',  ( 0.000000000000000000, 0.4374999999999998890, 0.000000000000000000 ) ) ;
#258 = MECHANICAL_DESIGN_GEOMETRIC_PRESENTATION_REPRESENTATION (  '', ( #123 ), #206 ) ;
#259 = DIRECTION ( 'NONE',  ( -0.000000000000000000, -1.000000000000000000, -0.000000000000000000 ) ) ;
#260 =( NAMED_UNIT ( * ) SI_UNIT ( $, .STERADIAN. ) SOLID_ANGLE_UNIT ( ) );
#261 =( NAMED_UNIT ( * ) PLANE_ANGLE_UNIT ( ) SI_UNIT ( $, .RADIAN. ) );
#262 = AXIS2_PLACEMENT_3D ( 'NONE', #102, #18, #8 ) ;
#263 = CARTESIAN_POINT ( 'NONE',  ( 0.000000000000000000, 0.4374999999999998890, 0.000000000000000000 ) ) ;
#264 = DIRECTION ( 'NONE',  ( 1.000000000000000000, 0.000000000000000000, 0.000000000000000000 ) ) ;
#265 = UNCERTAINTY_MEASURE_WITH_UNIT (LENGTH_MEASURE( 1.000000000000000082E-05 ), #59, 'distance_accuracy_value', 'NONE');
#266 = MANIFOLD_SOLID_BREP ( 'Revolve - Tool Body (Straight Shanked)', #249 ) ;
#267 =( NAMED_UNIT ( * ) SI_UNIT ( $, .STERADIAN. ) SOLID_ANGLE_UNIT ( ) );
#268 = ORIENTED_EDGE ( 'NONE', *, *, #30, .F. ) ;
#269 =( LENGTH_UNIT ( ) NAMED_UNIT ( * ) SI_UNIT ( $, .METRE. ) );
#270 = VERTEX_POINT ( 'NONE', #45 ) ;
#271 = MECHANICAL_DESIGN_GEOMETRIC_PRESENTATION_REPRESENTATION (  '', ( #74 ), #5 ) ;
#272 = DIRECTION ( 'NONE',  ( 1.567547902908612085E-16, 1.000000000000000000, -0.000000000000000000 ) ) ;
#273 = ORIENTED_EDGE ( 'NONE', *, *, #274, .F. ) ;
#274 = EDGE_CURVE ( 'NONE', #229, #270, #69, .T. ) ;
#275 = SURFACE_SIDE_STYLE ('',( #63 ) ) ;
#276 = PLANE ( 'NONE',  #199 ) ;
#277 = DIRECTION ( 'NONE',  ( 1.567547902908612085E-16, 1.000000000000000000, -0.000000000000000000 ) ) ;
#278 = DIMENSIONAL_EXPONENTS ( 1.000000000000000000, 0.000000000000000000, 0.000000000000000000, 0.000000000000000000, 0.000000000000000000, 0.000000000000000000, 0.000000000000000000 ) ;
#279 = FILL_AREA_STYLE ('',( #183 ) ) ;
#280 = VECTOR ( 'NONE', #243, 39.37007874015748143 ) ;
#281 = DIRECTION ( 'NONE',  ( 1.567547902908612085E-16, 1.000000000000000000, -0.000000000000000000 ) ) ;
#282 = EDGE_LOOP ( 'NONE', ( #132, #128 ) ) ;
#283 = DIMENSIONAL_EXPONENTS ( 1.000000000000000000, 0.000000000000000000, 0.000000000000000000, 0.000000000000000000, 0.000000000000000000, 0.000000000000000000, 0.000000000000000000 ) ;
#284 = LENGTH_MEASURE_WITH_UNIT ( LENGTH_MEASURE( 0.02539999999999999897 ), #269 );
#285 = SURFACE_STYLE_USAGE ( .BOTH. , #26 ) ;
#286 = MECHANICAL_DESIGN_GEOMETRIC_PRESENTATION_REPRESENTATION (  '', ( #73 ), #146 ) ;
#287 = AXIS2_PLACEMENT_3D ( 'NONE', #292, #168, #75 ) ;
#288 = SHAPE_DEFINITION_REPRESENTATION ( #241, #178 ) ;
#289 = SURFACE_SIDE_STYLE ('',( #1 ) ) ;
#290 = PRESENTATION_LAYER_ASSIGNMENT (  '', '', ( #73 ) ) ;
#291 = AXIS2_PLACEMENT_3D ( 'NONE', #41, #281, #139 ) ;
#292 = CARTESIAN_POINT ( 'NONE',  ( 0.000000000000000000, 0.4374999999999998890, 0.000000000000000000 ) ) ;
#293 = DIRECTION ( 'NONE',  ( 0.000000000000000000, -0.000000000000000000, 1.000000000000000000 ) ) ;
#294 = STYLED_ITEM ( 'NONE', ( #164 ), #298 ) ;
#295 = SURFACE_STYLE_FILL_AREA ( #214 ) ;
#296 = SURFACE_STYLE_FILL_AREA ( #10 ) ;
#297 = ORIENTED_EDGE ( 'NONE', *, *, #195, .T. ) ;
#298 = ADVANCED_FACE ( 'NONE', ( #116 ), #135, .T. ) ;
#299 = CARTESIAN_POINT ( 'NONE',  ( 0.000000000000000000, 0.000000000000000000, -0.1562500000000000000 ) ) ;
#300 =( NAMED_UNIT ( * ) PLANE_ANGLE_UNIT ( ) SI_UNIT ( $, .RADIAN. ) );
#301 = ORIENTED_EDGE ( 'NONE', *, *, #307, .T. ) ;
#302 = DIRECTION ( 'NONE',  ( -1.000000000000000000, 0.000000000000000000, 0.000000000000000000 ) ) ;
#303 = DIMENSIONAL_EXPONENTS ( 1.000000000000000000, 0.000000000000000000, 0.000000000000000000, 0.000000000000000000, 0.000000000000000000, 0.000000000000000000, 0.000000000000000000 ) ;
#304 = CARTESIAN_POINT ( 'NONE',  ( -0.1562499999999995282, 2.000000000000000000, 0.000000000000000000 ) ) ;
#305 = CARTESIAN_POINT ( 'NONE',  ( 0.000000000000000000, 0.000000000000000000, -0.1562500000000000000 ) ) ;
#306 = MECHANICAL_DESIGN_GEOMETRIC_PRESENTATION_REPRESENTATION (  '', ( #152 ), #308 ) ;
#307 = EDGE_CURVE ( 'NONE', #4, #225, #95, .T. ) ;
#308 =( GEOMETRIC_REPRESENTATION_CONTEXT ( 3 ) GLOBAL_UNCERTAINTY_ASSIGNED_CONTEXT ( ( #265 ) ) GLOBAL_UNIT_ASSIGNED_CONTEXT ( ( #59, #300, #202 ) ) REPRESENTATION_CONTEXT ( 'NONE', 'WORKASPACE' ) );
#309 =( LENGTH_UNIT ( ) NAMED_UNIT ( * ) SI_UNIT ( $, .METRE. ) );
ENDSEC;
END-ISO-10303-21;
