ISO-10303-21;
HEADER;
FILE_DESCRIPTION (( 'STEP AP214' ),
    '1' );
FILE_NAME ('Micro_SBMM-030-215X.STEP',
    '2021-09-02T17:06:36',
    ( '' ),
    ( '' ),
    'SwSTEP 2.0',
    'SolidWorks 2020',
    '' );
FILE_SCHEMA (( 'AUTOMOTIVE_DESIGN' ));
ENDSEC;

DATA;
#1 = DIRECTION ( 'NONE',  ( 0.0000000000000000000, 1.000000000000000000, 0.0000000000000000000 ) ) ;
#2 = DIRECTION ( 'NONE',  ( -1.000000000000000000, 0.0000000000000000000, 0.0000000000000000000 ) ) ;
#3 = PRODUCT ( 'Micro_SBMM-030-215X', 'Micro_SBMM-030-215X', '', ( #143 ) ) ;
#4 = CIRCLE ( 'NONE', #79, 0.03936999999999998140 ) ;
#5 = CARTESIAN_POINT ( 'NONE',  ( 0.0000000000000000000, 0.0000000000000000000, 0.1030719981370833843 ) ) ;
#6 = EDGE_CURVE ( 'NONE', #340, #70, #113, .T. ) ;
#7 = DIRECTION ( 'NONE',  ( 1.000000000000000000, 0.0000000000000000000, 0.0000000000000000000 ) ) ;
#8 = CYLINDRICAL_SURFACE ( 'NONE', #105, 0.1181100000000000344 ) ;
#9 = CIRCLE ( 'NONE', #195, 0.1031099999999991745 ) ;
#10 = CARTESIAN_POINT ( 'NONE',  ( 0.0000000000000000000, 0.0000000000000000000, 0.1030719981370833843 ) ) ;
#11 = CARTESIAN_POINT ( 'NONE',  ( -0.03936999999999998140, 0.0000000000000000000, 0.1030719981370833843 ) ) ;
#12 = ORIENTED_EDGE ( 'NONE', *, *, #232, .T. ) ;
#13 = VECTOR ( 'NONE', #183, 39.37007874015748854 ) ;
#14 = ADVANCED_BREP_SHAPE_REPRESENTATION ( 'Micro_SBMM-030-215X', ( #155, #58 ), #315 ) ;
#15 = ORIENTED_EDGE ( 'NONE', *, *, #61, .F. ) ;
#16 = FILL_AREA_STYLE ('',( #244 ) ) ;
#17 = DIRECTION ( 'NONE',  ( -0.0000000000000000000, -0.0000000000000000000, -1.000000000000000000 ) ) ;
#18 = ORIENTED_EDGE ( 'NONE', *, *, #87, .F. ) ;
#19 = DIRECTION ( 'NONE',  ( 1.000000000000000000, 0.0000000000000000000, 0.0000000000000000000 ) ) ;
#20 = ADVANCED_FACE ( 'NONE', ( #156 ), #227, .T. ) ;
#21 = ORIENTED_EDGE ( 'NONE', *, *, #294, .T. ) ;
#22 = CARTESIAN_POINT ( 'NONE',  ( 0.0000000000000000000, 0.0000000000000000000, 2.952755999999999936 ) ) ;
#23 = AXIS2_PLACEMENT_3D ( 'NONE', #229, #162, #7 ) ;
#24 = ORIENTED_EDGE ( 'NONE', *, *, #257, .F. ) ;
#25 = FILL_AREA_STYLE_COLOUR ( '', #312 ) ;
#26 = CARTESIAN_POINT ( 'NONE',  ( 0.03936999999999992589, 0.0000000000000000000, 0.5905510000000000481 ) ) ;
#27 = DIRECTION ( 'NONE',  ( 1.000000000000000000, 0.0000000000000000000, 0.0000000000000000000 ) ) ;
#28 = CARTESIAN_POINT ( 'NONE',  ( -0.1181100000000000344, 0.0000000000000000000, 1.456693000000000016 ) ) ;
#29 = DIRECTION ( 'NONE',  ( -1.224646799147353207E-16, 1.000000000000000000, 0.0000000000000000000 ) ) ;
#30 = DIRECTION ( 'NONE',  ( -0.0000000000000000000, -0.0000000000000000000, -1.000000000000000000 ) ) ;
#31 = EDGE_CURVE ( 'NONE', #340, #246, #198, .T. ) ;
#32 = LINE ( 'NONE', #265, #317 ) ;
#33 = CARTESIAN_POINT ( 'NONE',  ( 0.0000000000000000000, 0.0000000000000000000, 2.952755999999999936 ) ) ;
#34 =( CONVERSION_BASED_UNIT ( 'INCH', #37 ) LENGTH_UNIT ( ) NAMED_UNIT ( #285 ) );
#35 = CONICAL_SURFACE ( 'NONE', #122, 0.1031099999999991745, 0.7853981633974500554 ) ;
#36 = AXIS2_PLACEMENT_3D ( 'NONE', #322, #59, #321 ) ;
#37 = LENGTH_MEASURE_WITH_UNIT ( LENGTH_MEASURE( 0.02539999999999999897 ), #268 );
#38 = LENGTH_MEASURE_WITH_UNIT ( LENGTH_MEASURE( 0.02539999999999999897 ), #115 );
#39 = EDGE_LOOP ( 'NONE', ( #89, #301, #221, #121, #151 ) ) ;
#40 = CARTESIAN_POINT ( 'NONE',  ( -0.03936999999999996058, 0.0000000000000000000, 0.0000000000000000000 ) ) ;
#41 = ORIENTED_EDGE ( 'NONE', *, *, #257, .T. ) ;
#42 = ORIENTED_EDGE ( 'NONE', *, *, #298, .T. ) ;
#43 = ORIENTED_EDGE ( 'NONE', *, *, #202, .T. ) ;
#44 = CARTESIAN_POINT ( 'NONE',  ( -0.1181100000000000344, 0.0000000000000000000, 2.952755999999999936 ) ) ;
#45 = VERTEX_POINT ( 'NONE', #71 ) ;
#46 = DIMENSIONAL_EXPONENTS ( 1.000000000000000000, 0.0000000000000000000, 0.0000000000000000000, 0.0000000000000000000, 0.0000000000000000000, 0.0000000000000000000, 0.0000000000000000000 ) ;
#47 = LINE ( 'NONE', #44, #159 ) ;
#48 = AXIS2_PLACEMENT_3D ( 'NONE', #131, #318, #80 ) ;
#49 = DIRECTION ( 'NONE',  ( 0.0000000000000000000, 0.0000000000000000000, -1.000000000000000000 ) ) ;
#50 = LINE ( 'NONE', #132, #13 ) ;
#51 =( NAMED_UNIT ( * ) PLANE_ANGLE_UNIT ( ) SI_UNIT ( $, .RADIAN. ) );
#52 = PRODUCT_DEFINITION_SHAPE ( 'NONE', 'NONE',  #323 ) ;
#53 = CONICAL_SURFACE ( 'NONE', #206, 0.1031099999999991745, 0.7853981633974500554 ) ;
#54 = FACE_OUTER_BOUND ( 'NONE', #98, .T. ) ;
#55 = CARTESIAN_POINT ( 'NONE',  ( 0.0000000000000000000, 0.0000000000000000000, 2.952755999999999936 ) ) ;
#56 = DIRECTION ( 'NONE',  ( 0.09053553870087648059, 0.0000000000000000000, 0.9958932253169222593 ) ) ;
#57 = APPLICATION_CONTEXT ( 'automotive_design' ) ;
#58 = AXIS2_PLACEMENT_3D ( 'NONE', #270, #296, #64 ) ;
#59 = DIRECTION ( 'NONE',  ( 0.0000000000000000000, 0.0000000000000000000, -1.000000000000000000 ) ) ;
#60 = DIRECTION ( 'NONE',  ( -1.000000000000000000, 0.0000000000000000000, 0.0000000000000000000 ) ) ;
#61 = EDGE_CURVE ( 'NONE', #72, #118, #228, .T. ) ;
#62 = CARTESIAN_POINT ( 'NONE',  ( -0.03936999999999992589, 9.642868896486255427E-18, 0.5905510000000000481 ) ) ;
#63 = CONICAL_SURFACE ( 'NONE', #23, 0.1299209999999997589, 0.09065967900408432312 ) ;
#64 = DIRECTION ( 'NONE',  ( 1.000000000000000000, 0.0000000000000000000, 0.0000000000000000000 ) ) ;
#65 = ORIENTED_EDGE ( 'NONE', *, *, #202, .F. ) ;
#66 = ORIENTED_EDGE ( 'NONE', *, *, #326, .T. ) ;
#67 = CARTESIAN_POINT ( 'NONE',  ( 0.0000000000000000000, 0.0000000000000000000, 2.952755999999999936 ) ) ;
#68 = ORIENTED_EDGE ( 'NONE', *, *, #6, .F. ) ;
#69 = ORIENTED_EDGE ( 'NONE', *, *, #343, .T. ) ;
#70 = VERTEX_POINT ( 'NONE', #26 ) ;
#71 = CARTESIAN_POINT ( 'NONE',  ( 0.1031099999999991745, 1.354581824536882559E-17, 2.952755999999999936 ) ) ;
#72 = VERTEX_POINT ( 'NONE', #173 ) ;
#73 = CARTESIAN_POINT ( 'NONE',  ( 0.1181100000000000344, 1.446430334472939084E-17, 2.952755999999999936 ) ) ;
#74 = DIRECTION ( 'NONE',  ( -0.0000000000000000000, -0.0000000000000000000, -1.000000000000000000 ) ) ;
#75 = FACE_OUTER_BOUND ( 'NONE', #218, .T. ) ;
#76 = COLOUR_RGB ( '',0.7921568627450980005, 0.8196078431372548767, 0.9333333333333333481 ) ;
#77 = DIRECTION ( 'NONE',  ( 0.0000000000000000000, 0.0000000000000000000, 1.000000000000000000 ) ) ;
#78 = AXIS2_PLACEMENT_3D ( 'NONE', #333, #313, #96 ) ;
#79 = AXIS2_PLACEMENT_3D ( 'NONE', #82, #110, #241 ) ;
#80 = DIRECTION ( 'NONE',  ( 1.000000000000000000, 0.0000000000000000000, 0.0000000000000000000 ) ) ;
#81 = CIRCLE ( 'NONE', #263, 0.03936999999999998140 ) ;
#82 = CARTESIAN_POINT ( 'NONE',  ( 0.0000000000000000000, 0.0000000000000000000, 0.1030719981370833843 ) ) ;
#83 = DIRECTION ( 'NONE',  ( -0.0000000000000000000, -0.0000000000000000000, -1.000000000000000000 ) ) ;
#84 = EDGE_CURVE ( 'NONE', #72, #299, #278, .T. ) ;
#85 = SURFACE_SIDE_STYLE ('',( #328 ) ) ;
#86 = CIRCLE ( 'NONE', #48, 0.1181100000000000344 ) ;
#87 = EDGE_CURVE ( 'NONE', #219, #246, #81, .T. ) ;
#88 = APPLICATION_PROTOCOL_DEFINITION ( 'draft international standard', 'automotive_design', 1998, #57 ) ;
#89 = ORIENTED_EDGE ( 'NONE', *, *, #6, .T. ) ;
#90 =( NAMED_UNIT ( * ) PLANE_ANGLE_UNIT ( ) SI_UNIT ( $, .RADIAN. ) );
#91 = CARTESIAN_POINT ( 'NONE',  ( 0.0000000000000000000, 0.0000000000000000000, 0.1030719981370833843 ) ) ;
#92 = EDGE_LOOP ( 'NONE', ( #69, #43, #12, #274 ) ) ;
#93 =( GEOMETRIC_REPRESENTATION_CONTEXT ( 3 ) GLOBAL_UNCERTAINTY_ASSIGNED_CONTEXT ( ( #112 ) ) GLOBAL_UNIT_ASSIGNED_CONTEXT ( ( #289, #51, #284 ) ) REPRESENTATION_CONTEXT ( 'NONE', 'WORKASPACE' ) );
#94 = DIRECTION ( 'NONE',  ( -0.0000000000000000000, -0.0000000000000000000, -1.000000000000000000 ) ) ;
#95 = VERTEX_POINT ( 'NONE', #117 ) ;
#96 = DIRECTION ( 'NONE',  ( -1.000000000000000000, 0.0000000000000000000, 0.0000000000000000000 ) ) ;
#97 = ORIENTED_EDGE ( 'NONE', *, *, #146, .T. ) ;
#98 = EDGE_LOOP ( 'NONE', ( #116, #272, #66, #309 ) ) ;
#99 = CIRCLE ( 'NONE', #252, 0.03936999999999992589 ) ;
#100 = DIRECTION ( 'NONE',  ( 1.000000000000000000, 0.0000000000000000000, -0.0000000000000000000 ) ) ;
#101 = CIRCLE ( 'NONE', #291, 0.1181100000000000344 ) ;
#102 = SPHERICAL_SURFACE ( 'NONE', #139, 0.05905499999999999639 ) ;
#103 = DIRECTION ( 'NONE',  ( 1.000000000000000000, 1.224646799147353207E-16, -0.0000000000000000000 ) ) ;
#104 = VECTOR ( 'NONE', #17, 39.37007874015748143 ) ;
#105 = AXIS2_PLACEMENT_3D ( 'NONE', #137, #184, #264 ) ;
#106 = FACE_OUTER_BOUND ( 'NONE', #225, .T. ) ;
#107 = DIRECTION ( 'NONE',  ( -0.09053553870087648059, 1.108740576791096967E-17, 0.9958932253169222593 ) ) ;
#108 = LINE ( 'NONE', #166, #234 ) ;
#109 = CARTESIAN_POINT ( 'NONE',  ( 0.0000000000000000000, 0.0000000000000000000, 0.05905500000000000332 ) ) ;
#110 = DIRECTION ( 'NONE',  ( -0.0000000000000000000, -0.0000000000000000000, -1.000000000000000000 ) ) ;
#111 = DIRECTION ( 'NONE',  ( -0.0000000000000000000, -0.0000000000000000000, -1.000000000000000000 ) ) ;
#112 = UNCERTAINTY_MEASURE_WITH_UNIT (LENGTH_MEASURE( 1.000000000000000082E-05 ), #289, 'distance_accuracy_value', 'NONE');
#113 = CIRCLE ( 'NONE', #78, 0.03936999999999992589 ) ;
#114 = ADVANCED_FACE ( 'NONE', ( #253 ), #53, .T. ) ;
#115 =( LENGTH_UNIT ( ) NAMED_UNIT ( * ) SI_UNIT ( $, .METRE. ) );
#116 = ORIENTED_EDGE ( 'NONE', *, *, #232, .F. ) ;
#117 = CARTESIAN_POINT ( 'NONE',  ( 0.03936999999999998140, 4.821434448243127714E-18, 0.1030719981370833843 ) ) ;
#118 = VERTEX_POINT ( 'NONE', #154 ) ;
#119 = EDGE_LOOP ( 'NONE', ( #254, #172, #147, #277 ) ) ;
#120 = FACE_OUTER_BOUND ( 'NONE', #341, .T. ) ;
#121 = ORIENTED_EDGE ( 'NONE', *, *, #326, .F. ) ;
#122 = AXIS2_PLACEMENT_3D ( 'NONE', #55, #134, #316 ) ;
#123 = AXIS2_PLACEMENT_3D ( 'NONE', #133, #103, #29 ) ;
#124 = DIRECTION ( 'NONE',  ( 1.000000000000000000, 0.0000000000000000000, 0.0000000000000000000 ) ) ;
#125 = VERTEX_POINT ( 'NONE', #196 ) ;
#126 = PLANE ( 'NONE',  #239 ) ;
#127 = EDGE_CURVE ( 'NONE', #220, #299, #101, .T. ) ;
#128 = ADVANCED_FACE ( 'NONE', ( #144 ), #126, .T. ) ;
#129 = PRESENTATION_STYLE_ASSIGNMENT (( #248 ) ) ;
#130 = ADVANCED_FACE ( 'NONE', ( #120 ), #201, .T. ) ;
#131 = CARTESIAN_POINT ( 'NONE',  ( 0.0000000000000000000, 0.0000000000000000000, 1.456693000000000016 ) ) ;
#132 = CARTESIAN_POINT ( 'NONE',  ( 0.1031099999999991745, 1.262733314600825725E-17, 2.952755999999999936 ) ) ;
#133 = CARTESIAN_POINT ( 'NONE',  ( 0.0000000000000000000, 0.0000000000000000000, 0.05905500000000000332 ) ) ;
#134 = DIRECTION ( 'NONE',  ( 0.0000000000000000000, 0.0000000000000000000, -1.000000000000000000 ) ) ;
#135 = AXIS2_PLACEMENT_3D ( 'NONE', #292, #138, #212 ) ;
#136 = DIRECTION ( 'NONE',  ( 1.000000000000000000, 0.0000000000000000000, 0.0000000000000000000 ) ) ;
#137 = CARTESIAN_POINT ( 'NONE',  ( 0.0000000000000000000, 0.0000000000000000000, 2.952755999999999936 ) ) ;
#138 = DIRECTION ( 'NONE',  ( -1.000000000000000000, 0.0000000000000000000, 0.0000000000000000000 ) ) ;
#139 = AXIS2_PLACEMENT_3D ( 'NONE', #231, #27, #1 ) ;
#140 = ORIENTED_EDGE ( 'NONE', *, *, #338, .F. ) ;
#141 = ORIENTED_EDGE ( 'NONE', *, *, #84, .F. ) ;
#142 = AXIS2_PLACEMENT_3D ( 'NONE', #171, #149, #336 ) ;
#143 = PRODUCT_CONTEXT ( 'NONE', #260, 'mechanical' ) ;
#144 = FACE_OUTER_BOUND ( 'NONE', #330, .T. ) ;
#145 = ORIENTED_EDGE ( 'NONE', *, *, #61, .T. ) ;
#146 = EDGE_CURVE ( 'NONE', #118, #220, #47, .T. ) ;
#147 = ORIENTED_EDGE ( 'NONE', *, *, #235, .T. ) ;
#148 = EDGE_LOOP ( 'NONE', ( #170, #335, #251, #306 ) ) ;
#149 = DIRECTION ( 'NONE',  ( -0.0000000000000000000, -0.0000000000000000000, -1.000000000000000000 ) ) ;
#150 = EDGE_CURVE ( 'NONE', #45, #339, #9, .T. ) ;
#151 = ORIENTED_EDGE ( 'NONE', *, *, #31, .F. ) ;
#152 = STYLED_ITEM ( 'NONE', ( #129 ), #155 ) ;
#153 = AXIS2_PLACEMENT_3D ( 'NONE', #33, #211, #136 ) ;
#154 = CARTESIAN_POINT ( 'NONE',  ( -0.1181100000000000344, 0.0000000000000000000, 2.937755999999999368 ) ) ;
#155 = MANIFOLD_SOLID_BREP ( 'Cut-Revolve3', #245 ) ;
#156 = FACE_OUTER_BOUND ( 'NONE', #39, .T. ) ;
#157 = ADVANCED_FACE ( 'NONE', ( #54 ), #102, .T. ) ;
#158 = FACE_OUTER_BOUND ( 'NONE', #119, .T. ) ;
#159 = VECTOR ( 'NONE', #74, 39.37007874015748143 ) ;
#160 = DIRECTION ( 'NONE',  ( -1.000000000000000000, 0.0000000000000000000, 0.0000000000000000000 ) ) ;
#161 = CARTESIAN_POINT ( 'NONE',  ( 0.0000000000000000000, 0.0000000000000000000, 1.586614299999997035 ) ) ;
#162 = DIRECTION ( 'NONE',  ( 0.0000000000000000000, 0.0000000000000000000, 1.000000000000000000 ) ) ;
#163 = SPHERICAL_SURFACE ( 'NONE', #223, 0.05905499999999999639 ) ;
#164 = MECHANICAL_DESIGN_GEOMETRIC_PRESENTATION_REPRESENTATION (  '', ( #152 ), #93 ) ;
#165 = DIRECTION ( 'NONE',  ( -0.7071067811865486830, 0.0000000000000000000, -0.7071067811865462405 ) ) ;
#166 = CARTESIAN_POINT ( 'NONE',  ( -0.1031099999999991745, 0.0000000000000000000, 2.952755999999999936 ) ) ;
#167 = AXIS2_PLACEMENT_3D ( 'NONE', #5, #203, #160 ) ;
#168 = AXIS2_PLACEMENT_3D ( 'NONE', #230, #259, #2 ) ;
#169 = ORIENTED_EDGE ( 'NONE', *, *, #298, .F. ) ;
#170 = ORIENTED_EDGE ( 'NONE', *, *, #150, .F. ) ;
#171 = CARTESIAN_POINT ( 'NONE',  ( 0.0000000000000000000, 0.0000000000000000000, 0.0000000000000000000 ) ) ;
#172 = ORIENTED_EDGE ( 'NONE', *, *, #84, .T. ) ;
#173 = CARTESIAN_POINT ( 'NONE',  ( 0.1181100000000000344, 1.446430334472939084E-17, 2.937755999999999368 ) ) ;
#174 = ORIENTED_EDGE ( 'NONE', *, *, #334, .F. ) ;
#175 = DIRECTION ( 'NONE',  ( -0.0000000000000000000, -0.0000000000000000000, -1.000000000000000000 ) ) ;
#176 = ORIENTED_EDGE ( 'NONE', *, *, #178, .F. ) ;
#177 = SURFACE_STYLE_FILL_AREA ( #226 ) ;
#178 = EDGE_CURVE ( 'NONE', #45, #72, #50, .T. ) ;
#179 = CYLINDRICAL_SURFACE ( 'NONE', #168, 0.1181100000000000344 ) ;
#180 = ADVANCED_FACE ( 'NONE', ( #290 ), #35, .T. ) ;
#181 = CARTESIAN_POINT ( 'NONE',  ( 4.821434448243127714E-18, -0.03936999999999998140, 0.1030719981370833843 ) ) ;
#182 = CIRCLE ( 'NONE', #135, 0.05905499999999998945 ) ;
#183 = DIRECTION ( 'NONE',  ( 0.7071067811865486830, 8.659560562354947649E-17, -0.7071067811865462405 ) ) ;
#184 = DIRECTION ( 'NONE',  ( -0.0000000000000000000, -0.0000000000000000000, -1.000000000000000000 ) ) ;
#185 = CARTESIAN_POINT ( 'NONE',  ( 0.1299209999999997589, 0.0000000000000000000, 1.586614299999997035 ) ) ;
#186 = DIRECTION ( 'NONE',  ( -1.000000000000000000, 0.0000000000000000000, 0.0000000000000000000 ) ) ;
#187 = CARTESIAN_POINT ( 'NONE',  ( 0.03936999999999996058, 4.821434448243124632E-18, 0.0000000000000000000 ) ) ;
#188 = CARTESIAN_POINT ( 'NONE',  ( -0.1031099999999991745, 0.0000000000000000000, 2.952755999999999936 ) ) ;
#189 = CIRCLE ( 'NONE', #123, 0.05905499999999999639 ) ;
#190 = PRODUCT_DEFINITION_CONTEXT ( 'detailed design', #57, 'design' ) ;
#191 = ORIENTED_EDGE ( 'NONE', *, *, #127, .F. ) ;
#192 = ORIENTED_EDGE ( 'NONE', *, *, #150, .T. ) ;
#193 = DIRECTION ( 'NONE',  ( -1.000000000000000000, 0.0000000000000000000, 0.0000000000000000000 ) ) ;
#194 = EDGE_LOOP ( 'NONE', ( #141, #145, #97, #199 ) ) ;
#195 = AXIS2_PLACEMENT_3D ( 'NONE', #22, #283, #124 ) ;
#196 = CARTESIAN_POINT ( 'NONE',  ( 0.0000000000000000000, 3.616075836182346941E-18, 8.537024980200822558E-18 ) ) ;
#197 = ORIENTED_EDGE ( 'NONE', *, *, #235, .F. ) ;
#198 = LINE ( 'NONE', #40, #267 ) ;
#199 = ORIENTED_EDGE ( 'NONE', *, *, #127, .T. ) ;
#200 = CARTESIAN_POINT ( 'NONE',  ( 0.0000000000000000000, 0.0000000000000000000, 2.952755999999999936 ) ) ;
#201 = CYLINDRICAL_SURFACE ( 'NONE', #142, 0.03936999999999996058 ) ;
#202 = EDGE_CURVE ( 'NONE', #95, #219, #287, .T. ) ;
#203 = DIRECTION ( 'NONE',  ( -0.0000000000000000000, -0.0000000000000000000, -1.000000000000000000 ) ) ;
#204 = PRODUCT_DEFINITION_FORMATION_WITH_SPECIFIED_SOURCE ( 'ANY', '', #3, .NOT_KNOWN. ) ;
#205 = ADVANCED_FACE ( 'NONE', ( #75 ), #269, .T. ) ;
#206 = AXIS2_PLACEMENT_3D ( 'NONE', #200, #342, #303 ) ;
#207 = AXIS2_PLACEMENT_3D ( 'NONE', #161, #77, #261 ) ;
#208 = PRODUCT_RELATED_PRODUCT_CATEGORY ( 'part', '', ( #3 ) ) ;
#209 = ADVANCED_FACE ( 'NONE', ( #158 ), #179, .T. ) ;
#210 = LENGTH_MEASURE_WITH_UNIT ( LENGTH_MEASURE( 0.02539999999999999897 ), #286 );
#211 = DIRECTION ( 'NONE',  ( 0.0000000000000000000, 0.0000000000000000000, 1.000000000000000000 ) ) ;
#212 = DIRECTION ( 'NONE',  ( 0.0000000000000000000, 0.0000000000000000000, 1.000000000000000000 ) ) ;
#213 = AXIS2_PLACEMENT_3D ( 'NONE', #344, #94, #193 ) ;
#214 = FACE_OUTER_BOUND ( 'NONE', #194, .T. ) ;
#215 = DIRECTION ( 'NONE',  ( 0.0000000000000000000, 1.000000000000000000, 0.0000000000000000000 ) ) ;
#216 = PRESENTATION_LAYER_ASSIGNMENT (  '', '', ( #325 ) ) ;
#217 =( CONVERSION_BASED_UNIT ( 'INCH', #38 ) LENGTH_UNIT ( ) NAMED_UNIT ( #224 ) );
#218 = EDGE_LOOP ( 'NONE', ( #68, #42, #197, #140 ) ) ;
#219 = VERTEX_POINT ( 'NONE', #181 ) ;
#220 = VERTEX_POINT ( 'NONE', #28 ) ;
#221 = ORIENTED_EDGE ( 'NONE', *, *, #343, .F. ) ;
#222 = ORIENTED_EDGE ( 'NONE', *, *, #334, .T. ) ;
#223 = AXIS2_PLACEMENT_3D ( 'NONE', #109, #262, #215 ) ;
#224 = DIMENSIONAL_EXPONENTS ( 1.000000000000000000, 0.0000000000000000000, 0.0000000000000000000, 0.0000000000000000000, 0.0000000000000000000, 0.0000000000000000000, 0.0000000000000000000 ) ;
#225 = EDGE_LOOP ( 'NONE', ( #169, #174, #243, #191 ) ) ;
#226 = FILL_AREA_STYLE ('',( #25 ) ) ;
#227 = CYLINDRICAL_SURFACE ( 'NONE', #213, 0.03936999999999996058 ) ;
#228 = CIRCLE ( 'NONE', #288, 0.1181100000000000344 ) ;
#229 = CARTESIAN_POINT ( 'NONE',  ( 0.0000000000000000000, 0.0000000000000000000, 1.586614299999997035 ) ) ;
#230 = CARTESIAN_POINT ( 'NONE',  ( 0.0000000000000000000, 0.0000000000000000000, 2.952755999999999936 ) ) ;
#231 = CARTESIAN_POINT ( 'NONE',  ( 0.0000000000000000000, 0.0000000000000000000, 0.05905500000000000332 ) ) ;
#232 = EDGE_CURVE ( 'NONE', #219, #125, #189, .T. ) ;
#233 = VECTOR ( 'NONE', #56, 39.37007874015748143 ) ;
#234 = VECTOR ( 'NONE', #165, 39.37007874015748854 ) ;
#235 = EDGE_CURVE ( 'NONE', #299, #220, #86, .T. ) ;
#236 = CARTESIAN_POINT ( 'NONE',  ( 0.1181100000000000344, 1.446430334472939084E-17, 1.456693000000000016 ) ) ;
#237 = LINE ( 'NONE', #187, #297 ) ;
#238 =( NAMED_UNIT ( * ) PLANE_ANGLE_UNIT ( ) SI_UNIT ( $, .RADIAN. ) );
#239 = AXIS2_PLACEMENT_3D ( 'NONE', #67, #250, #100 ) ;
#240 = ADVANCED_FACE ( 'NONE', ( #106 ), #63, .T. ) ;
#241 = DIRECTION ( 'NONE',  ( -1.000000000000000000, 0.0000000000000000000, 0.0000000000000000000 ) ) ;
#242 = UNCERTAINTY_MEASURE_WITH_UNIT (LENGTH_MEASURE( 1.000000000000000082E-05 ), #217, 'distance_accuracy_value', 'NONE');
#243 = ORIENTED_EDGE ( 'NONE', *, *, #338, .T. ) ;
#244 = FILL_AREA_STYLE_COLOUR ( '', #76 ) ;
#245 = CLOSED_SHELL ( 'NONE', ( #20, #314, #205, #180, #209, #271, #128, #114, #240, #157, #130 ) ) ;
#246 = VERTEX_POINT ( 'NONE', #11 ) ;
#247 = EDGE_CURVE ( 'NONE', #332, #125, #182, .T. ) ;
#248 = SURFACE_STYLE_USAGE ( .BOTH. , #256 ) ;
#249 = ORIENTED_EDGE ( 'NONE', *, *, #311, .F. ) ;
#250 = DIRECTION ( 'NONE',  ( 0.0000000000000000000, 0.0000000000000000000, 1.000000000000000000 ) ) ;
#251 = ORIENTED_EDGE ( 'NONE', *, *, #307, .F. ) ;
#252 = AXIS2_PLACEMENT_3D ( 'NONE', #324, #83, #186 ) ;
#253 = FACE_OUTER_BOUND ( 'NONE', #304, .T. ) ;
#254 = ORIENTED_EDGE ( 'NONE', *, *, #307, .T. ) ;
#255 = DIRECTION ( 'NONE',  ( 1.000000000000000000, 0.0000000000000000000, 0.0000000000000000000 ) ) ;
#256 = SURFACE_SIDE_STYLE ('',( #177 ) ) ;
#257 = EDGE_CURVE ( 'NONE', #339, #45, #337, .T. ) ;
#258 =( GEOMETRIC_REPRESENTATION_CONTEXT ( 3 ) GLOBAL_UNCERTAINTY_ASSIGNED_CONTEXT ( ( #242 ) ) GLOBAL_UNIT_ASSIGNED_CONTEXT ( ( #217, #90, #331 ) ) REPRESENTATION_CONTEXT ( 'NONE', 'WORKASPACE' ) );
#259 = DIRECTION ( 'NONE',  ( -0.0000000000000000000, -0.0000000000000000000, -1.000000000000000000 ) ) ;
#260 = APPLICATION_CONTEXT ( 'automotive_design' ) ;
#261 = DIRECTION ( 'NONE',  ( 1.000000000000000000, 0.0000000000000000000, 0.0000000000000000000 ) ) ;
#262 = DIRECTION ( 'NONE',  ( 1.000000000000000000, 0.0000000000000000000, 0.0000000000000000000 ) ) ;
#263 = AXIS2_PLACEMENT_3D ( 'NONE', #91, #175, #276 ) ;
#264 = DIRECTION ( 'NONE',  ( -1.000000000000000000, 0.0000000000000000000, 0.0000000000000000000 ) ) ;
#265 = CARTESIAN_POINT ( 'NONE',  ( -0.1299209999999997589, 1.591073367920229727E-17, 1.586614299999997035 ) ) ;
#266 = MECHANICAL_DESIGN_GEOMETRIC_PRESENTATION_REPRESENTATION (  '', ( #325 ), #258 ) ;
#267 = VECTOR ( 'NONE', #308, 39.37007874015748143 ) ;
#268 =( LENGTH_UNIT ( ) NAMED_UNIT ( * ) SI_UNIT ( $, .METRE. ) );
#269 = CONICAL_SURFACE ( 'NONE', #207, 0.1299209999999997589, 0.09065967900408432312 ) ;
#270 = CARTESIAN_POINT ( 'NONE',  ( 0.0000000000000000000, 0.0000000000000000000, 0.0000000000000000000 ) ) ;
#271 = ADVANCED_FACE ( 'NONE', ( #214 ), #8, .T. ) ;
#272 = ORIENTED_EDGE ( 'NONE', *, *, #87, .T. ) ;
#273 = CIRCLE ( 'NONE', #280, 0.03936999999999998140 ) ;
#274 = ORIENTED_EDGE ( 'NONE', *, *, #247, .F. ) ;
#275 = SURFACE_STYLE_USAGE ( .BOTH. , #85 ) ;
#276 = DIRECTION ( 'NONE',  ( -1.000000000000000000, 0.0000000000000000000, 0.0000000000000000000 ) ) ;
#277 = ORIENTED_EDGE ( 'NONE', *, *, #146, .F. ) ;
#278 = LINE ( 'NONE', #73, #104 ) ;
#279 = ORIENTED_EDGE ( 'NONE', *, *, #31, .T. ) ;
#280 = AXIS2_PLACEMENT_3D ( 'NONE', #10, #30, #60 ) ;
#281 = CARTESIAN_POINT ( 'NONE',  ( 0.0000000000000000000, 0.0000000000000000000, 1.456693000000000016 ) ) ;
#282 = CIRCLE ( 'NONE', #36, 0.1181100000000000344 ) ;
#283 = DIRECTION ( 'NONE',  ( 0.0000000000000000000, 0.0000000000000000000, 1.000000000000000000 ) ) ;
#284 =( NAMED_UNIT ( * ) SI_UNIT ( $, .STERADIAN. ) SOLID_ANGLE_UNIT ( ) );
#285 = DIMENSIONAL_EXPONENTS ( 1.000000000000000000, 0.0000000000000000000, 0.0000000000000000000, 0.0000000000000000000, 0.0000000000000000000, 0.0000000000000000000, 0.0000000000000000000 ) ;
#286 =( LENGTH_UNIT ( ) NAMED_UNIT ( * ) SI_UNIT ( $, .METRE. ) );
#287 = CIRCLE ( 'NONE', #167, 0.03936999999999998140 ) ;
#288 = AXIS2_PLACEMENT_3D ( 'NONE', #305, #49, #19 ) ;
#289 =( CONVERSION_BASED_UNIT ( 'INCH', #210 ) LENGTH_UNIT ( ) NAMED_UNIT ( #46 ) );
#290 = FACE_OUTER_BOUND ( 'NONE', #148, .T. ) ;
#291 = AXIS2_PLACEMENT_3D ( 'NONE', #281, #310, #255 ) ;
#292 = CARTESIAN_POINT ( 'NONE',  ( 0.0000000000000000000, 0.0000000000000000000, 0.05905500000000000332 ) ) ;
#293 = CARTESIAN_POINT ( 'NONE',  ( 0.0000000000000000000, 0.03936999999999998140, 0.1030719981370833843 ) ) ;
#294 = EDGE_CURVE ( 'NONE', #339, #118, #108, .T. ) ;
#295 = LINE ( 'NONE', #185, #233 ) ;
#296 = DIRECTION ( 'NONE',  ( 0.0000000000000000000, 0.0000000000000000000, 1.000000000000000000 ) ) ;
#297 = VECTOR ( 'NONE', #111, 39.37007874015748143 ) ;
#298 = EDGE_CURVE ( 'NONE', #340, #220, #32, .T. ) ;
#299 = VERTEX_POINT ( 'NONE', #236 ) ;
#300 = SHAPE_DEFINITION_REPRESENTATION ( #52, #14 ) ;
#301 = ORIENTED_EDGE ( 'NONE', *, *, #311, .T. ) ;
#302 = PRESENTATION_STYLE_ASSIGNMENT (( #275 ) ) ;
#303 = DIRECTION ( 'NONE',  ( -1.000000000000000000, 0.0000000000000000000, 0.0000000000000000000 ) ) ;
#304 = EDGE_LOOP ( 'NONE', ( #176, #24, #21, #15 ) ) ;
#305 = CARTESIAN_POINT ( 'NONE',  ( 0.0000000000000000000, 0.0000000000000000000, 2.937755999999999368 ) ) ;
#306 = ORIENTED_EDGE ( 'NONE', *, *, #294, .F. ) ;
#307 = EDGE_CURVE ( 'NONE', #118, #72, #282, .T. ) ;
#308 = DIRECTION ( 'NONE',  ( -0.0000000000000000000, -0.0000000000000000000, -1.000000000000000000 ) ) ;
#309 = ORIENTED_EDGE ( 'NONE', *, *, #247, .T. ) ;
#310 = DIRECTION ( 'NONE',  ( 0.0000000000000000000, 0.0000000000000000000, 1.000000000000000000 ) ) ;
#311 = EDGE_CURVE ( 'NONE', #70, #95, #237, .T. ) ;
#312 = COLOUR_RGB ( '',0.7921568627450980005, 0.8196078431372548767, 0.9333333333333333481 ) ;
#313 = DIRECTION ( 'NONE',  ( -0.0000000000000000000, -0.0000000000000000000, -1.000000000000000000 ) ) ;
#314 = ADVANCED_FACE ( 'NONE', ( #320 ), #163, .T. ) ;
#315 =( GEOMETRIC_REPRESENTATION_CONTEXT ( 3 ) GLOBAL_UNCERTAINTY_ASSIGNED_CONTEXT ( ( #327 ) ) GLOBAL_UNIT_ASSIGNED_CONTEXT ( ( #34, #238, #319 ) ) REPRESENTATION_CONTEXT ( 'NONE', 'WORKASPACE' ) );
#316 = DIRECTION ( 'NONE',  ( -1.000000000000000000, 0.0000000000000000000, 0.0000000000000000000 ) ) ;
#317 = VECTOR ( 'NONE', #107, 39.37007874015748143 ) ;
#318 = DIRECTION ( 'NONE',  ( 0.0000000000000000000, 0.0000000000000000000, 1.000000000000000000 ) ) ;
#319 =( NAMED_UNIT ( * ) SI_UNIT ( $, .STERADIAN. ) SOLID_ANGLE_UNIT ( ) );
#320 = FACE_OUTER_BOUND ( 'NONE', #92, .T. ) ;
#321 = DIRECTION ( 'NONE',  ( 1.000000000000000000, 0.0000000000000000000, 0.0000000000000000000 ) ) ;
#322 = CARTESIAN_POINT ( 'NONE',  ( 0.0000000000000000000, 0.0000000000000000000, 2.937755999999999368 ) ) ;
#323 = PRODUCT_DEFINITION ( 'UNKNOWN', '', #204, #190 ) ;
#324 = CARTESIAN_POINT ( 'NONE',  ( 0.0000000000000000000, 0.0000000000000000000, 0.5905510000000000481 ) ) ;
#325 = STYLED_ITEM ( 'NONE', ( #302 ), #14 ) ;
#326 = EDGE_CURVE ( 'NONE', #246, #332, #4, .T. ) ;
#327 = UNCERTAINTY_MEASURE_WITH_UNIT (LENGTH_MEASURE( 1.000000000000000082E-05 ), #34, 'distance_accuracy_value', 'NONE');
#328 = SURFACE_STYLE_FILL_AREA ( #16 ) ;
#329 = APPLICATION_PROTOCOL_DEFINITION ( 'draft international standard', 'automotive_design', 1998, #260 ) ;
#330 = EDGE_LOOP ( 'NONE', ( #41, #192 ) ) ;
#331 =( NAMED_UNIT ( * ) SI_UNIT ( $, .STERADIAN. ) SOLID_ANGLE_UNIT ( ) );
#332 = VERTEX_POINT ( 'NONE', #293 ) ;
#333 = CARTESIAN_POINT ( 'NONE',  ( 0.0000000000000000000, 0.0000000000000000000, 0.5905510000000000481 ) ) ;
#334 = EDGE_CURVE ( 'NONE', #70, #340, #99, .T. ) ;
#335 = ORIENTED_EDGE ( 'NONE', *, *, #178, .T. ) ;
#336 = DIRECTION ( 'NONE',  ( -1.000000000000000000, 0.0000000000000000000, 0.0000000000000000000 ) ) ;
#337 = CIRCLE ( 'NONE', #153, 0.1031099999999991745 ) ;
#338 = EDGE_CURVE ( 'NONE', #70, #299, #295, .T. ) ;
#339 = VERTEX_POINT ( 'NONE', #188 ) ;
#340 = VERTEX_POINT ( 'NONE', #62 ) ;
#341 = EDGE_LOOP ( 'NONE', ( #249, #222, #279, #18, #65 ) ) ;
#342 = DIRECTION ( 'NONE',  ( 0.0000000000000000000, 0.0000000000000000000, -1.000000000000000000 ) ) ;
#343 = EDGE_CURVE ( 'NONE', #332, #95, #273, .T. ) ;
#344 = CARTESIAN_POINT ( 'NONE',  ( 0.0000000000000000000, 0.0000000000000000000, 0.0000000000000000000 ) ) ;
#345 = PRESENTATION_LAYER_ASSIGNMENT (  '', '', ( #152 ) ) ;
ENDSEC;
END-ISO-10303-21;
