ISO-10303-21;
HEADER;
FILE_DESCRIPTION (( 'STEP AP214' ),
    '1' );
FILE_NAME ('05622.STEP',
    '2023-06-22T16:14:34',
    ( '' ),
    ( '' ),
    'SwSTEP 2.0',
    'SolidWorks 2023',
    '' );
FILE_SCHEMA (( 'AUTOMOTIVE_DESIGN' ));
ENDSEC;

DATA;
#1 = CARTESIAN_POINT ( 'NONE',  ( 0.000000000000000000, 1.625000000000000000, -0.3125000000000000000 ) ) ;
#2 = DIRECTION ( 'NONE',  ( -1.000000000000000000, 0.000000000000000000, 0.000000000000000000 ) ) ;
#3 = CARTESIAN_POINT ( 'NONE',  ( -6.123233995736759873E-17, 3.500000000000000000, 0.000000000000000000 ) ) ;
#4 = VERTEX_POINT ( 'NONE', #173 ) ;
#5 = PLANE ( 'NONE',  #162 ) ;
#6 = PRESENTATION_LAYER_ASSIGNMENT (  '', '', ( #113 ) ) ;
#7 = AXIS2_PLACEMENT_3D ( 'NONE', #179, #279, #65 ) ;
#8 = DIRECTION ( 'NONE',  ( -0.000000000000000000, -1.000000000000000000, -0.000000000000000000 ) ) ;
#9 = ORIENTED_EDGE ( 'NONE', *, *, #92, .F. ) ;
#10 = SURFACE_STYLE_FILL_AREA ( #77 ) ;
#11 = DIRECTION ( 'NONE',  ( 0.000000000000000000, 0.000000000000000000, -1.000000000000000000 ) ) ;
#12 =( LENGTH_UNIT ( ) NAMED_UNIT ( * ) SI_UNIT ( $, .METRE. ) );
#13 = CARTESIAN_POINT ( 'NONE',  ( -0.3125000000000000555, 3.500000000000000000, 0.000000000000000000 ) ) ;
#14 = SURFACE_SIDE_STYLE ('',( #94 ) ) ;
#15 = DIRECTION ( 'NONE',  ( 3.265724797726272713E-17, -1.000000000000000000, 0.000000000000000000 ) ) ;
#16 = AXIS2_PLACEMENT_3D ( 'NONE', #276, #70, #119 ) ;
#17 =( CONVERSION_BASED_UNIT ( 'INCH', #18 ) LENGTH_UNIT ( ) NAMED_UNIT ( #197 ) );
#18 = LENGTH_MEASURE_WITH_UNIT ( LENGTH_MEASURE( 0.02539999999999999897 ), #144 );
#19 = CARTESIAN_POINT ( 'NONE',  ( 0.3125000000000000000, 3.500000000000000000, 0.000000000000000000 ) ) ;
#20 = COLOUR_RGB ( '',0.7921568627450980005, 0.8196078431372548767, 0.9333333333333333481 ) ;
#21 = ORIENTED_EDGE ( 'NONE', *, *, #153, .T. ) ;
#22 = DIMENSIONAL_EXPONENTS ( 1.000000000000000000, 0.000000000000000000, 0.000000000000000000, 0.000000000000000000, 0.000000000000000000, 0.000000000000000000, 0.000000000000000000 ) ;
#23 = ORIENTED_EDGE ( 'NONE', *, *, #92, .T. ) ;
#24 = PRESENTATION_LAYER_ASSIGNMENT (  '', '', ( #237 ) ) ;
#25 = AXIS2_PLACEMENT_3D ( 'NONE', #3, #35, #112 ) ;
#26 = SURFACE_STYLE_USAGE ( .BOTH. , #151 ) ;
#27 = EDGE_CURVE ( 'NONE', #142, #4, #233, .T. ) ;
#28 = ORIENTED_EDGE ( 'NONE', *, *, #149, .F. ) ;
#29 = FACE_OUTER_BOUND ( 'NONE', #58, .T. ) ;
#30 = STYLED_ITEM ( 'NONE', ( #45 ), #60 ) ;
#31 = CLOSED_SHELL ( 'NONE', ( #229, #64, #221, #52 ) ) ;
#32 = LENGTH_MEASURE_WITH_UNIT ( LENGTH_MEASURE( 0.02539999999999999897 ), #59 );
#33 =( NAMED_UNIT ( * ) SI_UNIT ( $, .STERADIAN. ) SOLID_ANGLE_UNIT ( ) );
#34 = DIMENSIONAL_EXPONENTS ( 1.000000000000000000, 0.000000000000000000, 0.000000000000000000, 0.000000000000000000, 0.000000000000000000, 0.000000000000000000, 0.000000000000000000 ) ;
#35 = DIRECTION ( 'NONE',  ( -3.265724797726272713E-17, 1.000000000000000000, -0.000000000000000000 ) ) ;
#36 = APPLICATION_CONTEXT ( 'automotive_design' ) ;
#37 =( GEOMETRIC_REPRESENTATION_CONTEXT ( 3 ) GLOBAL_UNCERTAINTY_ASSIGNED_CONTEXT ( ( #129 ) ) GLOBAL_UNIT_ASSIGNED_CONTEXT ( ( #212, #265, #158 ) ) REPRESENTATION_CONTEXT ( 'NONE', 'WORKASPACE' ) );
#38 = PLANE ( 'NONE',  #85 ) ;
#39 =( NAMED_UNIT ( * ) PLANE_ANGLE_UNIT ( ) SI_UNIT ( $, .RADIAN. ) );
#40 = APPLICATION_PROTOCOL_DEFINITION ( 'draft international standard', 'automotive_design', 1998, #36 ) ;
#41 = VECTOR ( 'NONE', #74, 39.37007874015748143 ) ;
#42 = SURFACE_SIDE_STYLE ('',( #90 ) ) ;
#43 =( CONVERSION_BASED_UNIT ( 'INCH', #184 ) LENGTH_UNIT ( ) NAMED_UNIT ( #22 ) );
#44 = LINE ( 'NONE', #189, #41 ) ;
#45 = PRESENTATION_STYLE_ASSIGNMENT (( #91 ) ) ;
#46 =( GEOMETRIC_REPRESENTATION_CONTEXT ( 3 ) GLOBAL_UNCERTAINTY_ASSIGNED_CONTEXT ( ( #160 ) ) GLOBAL_UNIT_ASSIGNED_CONTEXT ( ( #281, #183, #161 ) ) REPRESENTATION_CONTEXT ( 'NONE', 'WORKASPACE' ) );
#47 = VERTEX_POINT ( 'NONE', #298 ) ;
#48 = DIRECTION ( 'NONE',  ( -3.265724797726272713E-17, 1.000000000000000000, 0.000000000000000000 ) ) ;
#49 = DIMENSIONAL_EXPONENTS ( 1.000000000000000000, 0.000000000000000000, 0.000000000000000000, 0.000000000000000000, 0.000000000000000000, 0.000000000000000000, 0.000000000000000000 ) ;
#50 = MECHANICAL_DESIGN_GEOMETRIC_PRESENTATION_REPRESENTATION (  '', ( #237 ), #253 ) ;
#51 = DIRECTION ( 'NONE',  ( -0.000000000000000000, -1.000000000000000000, -0.000000000000000000 ) ) ;
#52 = ADVANCED_FACE ( 'NONE', ( #302 ), #38, .T. ) ;
#53 = ORIENTED_EDGE ( 'NONE', *, *, #177, .F. ) ;
#54 = FILL_AREA_STYLE ('',( #141 ) ) ;
#55 = CIRCLE ( 'NONE', #178, 0.3125000000000000000 ) ;
#56 = AXIS2_PLACEMENT_3D ( 'NONE', #299, #139, #262 ) ;
#57 = DIRECTION ( 'NONE',  ( 0.000000000000000000, 0.000000000000000000, -1.000000000000000000 ) ) ;
#58 = EDGE_LOOP ( 'NONE', ( #226, #23, #223, #165 ) ) ;
#59 =( LENGTH_UNIT ( ) NAMED_UNIT ( * ) SI_UNIT ( $, .METRE. ) );
#60 = MANIFOLD_SOLID_BREP ( 'Revolve - Tool Body (Straight Shanked)', #248 ) ;
#61 = CARTESIAN_POINT ( 'NONE',  ( 0.000000000000000000, 0.000000000000000000, -0.3125000000000000000 ) ) ;
#62 = CARTESIAN_POINT ( 'NONE',  ( 3.827021247335478926E-17, 1.625000000000000000, 0.3125000000000000000 ) ) ;
#63 =( GEOMETRIC_REPRESENTATION_CONTEXT ( 3 ) GLOBAL_UNCERTAINTY_ASSIGNED_CONTEXT ( ( #251 ) ) GLOBAL_UNIT_ASSIGNED_CONTEXT ( ( #43, #264, #140 ) ) REPRESENTATION_CONTEXT ( 'NONE', 'WORKASPACE' ) );
#64 = ADVANCED_FACE ( 'NONE', ( #301 ), #307, .T. ) ;
#65 = DIRECTION ( 'NONE',  ( 1.000000000000000000, 0.000000000000000000, 0.000000000000000000 ) ) ;
#66 = FILL_AREA_STYLE ('',( #282 ) ) ;
#67 = ADVANCED_FACE ( 'NONE', ( #71 ), #261, .F. ) ;
#68 = CIRCLE ( 'NONE', #242, 0.3125000000000000000 ) ;
#69 = AXIS2_PLACEMENT_3D ( 'NONE', #79, #271, #154 ) ;
#70 = DIRECTION ( 'NONE',  ( -0.000000000000000000, -1.000000000000000000, -0.000000000000000000 ) ) ;
#71 = FACE_OUTER_BOUND ( 'NONE', #193, .T. ) ;
#72 = EDGE_CURVE ( 'NONE', #4, #81, #96, .T. ) ;
#73 = AXIS2_PLACEMENT_3D ( 'NONE', #224, #296, #250 ) ;
#74 = DIRECTION ( 'NONE',  ( -3.265724797726272713E-17, 1.000000000000000000, -0.000000000000000000 ) ) ;
#75 = DIRECTION ( 'NONE',  ( -3.265724797726272713E-17, 1.000000000000000000, -0.000000000000000000 ) ) ;
#76 = EDGE_LOOP ( 'NONE', ( #21, #235, #78, #288 ) ) ;
#77 = FILL_AREA_STYLE ('',( #293 ) ) ;
#78 = ORIENTED_EDGE ( 'NONE', *, *, #100, .F. ) ;
#79 = CARTESIAN_POINT ( 'NONE',  ( 0.000000000000000000, 0.000000000000000000, 0.000000000000000000 ) ) ;
#80 = ORIENTED_EDGE ( 'NONE', *, *, #72, .T. ) ;
#81 = VERTEX_POINT ( 'NONE', #116 ) ;
#82 = ADVANCED_FACE ( 'NONE', ( #209 ), #138, .T. ) ;
#83 = EDGE_LOOP ( 'NONE', ( #290, #291 ) ) ;
#84 = CARTESIAN_POINT ( 'NONE',  ( -0.3125000000000001665, 3.500000000000000000, 0.000000000000000000 ) ) ;
#85 = AXIS2_PLACEMENT_3D ( 'NONE', #216, #285, #57 ) ;
#86 = AXIS2_PLACEMENT_3D ( 'NONE', #93, #137, #181 ) ;
#87 = FACE_OUTER_BOUND ( 'NONE', #76, .T. ) ;
#88 = SURFACE_STYLE_FILL_AREA ( #54 ) ;
#89 = DIRECTION ( 'NONE',  ( -3.265724797726272713E-17, 1.000000000000000000, -0.000000000000000000 ) ) ;
#90 = SURFACE_STYLE_FILL_AREA ( #206 ) ;
#91 = SURFACE_STYLE_USAGE ( .BOTH. , #167 ) ;
#92 = EDGE_CURVE ( 'NONE', #200, #81, #99, .T. ) ;
#93 = CARTESIAN_POINT ( 'NONE',  ( -6.123233995736759873E-17, 3.500000000000000000, 0.000000000000000000 ) ) ;
#94 = SURFACE_STYLE_FILL_AREA ( #232 ) ;
#95 = CARTESIAN_POINT ( 'NONE',  ( 0.000000000000000000, 1.625000000000000000, 0.000000000000000000 ) ) ;
#96 = CIRCLE ( 'NONE', #269, 0.3125000000000000000 ) ;
#97 = VECTOR ( 'NONE', #89, 39.37007874015748143 ) ;
#98 = DIRECTION ( 'NONE',  ( -0.000000000000000000, -1.000000000000000000, -0.000000000000000000 ) ) ;
#99 = LINE ( 'NONE', #217, #171 ) ;
#100 = EDGE_CURVE ( 'NONE', #204, #175, #155, .T. ) ;
#101 = FILL_AREA_STYLE_COLOUR ( '', #278 ) ;
#102 = MECHANICAL_DESIGN_GEOMETRIC_PRESENTATION_REPRESENTATION (  '', ( #114 ), #254 ) ;
#103 = ORIENTED_EDGE ( 'NONE', *, *, #210, .F. ) ;
#104 = DIMENSIONAL_EXPONENTS ( 1.000000000000000000, 0.000000000000000000, 0.000000000000000000, 0.000000000000000000, 0.000000000000000000, 0.000000000000000000, 0.000000000000000000 ) ;
#105 = VERTEX_POINT ( 'NONE', #107 ) ;
#106 = LENGTH_MEASURE_WITH_UNIT ( LENGTH_MEASURE( 0.02539999999999999897 ), #143 );
#107 = CARTESIAN_POINT ( 'NONE',  ( -0.3125000000000000000, 1.625000000000000000, 0.000000000000000000 ) ) ;
#108 = DIRECTION ( 'NONE',  ( -0.000000000000000000, -1.000000000000000000, -0.000000000000000000 ) ) ;
#109 = ORIENTED_EDGE ( 'NONE', *, *, #280, .F. ) ;
#110 = AXIS2_PLACEMENT_3D ( 'NONE', #95, #186, #284 ) ;
#111 = CARTESIAN_POINT ( 'NONE',  ( 0.000000000000000000, 1.625000000000000000, 0.000000000000000000 ) ) ;
#112 = DIRECTION ( 'NONE',  ( -1.000000000000000000, 0.000000000000000000, 0.000000000000000000 ) ) ;
#113 = STYLED_ITEM ( 'NONE', ( #147 ), #52 ) ;
#114 = STYLED_ITEM ( 'NONE', ( #274 ), #221 ) ;
#115 =( LENGTH_UNIT ( ) NAMED_UNIT ( * ) SI_UNIT ( $, .METRE. ) );
#116 = CARTESIAN_POINT ( 'NONE',  ( 3.827021247335478926E-17, 0.000000000000000000, 0.3125000000000000000 ) ) ;
#117 = DIRECTION ( 'NONE',  ( 1.000000000000000000, 3.265724797726272713E-17, 0.000000000000000000 ) ) ;
#118 = AXIS2_PLACEMENT_3D ( 'NONE', #19, #15, #117 ) ;
#119 = DIRECTION ( 'NONE',  ( 0.000000000000000000, 0.000000000000000000, -1.000000000000000000 ) ) ;
#120 = SURFACE_STYLE_USAGE ( .BOTH. , #259 ) ;
#121 = COLOUR_RGB ( '',1.000000000000000000, 0.000000000000000000, 0.000000000000000000 ) ;
#122 = CIRCLE ( 'NONE', #73, 0.3125000000000000000 ) ;
#123 = EDGE_CURVE ( 'NONE', #142, #200, #55, .T. ) ;
#124 = DIRECTION ( 'NONE',  ( -0.000000000000000000, -1.000000000000000000, -0.000000000000000000 ) ) ;
#125 = ORIENTED_EDGE ( 'NONE', *, *, #280, .T. ) ;
#126 = CARTESIAN_POINT ( 'NONE',  ( 0.000000000000000000, 1.625000000000000000, 0.000000000000000000 ) ) ;
#127 = DIMENSIONAL_EXPONENTS ( 1.000000000000000000, 0.000000000000000000, 0.000000000000000000, 0.000000000000000000, 0.000000000000000000, 0.000000000000000000, 0.000000000000000000 ) ;
#128 = PRESENTATION_STYLE_ASSIGNMENT (( #26 ) ) ;
#129 = UNCERTAINTY_MEASURE_WITH_UNIT (LENGTH_MEASURE( 1.000000000000000082E-05 ), #212, 'distance_accuracy_value', 'NONE');
#130 = CYLINDRICAL_SURFACE ( 'NONE', #56, 0.3125000000000000000 ) ;
#131 = ADVANCED_FACE ( 'NONE', ( #220 ), #5, .F. ) ;
#132 = FILL_AREA_STYLE_COLOUR ( '', #218 ) ;
#133 = PRODUCT_RELATED_PRODUCT_CATEGORY ( 'part', '', ( #258 ) ) ;
#134 = MECHANICAL_DESIGN_GEOMETRIC_PRESENTATION_REPRESENTATION (  '', ( #30 ), #63 ) ;
#135 = CIRCLE ( 'NONE', #16, 0.3125000000000000000 ) ;
#136 = LENGTH_MEASURE_WITH_UNIT ( LENGTH_MEASURE( 0.02539999999999999897 ), #115 );
#137 = DIRECTION ( 'NONE',  ( -3.265724797726272713E-17, 1.000000000000000000, -0.000000000000000000 ) ) ;
#138 = CYLINDRICAL_SURFACE ( 'NONE', #263, 0.3125000000000000000 ) ;
#139 = DIRECTION ( 'NONE',  ( -0.000000000000000000, -1.000000000000000000, -0.000000000000000000 ) ) ;
#140 =( NAMED_UNIT ( * ) SI_UNIT ( $, .STERADIAN. ) SOLID_ANGLE_UNIT ( ) );
#141 = FILL_AREA_STYLE_COLOUR ( '', #20 ) ;
#142 = VERTEX_POINT ( 'NONE', #1 ) ;
#143 =( LENGTH_UNIT ( ) NAMED_UNIT ( * ) SI_UNIT ( $, .METRE. ) );
#144 =( LENGTH_UNIT ( ) NAMED_UNIT ( * ) SI_UNIT ( $, .METRE. ) );
#145 =( NAMED_UNIT ( * ) SI_UNIT ( $, .STERADIAN. ) SOLID_ANGLE_UNIT ( ) );
#146 = STYLED_ITEM ( 'NONE', ( #128 ), #157 ) ;
#147 = PRESENTATION_STYLE_ASSIGNMENT (( #182 ) ) ;
#148 = DIRECTION ( 'NONE',  ( -1.000000000000000000, 0.000000000000000000, 0.000000000000000000 ) ) ;
#149 = EDGE_CURVE ( 'NONE', #47, #175, #44, .T. ) ;
#150 = VECTOR ( 'NONE', #8, 39.37007874015748143 ) ;
#151 = SURFACE_SIDE_STYLE ('',( #268 ) ) ;
#152 = CARTESIAN_POINT ( 'NONE',  ( 0.3125000000000000000, 3.500000000000000000, 3.827021247335478926E-17 ) ) ;
#153 = EDGE_CURVE ( 'NONE', #105, #47, #68, .T. ) ;
#154 = DIRECTION ( 'NONE',  ( 0.000000000000000000, 0.000000000000000000, -1.000000000000000000 ) ) ;
#155 = CIRCLE ( 'NONE', #192, 0.3125000000000000555 ) ;
#156 = DIRECTION ( 'NONE',  ( 0.000000000000000000, 0.000000000000000000, -1.000000000000000000 ) ) ;
#157 = MANIFOLD_SOLID_BREP ( 'Revolve - Cutting Edge', #31 ) ;
#158 =( NAMED_UNIT ( * ) SI_UNIT ( $, .STERADIAN. ) SOLID_ANGLE_UNIT ( ) );
#159 = CIRCLE ( 'NONE', #238, 0.3125000000000000000 ) ;
#160 = UNCERTAINTY_MEASURE_WITH_UNIT (LENGTH_MEASURE( 1.000000000000000082E-05 ), #281, 'distance_accuracy_value', 'NONE');
#161 =( NAMED_UNIT ( * ) SI_UNIT ( $, .STERADIAN. ) SOLID_ANGLE_UNIT ( ) );
#162 = AXIS2_PLACEMENT_3D ( 'NONE', #190, #48, #245 ) ;
#163 = LENGTH_MEASURE_WITH_UNIT ( LENGTH_MEASURE( 0.02539999999999999897 ), #234 );
#164 = SURFACE_STYLE_FILL_AREA ( #66 ) ;
#165 = ORIENTED_EDGE ( 'NONE', *, *, #27, .F. ) ;
#166 = FILL_AREA_STYLE ('',( #101 ) ) ;
#167 = SURFACE_SIDE_STYLE ('',( #88 ) ) ;
#168 = DIRECTION ( 'NONE',  ( 0.000000000000000000, 0.000000000000000000, -1.000000000000000000 ) ) ;
#169 =( CONVERSION_BASED_UNIT ( 'INCH', #106 ) LENGTH_UNIT ( ) NAMED_UNIT ( #34 ) );
#170 = CARTESIAN_POINT ( 'NONE',  ( 7.582401355855259480E-33, 1.625000000000000000, 0.000000000000000000 ) ) ;
#171 = VECTOR ( 'NONE', #124, 39.37007874015748143 ) ;
#172 =( NAMED_UNIT ( * ) PLANE_ANGLE_UNIT ( ) SI_UNIT ( $, .RADIAN. ) );
#173 = CARTESIAN_POINT ( 'NONE',  ( 0.000000000000000000, 0.000000000000000000, -0.3125000000000000000 ) ) ;
#174 = ORIENTED_EDGE ( 'NONE', *, *, #210, .T. ) ;
#175 = VERTEX_POINT ( 'NONE', #152 ) ;
#176 = SURFACE_SIDE_STYLE ('',( #10 ) ) ;
#177 = EDGE_CURVE ( 'NONE', #175, #204, #215, .T. ) ;
#178 = AXIS2_PLACEMENT_3D ( 'NONE', #126, #51, #168 ) ;
#179 = CARTESIAN_POINT ( 'NONE',  ( 0.000000000000000000, 0.000000000000000000, 0.000000000000000000 ) ) ;
#180 = COLOUR_RGB ( '',1.000000000000000000, 0.000000000000000000, 0.000000000000000000 ) ;
#181 = DIRECTION ( 'NONE',  ( -1.000000000000000000, 0.000000000000000000, 0.000000000000000000 ) ) ;
#182 = SURFACE_STYLE_USAGE ( .BOTH. , #14 ) ;
#183 =( NAMED_UNIT ( * ) PLANE_ANGLE_UNIT ( ) SI_UNIT ( $, .RADIAN. ) );
#184 = LENGTH_MEASURE_WITH_UNIT ( LENGTH_MEASURE( 0.02539999999999999897 ), #12 );
#185 = FILL_AREA_STYLE_COLOUR ( '', #121 ) ;
#186 = DIRECTION ( 'NONE',  ( 0.000000000000000000, 1.000000000000000000, 0.000000000000000000 ) ) ;
#187 =( GEOMETRIC_REPRESENTATION_CONTEXT ( 3 ) GLOBAL_UNCERTAINTY_ASSIGNED_CONTEXT ( ( #305 ) ) GLOBAL_UNIT_ASSIGNED_CONTEXT ( ( #169, #266, #145 ) ) REPRESENTATION_CONTEXT ( 'NONE', 'WORKASPACE' ) );
#188 = PRESENTATION_LAYER_ASSIGNMENT (  '', '', ( #146 ) ) ;
#189 = CARTESIAN_POINT ( 'NONE',  ( 0.3124999999999999445, 3.500000000000000000, 3.827021247335478926E-17 ) ) ;
#190 = CARTESIAN_POINT ( 'NONE',  ( 1.666399758513172697E-34, 1.625000000000000000, 0.000000000000000000 ) ) ;
#191 =( NAMED_UNIT ( * ) PLANE_ANGLE_UNIT ( ) SI_UNIT ( $, .RADIAN. ) );
#192 = AXIS2_PLACEMENT_3D ( 'NONE', #194, #287, #247 ) ;
#193 = EDGE_LOOP ( 'NONE', ( #205, #246 ) ) ;
#194 = CARTESIAN_POINT ( 'NONE',  ( -6.123233995736759873E-17, 3.500000000000000000, 0.000000000000000000 ) ) ;
#195 = EDGE_LOOP ( 'NONE', ( #9, #219, #272, #109 ) ) ;
#196 = EDGE_CURVE ( 'NONE', #200, #142, #159, .T. ) ;
#197 = DIMENSIONAL_EXPONENTS ( 1.000000000000000000, 0.000000000000000000, 0.000000000000000000, 0.000000000000000000, 0.000000000000000000, 0.000000000000000000, 0.000000000000000000 ) ;
#198 = PRESENTATION_LAYER_ASSIGNMENT (  '', '', ( #30 ) ) ;
#199 = PRESENTATION_LAYER_ASSIGNMENT (  '', '', ( #114 ) ) ;
#200 = VERTEX_POINT ( 'NONE', #62 ) ;
#201 = CYLINDRICAL_SURFACE ( 'NONE', #69, 0.3125000000000000000 ) ;
#202 = EDGE_LOOP ( 'NONE', ( #28, #174, #292, #53 ) ) ;
#203 = PRODUCT_DEFINITION ( 'UNKNOWN', '', #243, #277 ) ;
#204 = VERTEX_POINT ( 'NONE', #84 ) ;
#205 = ORIENTED_EDGE ( 'NONE', *, *, #100, .T. ) ;
#206 = FILL_AREA_STYLE ('',( #132 ) ) ;
#207 = UNCERTAINTY_MEASURE_WITH_UNIT (LENGTH_MEASURE( 1.000000000000000082E-05 ), #267, 'distance_accuracy_value', 'NONE');
#208 = CYLINDRICAL_SURFACE ( 'NONE', #86, 0.3125000000000000000 ) ;
#209 = FACE_OUTER_BOUND ( 'NONE', #202, .T. ) ;
#210 = EDGE_CURVE ( 'NONE', #47, #105, #122, .T. ) ;
#211 = PRODUCT_CONTEXT ( 'NONE', #244, 'mechanical' ) ;
#212 =( CONVERSION_BASED_UNIT ( 'INCH', #163 ) LENGTH_UNIT ( ) NAMED_UNIT ( #127 ) );
#213 =( NAMED_UNIT ( * ) SI_UNIT ( $, .STERADIAN. ) SOLID_ANGLE_UNIT ( ) );
#214 = MECHANICAL_DESIGN_GEOMETRIC_PRESENTATION_REPRESENTATION (  '', ( #113 ), #187 ) ;
#215 = CIRCLE ( 'NONE', #25, 0.3125000000000000555 ) ;
#216 = CARTESIAN_POINT ( 'NONE',  ( 0.000000000000000000, 0.000000000000000000, 0.000000000000000000 ) ) ;
#217 = CARTESIAN_POINT ( 'NONE',  ( 3.827021247335478926E-17, 0.000000000000000000, 0.3125000000000000000 ) ) ;
#218 = COLOUR_RGB ( '',1.000000000000000000, 0.000000000000000000, 0.000000000000000000 ) ;
#219 = ORIENTED_EDGE ( 'NONE', *, *, #196, .T. ) ;
#220 = FACE_OUTER_BOUND ( 'NONE', #303, .T. ) ;
#221 = ADVANCED_FACE ( 'NONE', ( #228 ), #201, .T. ) ;
#222 = ORIENTED_EDGE ( 'NONE', *, *, #153, .F. ) ;
#223 = ORIENTED_EDGE ( 'NONE', *, *, #72, .F. ) ;
#224 = CARTESIAN_POINT ( 'NONE',  ( 7.582401355855259480E-33, 1.625000000000000000, 0.000000000000000000 ) ) ;
#225 = SURFACE_STYLE_USAGE ( .BOTH. , #176 ) ;
#226 = ORIENTED_EDGE ( 'NONE', *, *, #123, .T. ) ;
#227 = PRESENTATION_LAYER_ASSIGNMENT (  '', '', ( #273 ) ) ;
#228 = FACE_OUTER_BOUND ( 'NONE', #195, .T. ) ;
#229 = ADVANCED_FACE ( 'NONE', ( #29 ), #130, .T. ) ;
#230 = PRESENTATION_STYLE_ASSIGNMENT (( #260 ) ) ;
#231 = EDGE_CURVE ( 'NONE', #105, #204, #306, .T. ) ;
#232 = FILL_AREA_STYLE ('',( #185 ) ) ;
#233 = LINE ( 'NONE', #61, #150 ) ;
#234 =( LENGTH_UNIT ( ) NAMED_UNIT ( * ) SI_UNIT ( $, .METRE. ) );
#235 = ORIENTED_EDGE ( 'NONE', *, *, #149, .T. ) ;
#236 = SHAPE_DEFINITION_REPRESENTATION ( #252, #240 ) ;
#237 = STYLED_ITEM ( 'NONE', ( #239 ), #64 ) ;
#238 = AXIS2_PLACEMENT_3D ( 'NONE', #111, #108, #156 ) ;
#239 = PRESENTATION_STYLE_ASSIGNMENT (( #120 ) ) ;
#240 = ADVANCED_BREP_SHAPE_REPRESENTATION ( '05622', ( #157, #60, #7 ), #37 ) ;
#241 =( LENGTH_UNIT ( ) NAMED_UNIT ( * ) SI_UNIT ( $, .METRE. ) );
#242 = AXIS2_PLACEMENT_3D ( 'NONE', #170, #75, #148 ) ;
#243 = PRODUCT_DEFINITION_FORMATION_WITH_SPECIFIED_SOURCE ( 'ANY', '', #258, .NOT_KNOWN. ) ;
#244 = APPLICATION_CONTEXT ( 'automotive_design' ) ;
#245 = DIRECTION ( 'NONE',  ( -1.000000000000000000, -3.265724797726272713E-17, 0.000000000000000000 ) ) ;
#246 = ORIENTED_EDGE ( 'NONE', *, *, #177, .T. ) ;
#247 = DIRECTION ( 'NONE',  ( -1.000000000000000000, 0.000000000000000000, 0.000000000000000000 ) ) ;
#248 = CLOSED_SHELL ( 'NONE', ( #257, #131, #82, #67 ) ) ;
#249 = MECHANICAL_DESIGN_GEOMETRIC_PRESENTATION_REPRESENTATION (  '', ( #146 ), #289 ) ;
#250 = DIRECTION ( 'NONE',  ( -1.000000000000000000, 0.000000000000000000, 0.000000000000000000 ) ) ;
#251 = UNCERTAINTY_MEASURE_WITH_UNIT (LENGTH_MEASURE( 1.000000000000000082E-05 ), #43, 'distance_accuracy_value', 'NONE');
#252 = PRODUCT_DEFINITION_SHAPE ( 'NONE', 'NONE',  #203 ) ;
#253 =( GEOMETRIC_REPRESENTATION_CONTEXT ( 3 ) GLOBAL_UNCERTAINTY_ASSIGNED_CONTEXT ( ( #275 ) ) GLOBAL_UNIT_ASSIGNED_CONTEXT ( ( #17, #39, #213 ) ) REPRESENTATION_CONTEXT ( 'NONE', 'WORKASPACE' ) );
#254 =( GEOMETRIC_REPRESENTATION_CONTEXT ( 3 ) GLOBAL_UNCERTAINTY_ASSIGNED_CONTEXT ( ( #297 ) ) GLOBAL_UNIT_ASSIGNED_CONTEXT ( ( #256, #172, #270 ) ) REPRESENTATION_CONTEXT ( 'NONE', 'WORKASPACE' ) );
#255 = EDGE_LOOP ( 'NONE', ( #80, #125 ) ) ;
#256 =( CONVERSION_BASED_UNIT ( 'INCH', #32 ) LENGTH_UNIT ( ) NAMED_UNIT ( #49 ) );
#257 = ADVANCED_FACE ( 'NONE', ( #87 ), #208, .T. ) ;
#258 = PRODUCT ( '05622', '05622', '', ( #211 ) ) ;
#259 = SURFACE_SIDE_STYLE ('',( #164 ) ) ;
#260 = SURFACE_STYLE_USAGE ( .BOTH. , #42 ) ;
#261 = PLANE ( 'NONE',  #118 ) ;
#262 = DIRECTION ( 'NONE',  ( 0.000000000000000000, 0.000000000000000000, -1.000000000000000000 ) ) ;
#263 = AXIS2_PLACEMENT_3D ( 'NONE', #304, #309, #2 ) ;
#264 =( NAMED_UNIT ( * ) PLANE_ANGLE_UNIT ( ) SI_UNIT ( $, .RADIAN. ) );
#265 =( NAMED_UNIT ( * ) PLANE_ANGLE_UNIT ( ) SI_UNIT ( $, .RADIAN. ) );
#266 =( NAMED_UNIT ( * ) PLANE_ANGLE_UNIT ( ) SI_UNIT ( $, .RADIAN. ) );
#267 =( CONVERSION_BASED_UNIT ( 'INCH', #286 ) LENGTH_UNIT ( ) NAMED_UNIT ( #295 ) );
#268 = SURFACE_STYLE_FILL_AREA ( #166 ) ;
#269 = AXIS2_PLACEMENT_3D ( 'NONE', #308, #98, #11 ) ;
#270 =( NAMED_UNIT ( * ) SI_UNIT ( $, .STERADIAN. ) SOLID_ANGLE_UNIT ( ) );
#271 = DIRECTION ( 'NONE',  ( -0.000000000000000000, -1.000000000000000000, -0.000000000000000000 ) ) ;
#272 = ORIENTED_EDGE ( 'NONE', *, *, #27, .T. ) ;
#273 = STYLED_ITEM ( 'NONE', ( #230 ), #229 ) ;
#274 = PRESENTATION_STYLE_ASSIGNMENT (( #225 ) ) ;
#275 = UNCERTAINTY_MEASURE_WITH_UNIT (LENGTH_MEASURE( 1.000000000000000082E-05 ), #17, 'distance_accuracy_value', 'NONE');
#276 = CARTESIAN_POINT ( 'NONE',  ( 0.000000000000000000, 0.000000000000000000, 0.000000000000000000 ) ) ;
#277 = PRODUCT_DEFINITION_CONTEXT ( 'detailed design', #36, 'design' ) ;
#278 = COLOUR_RGB ( '',0.7921568627450980005, 0.8196078431372548767, 0.9333333333333333481 ) ;
#279 = DIRECTION ( 'NONE',  ( 0.000000000000000000, 0.000000000000000000, 1.000000000000000000 ) ) ;
#280 = EDGE_CURVE ( 'NONE', #81, #4, #135, .T. ) ;
#281 =( CONVERSION_BASED_UNIT ( 'INCH', #136 ) LENGTH_UNIT ( ) NAMED_UNIT ( #104 ) );
#282 = FILL_AREA_STYLE_COLOUR ( '', #294 ) ;
#283 = MECHANICAL_DESIGN_GEOMETRIC_PRESENTATION_REPRESENTATION (  '', ( #273 ), #46 ) ;
#284 = DIRECTION ( 'NONE',  ( 0.000000000000000000, -0.000000000000000000, 1.000000000000000000 ) ) ;
#285 = DIRECTION ( 'NONE',  ( 0.000000000000000000, -1.000000000000000000, -0.000000000000000000 ) ) ;
#286 = LENGTH_MEASURE_WITH_UNIT ( LENGTH_MEASURE( 0.02539999999999999897 ), #241 );
#287 = DIRECTION ( 'NONE',  ( -3.265724797726272713E-17, 1.000000000000000000, -0.000000000000000000 ) ) ;
#288 = ORIENTED_EDGE ( 'NONE', *, *, #231, .F. ) ;
#289 =( GEOMETRIC_REPRESENTATION_CONTEXT ( 3 ) GLOBAL_UNCERTAINTY_ASSIGNED_CONTEXT ( ( #207 ) ) GLOBAL_UNIT_ASSIGNED_CONTEXT ( ( #267, #191, #33 ) ) REPRESENTATION_CONTEXT ( 'NONE', 'WORKASPACE' ) );
#290 = ORIENTED_EDGE ( 'NONE', *, *, #123, .F. ) ;
#291 = ORIENTED_EDGE ( 'NONE', *, *, #196, .F. ) ;
#292 = ORIENTED_EDGE ( 'NONE', *, *, #231, .T. ) ;
#293 = FILL_AREA_STYLE_COLOUR ( '', #180 ) ;
#294 = COLOUR_RGB ( '',1.000000000000000000, 0.000000000000000000, 0.000000000000000000 ) ;
#295 = DIMENSIONAL_EXPONENTS ( 1.000000000000000000, 0.000000000000000000, 0.000000000000000000, 0.000000000000000000, 0.000000000000000000, 0.000000000000000000, 0.000000000000000000 ) ;
#296 = DIRECTION ( 'NONE',  ( -3.265724797726272713E-17, 1.000000000000000000, -0.000000000000000000 ) ) ;
#297 = UNCERTAINTY_MEASURE_WITH_UNIT (LENGTH_MEASURE( 1.000000000000000082E-05 ), #256, 'distance_accuracy_value', 'NONE');
#298 = CARTESIAN_POINT ( 'NONE',  ( 0.3125000000000000000, 1.625000000000000000, 3.827021247335478926E-17 ) ) ;
#299 = CARTESIAN_POINT ( 'NONE',  ( 0.000000000000000000, 0.000000000000000000, 0.000000000000000000 ) ) ;
#300 = APPLICATION_PROTOCOL_DEFINITION ( 'draft international standard', 'automotive_design', 1998, #244 ) ;
#301 = FACE_OUTER_BOUND ( 'NONE', #83, .T. ) ;
#302 = FACE_OUTER_BOUND ( 'NONE', #255, .T. ) ;
#303 = EDGE_LOOP ( 'NONE', ( #222, #103 ) ) ;
#304 = CARTESIAN_POINT ( 'NONE',  ( -6.123233995736759873E-17, 3.500000000000000000, 0.000000000000000000 ) ) ;
#305 = UNCERTAINTY_MEASURE_WITH_UNIT (LENGTH_MEASURE( 1.000000000000000082E-05 ), #169, 'distance_accuracy_value', 'NONE');
#306 = LINE ( 'NONE', #13, #97 ) ;
#307 = PLANE ( 'NONE',  #110 ) ;
#308 = CARTESIAN_POINT ( 'NONE',  ( 0.000000000000000000, 0.000000000000000000, 0.000000000000000000 ) ) ;
#309 = DIRECTION ( 'NONE',  ( -3.265724797726272713E-17, 1.000000000000000000, -0.000000000000000000 ) ) ;
ENDSEC;
END-ISO-10303-21;
