ISO-10303-21;
HEADER;
FILE_DESCRIPTION (( 'STEP AP214' ),
    '1' );
FILE_NAME ('83287.STEP',
    '2023-06-30T22:56:21',
    ( '' ),
    ( '' ),
    'SwSTEP 2.0',
    'SolidWorks 2023',
    '' );
FILE_SCHEMA (( 'AUTOMOTIVE_DESIGN' ));
ENDSEC;

DATA;
#1 = SURFACE_STYLE_FILL_AREA ( #146 ) ;
#2 = FILL_AREA_STYLE ('',( #202 ) ) ;
#3 =( GEOMETRIC_REPRESENTATION_CONTEXT ( 3 ) GLOBAL_UNCERTAINTY_ASSIGNED_CONTEXT ( ( #40 ) ) GLOBAL_UNIT_ASSIGNED_CONTEXT ( ( #279, #186, #47 ) ) REPRESENTATION_CONTEXT ( 'NONE', 'WORKASPACE' ) );
#4 = VERTEX_POINT ( 'NONE', #323 ) ;
#5 = DIRECTION ( 'NONE',  ( 0.000000000000000000, 0.000000000000000000, -1.000000000000000000 ) ) ;
#6 = EDGE_CURVE ( 'NONE', #299, #195, #339, .T. ) ;
#7 = EDGE_CURVE ( 'NONE', #230, #322, #166, .T. ) ;
#8 = COLOUR_RGB ( '',1.000000000000000000, 0.000000000000000000, 0.000000000000000000 ) ;
#9 = CARTESIAN_POINT ( 'NONE',  ( 0.000000000000000000, 0.5000000000000000000, 0.000000000000000000 ) ) ;
#10 = PRESENTATION_LAYER_ASSIGNMENT (  '', '', ( #59 ) ) ;
#11 = CYLINDRICAL_SURFACE ( 'NONE', #358, 0.1562499999999997224 ) ;
#12 = CARTESIAN_POINT ( 'NONE',  ( 0.1562500000000000000, 0.1562500000000000278, 0.000000000000000000 ) ) ;
#13 = FILL_AREA_STYLE ('',( #329 ) ) ;
#14 = CARTESIAN_POINT ( 'NONE',  ( -1.913510623667739463E-17, 0.1562500000000000000, 0.000000000000000000 ) ) ;
#15 = AXIS2_PLACEMENT_3D ( 'NONE', #46, #306, #282 ) ;
#16 = CIRCLE ( 'NONE', #285, 0.1562499999999996669 ) ;
#17 = CARTESIAN_POINT ( 'NONE',  ( -1.913510623667739463E-17, 0.1562500000000000000, 0.000000000000000000 ) ) ;
#18 = CARTESIAN_POINT ( 'NONE',  ( 0.000000000000000000, 0.1562500000000000278, 0.000000000000000000 ) ) ;
#19 = CARTESIAN_POINT ( 'NONE',  ( 0.1562499999999999722, 2.000000000000000000, 1.913510623667736382E-17 ) ) ;
#20 = SURFACE_SIDE_STYLE ('',( #128 ) ) ;
#21 = DIRECTION ( 'NONE',  ( -1.000000000000000000, 0.000000000000000000, 0.000000000000000000 ) ) ;
#22 = CIRCLE ( 'NONE', #172, 0.1562499999999999722 ) ;
#23 = COLOUR_RGB ( '',0.7921568627450980005, 0.8196078431372548767, 0.9333333333333333481 ) ;
#24 = DIRECTION ( 'NONE',  ( 0.000000000000000000, 0.000000000000000000, -1.000000000000000000 ) ) ;
#25 = LENGTH_MEASURE_WITH_UNIT ( LENGTH_MEASURE( 0.02539999999999999897 ), #97 );
#26 = PLANE ( 'NONE',  #357 ) ;
#27 = CLOSED_SHELL ( 'NONE', ( #316, #277, #189, #119 ) ) ;
#28 = CIRCLE ( 'NONE', #167, 0.1562500000000000000 ) ;
#29 = CARTESIAN_POINT ( 'NONE',  ( 0.000000000000000000, 0.000000000000000000, 0.000000000000000000 ) ) ;
#30 = ORIENTED_EDGE ( 'NONE', *, *, #200, .F. ) ;
#31 = VERTEX_POINT ( 'NONE', #319 ) ;
#32 = DIMENSIONAL_EXPONENTS ( 1.000000000000000000, 0.000000000000000000, 0.000000000000000000, 0.000000000000000000, 0.000000000000000000, 0.000000000000000000, 0.000000000000000000 ) ;
#33 = EDGE_LOOP ( 'NONE', ( #371, #158 ) ) ;
#34 = ORIENTED_EDGE ( 'NONE', *, *, #200, .T. ) ;
#35 = DIMENSIONAL_EXPONENTS ( 1.000000000000000000, 0.000000000000000000, 0.000000000000000000, 0.000000000000000000, 0.000000000000000000, 0.000000000000000000, 0.000000000000000000 ) ;
#36 = LENGTH_MEASURE_WITH_UNIT ( LENGTH_MEASURE( 0.02539999999999999897 ), #151 );
#37 = STYLED_ITEM ( 'NONE', ( #234 ), #39 ) ;
#38 =( GEOMETRIC_REPRESENTATION_CONTEXT ( 3 ) GLOBAL_UNCERTAINTY_ASSIGNED_CONTEXT ( ( #143 ) ) GLOBAL_UNIT_ASSIGNED_CONTEXT ( ( #51, #257, #295 ) ) REPRESENTATION_CONTEXT ( 'NONE', 'WORKASPACE' ) );
#39 = ADVANCED_FACE ( 'NONE', ( #301 ), #61, .T. ) ;
#40 = UNCERTAINTY_MEASURE_WITH_UNIT (LENGTH_MEASURE( 1.000000000000000082E-05 ), #279, 'distance_accuracy_value', 'NONE');
#41 = LINE ( 'NONE', #149, #174 ) ;
#42 = APPLICATION_CONTEXT ( 'automotive_design' ) ;
#43 = MECHANICAL_DESIGN_GEOMETRIC_PRESENTATION_REPRESENTATION (  '', ( #208 ), #191 ) ;
#44 = DIRECTION ( 'NONE',  ( -1.238371898121736924E-16, 1.000000000000000000, -0.000000000000000000 ) ) ;
#45 =( LENGTH_UNIT ( ) NAMED_UNIT ( * ) SI_UNIT ( $, .METRE. ) );
#46 = CARTESIAN_POINT ( 'NONE',  ( 0.1562499999999999722, 2.000000000000000000, 0.000000000000000000 ) ) ;
#47 =( NAMED_UNIT ( * ) SI_UNIT ( $, .STERADIAN. ) SOLID_ANGLE_UNIT ( ) );
#48 = EDGE_LOOP ( 'NONE', ( #354, #161, #34, #225, #71 ) ) ;
#49 =( GEOMETRIC_REPRESENTATION_CONTEXT ( 3 ) GLOBAL_UNCERTAINTY_ASSIGNED_CONTEXT ( ( #317 ) ) GLOBAL_UNIT_ASSIGNED_CONTEXT ( ( #292, #222, #346 ) ) REPRESENTATION_CONTEXT ( 'NONE', 'WORKASPACE' ) );
#50 = AXIS2_PLACEMENT_3D ( 'NONE', #29, #347, #139 ) ;
#51 =( CONVERSION_BASED_UNIT ( 'INCH', #184 ) LENGTH_UNIT ( ) NAMED_UNIT ( #32 ) );
#52 = FILL_AREA_STYLE_COLOUR ( '', #363 ) ;
#53 = CARTESIAN_POINT ( 'NONE',  ( 1.224646799147353700E-16, 2.000000000000000000, 0.000000000000000000 ) ) ;
#54 = ADVANCED_FACE ( 'NONE', ( #194 ), #26, .T. ) ;
#55 = PRESENTATION_LAYER_ASSIGNMENT (  '', '', ( #105 ) ) ;
#56 = CARTESIAN_POINT ( 'NONE',  ( 0.000000000000000000, 0.1562500000000000278, 0.000000000000000000 ) ) ;
#57 = ORIENTED_EDGE ( 'NONE', *, *, #344, .F. ) ;
#58 = MECHANICAL_DESIGN_GEOMETRIC_PRESENTATION_REPRESENTATION (  '', ( #105 ), #249 ) ;
#59 = STYLED_ITEM ( 'NONE', ( #247 ), #254 ) ;
#60 = DIRECTION ( 'NONE',  ( 1.224646799147353207E-16, -0.000000000000000000, 1.000000000000000000 ) ) ;
#61 = CYLINDRICAL_SURFACE ( 'NONE', #332, 0.1562500000000000000 ) ;
#62 =( LENGTH_UNIT ( ) NAMED_UNIT ( * ) SI_UNIT ( $, .METRE. ) );
#63 = ORIENTED_EDGE ( 'NONE', *, *, #206, .T. ) ;
#64 = DIRECTION ( 'NONE',  ( 0.000000000000000000, 1.000000000000000000, 0.000000000000000000 ) ) ;
#65 = ORIENTED_EDGE ( 'NONE', *, *, #313, .T. ) ;
#66 = ORIENTED_EDGE ( 'NONE', *, *, #246, .T. ) ;
#67 = CIRCLE ( 'NONE', #93, 0.1562499999999998335 ) ;
#68 = CARTESIAN_POINT ( 'NONE',  ( 3.082204646329958964E-16, 0.5000000000000001110, 0.000000000000000000 ) ) ;
#69 =( CONVERSION_BASED_UNIT ( 'INCH', #125 ) LENGTH_UNIT ( ) NAMED_UNIT ( #284 ) );
#70 = CARTESIAN_POINT ( 'NONE',  ( 1.224646799147353700E-16, 2.000000000000000000, 0.000000000000000000 ) ) ;
#71 = ORIENTED_EDGE ( 'NONE', *, *, #7, .F. ) ;
#72 =( NAMED_UNIT ( * ) SI_UNIT ( $, .STERADIAN. ) SOLID_ANGLE_UNIT ( ) );
#73 = AXIS2_PLACEMENT_3D ( 'NONE', #18, #337, #80 ) ;
#74 = VERTEX_POINT ( 'NONE', #12 ) ;
#75 = CARTESIAN_POINT ( 'NONE',  ( -1.913510623667739463E-17, 0.1562500000000000000, 0.000000000000000000 ) ) ;
#76 = FILL_AREA_STYLE ('',( #52 ) ) ;
#77 = ADVANCED_FACE ( 'NONE', ( #298 ), #335, .T. ) ;
#78 = FILL_AREA_STYLE_COLOUR ( '', #163 ) ;
#79 = EDGE_CURVE ( 'NONE', #195, #299, #22, .T. ) ;
#80 = DIRECTION ( 'NONE',  ( 0.000000000000000000, 0.000000000000000000, -1.000000000000000000 ) ) ;
#81 = PLANE ( 'NONE',  #15 ) ;
#82 = PRESENTATION_LAYER_ASSIGNMENT (  '', '', ( #208 ) ) ;
#83 = STYLED_ITEM ( 'NONE', ( #336 ), #185 ) ;
#84 = DIMENSIONAL_EXPONENTS ( 1.000000000000000000, 0.000000000000000000, 0.000000000000000000, 0.000000000000000000, 0.000000000000000000, 0.000000000000000000, 0.000000000000000000 ) ;
#85 = LENGTH_MEASURE_WITH_UNIT ( LENGTH_MEASURE( 0.02539999999999999897 ), #334 );
#86 = DIRECTION ( 'NONE',  ( 1.000000000000000000, 0.000000000000000000, 0.000000000000000000 ) ) ;
#87 = SURFACE_STYLE_FILL_AREA ( #310 ) ;
#88 = MECHANICAL_DESIGN_GEOMETRIC_PRESENTATION_REPRESENTATION (  '', ( #190 ), #351 ) ;
#89 = DIRECTION ( 'NONE',  ( -0.000000000000000000, -1.000000000000000000, -0.000000000000000000 ) ) ;
#90 = FILL_AREA_STYLE ('',( #138 ) ) ;
#91 = ORIENTED_EDGE ( 'NONE', *, *, #267, .T. ) ;
#92 = SURFACE_STYLE_USAGE ( .BOTH. , #233 ) ;
#93 = AXIS2_PLACEMENT_3D ( 'NONE', #271, #44, #269 ) ;
#94 = APPLICATION_CONTEXT ( 'automotive_design' ) ;
#95 = DIRECTION ( 'NONE',  ( 0.000000000000000000, 0.000000000000000000, -1.000000000000000000 ) ) ;
#96 = SURFACE_STYLE_USAGE ( .BOTH. , #372 ) ;
#97 =( LENGTH_UNIT ( ) NAMED_UNIT ( * ) SI_UNIT ( $, .METRE. ) );
#98 = ORIENTED_EDGE ( 'NONE', *, *, #7, .T. ) ;
#99 = CIRCLE ( 'NONE', #113, 0.1562499999999996669 ) ;
#100 = DIRECTION ( 'NONE',  ( -1.238371898121736924E-16, 1.000000000000000000, -0.000000000000000000 ) ) ;
#101 = FILL_AREA_STYLE_COLOUR ( '', #352 ) ;
#102 = PRESENTATION_STYLE_ASSIGNMENT (( #251 ) ) ;
#103 = PRESENTATION_STYLE_ASSIGNMENT (( #312 ) ) ;
#104 = DIRECTION ( 'NONE',  ( -1.000000000000000000, 0.000000000000000000, 0.000000000000000000 ) ) ;
#105 = STYLED_ITEM ( 'NONE', ( #117 ), #54 ) ;
#106 = PRESENTATION_LAYER_ASSIGNMENT (  '', '', ( #333 ) ) ;
#107 = DIRECTION ( 'NONE',  ( -0.000000000000000000, -1.000000000000000000, -0.000000000000000000 ) ) ;
#108 =( LENGTH_UNIT ( ) NAMED_UNIT ( * ) SI_UNIT ( $, .METRE. ) );
#109 = DIRECTION ( 'NONE',  ( -0.000000000000000000, -1.000000000000000000, -0.000000000000000000 ) ) ;
#110 = DIRECTION ( 'NONE',  ( -0.000000000000000000, -1.000000000000000000, -0.000000000000000000 ) ) ;
#111 = PRESENTATION_LAYER_ASSIGNMENT (  '', '', ( #37 ) ) ;
#112 = CIRCLE ( 'NONE', #155, 0.1562499999999998335 ) ;
#113 = AXIS2_PLACEMENT_3D ( 'NONE', #68, #152, #240 ) ;
#114 = DIRECTION ( 'NONE',  ( 0.000000000000000000, 0.000000000000000000, -1.000000000000000000 ) ) ;
#115 = VERTEX_POINT ( 'NONE', #19 ) ;
#116 = VERTEX_POINT ( 'NONE', #338 ) ;
#117 = PRESENTATION_STYLE_ASSIGNMENT (( #241 ) ) ;
#118 = EDGE_LOOP ( 'NONE', ( #63, #373 ) ) ;
#119 = ADVANCED_FACE ( 'NONE', ( #162 ), #81, .F. ) ;
#120 = AXIS2_PLACEMENT_3D ( 'NONE', #56, #89, #95 ) ;
#121 = EDGE_LOOP ( 'NONE', ( #98, #122, #260, #65 ) ) ;
#122 = ORIENTED_EDGE ( 'NONE', *, *, #344, .T. ) ;
#123 = VECTOR ( 'NONE', #100, 39.37007874015748143 ) ;
#124 = DIRECTION ( 'NONE',  ( -1.000000000000000000, 0.000000000000000000, 0.000000000000000000 ) ) ;
#125 = LENGTH_MEASURE_WITH_UNIT ( LENGTH_MEASURE( 0.02539999999999999897 ), #45 );
#126 =( NAMED_UNIT ( * ) PLANE_ANGLE_UNIT ( ) SI_UNIT ( $, .RADIAN. ) );
#127 = EDGE_CURVE ( 'NONE', #115, #116, #112, .T. ) ;
#128 = SURFACE_STYLE_FILL_AREA ( #76 ) ;
#129 = CLOSED_SHELL ( 'NONE', ( #176, #39, #54, #185, #77 ) ) ;
#130 = PRODUCT_DEFINITION_SHAPE ( 'NONE', 'NONE',  #367 ) ;
#131 = SURFACE_SIDE_STYLE ('',( #87 ) ) ;
#132 = SPHERICAL_SURFACE ( 'NONE', #136, 0.1562500000000000000 ) ;
#133 = DIRECTION ( 'NONE',  ( -1.000000000000000000, 0.000000000000000000, 0.000000000000000000 ) ) ;
#134 = FILL_AREA_STYLE_COLOUR ( '', #182 ) ;
#135 = EDGE_CURVE ( 'NONE', #74, #31, #278, .T. ) ;
#136 = AXIS2_PLACEMENT_3D ( 'NONE', #14, #365, #248 ) ;
#137 = LINE ( 'NONE', #160, #324 ) ;
#138 = FILL_AREA_STYLE_COLOUR ( '', #8 ) ;
#139 = DIRECTION ( 'NONE',  ( 1.000000000000000000, 0.000000000000000000, 0.000000000000000000 ) ) ;
#140 = EDGE_CURVE ( 'NONE', #195, #230, #137, .T. ) ;
#141 = CYLINDRICAL_SURFACE ( 'NONE', #326, 0.1562499999999997224 ) ;
#142 = VERTEX_POINT ( 'NONE', #362 ) ;
#143 = UNCERTAINTY_MEASURE_WITH_UNIT (LENGTH_MEASURE( 1.000000000000000082E-05 ), #51, 'distance_accuracy_value', 'NONE');
#144 = DIRECTION ( 'NONE',  ( -1.000000000000000000, 0.000000000000000000, 0.000000000000000000 ) ) ;
#145 = CARTESIAN_POINT ( 'NONE',  ( 0.000000000000000000, 0.000000000000000000, 0.000000000000000000 ) ) ;
#146 = FILL_AREA_STYLE ('',( #101 ) ) ;
#147 = DIRECTION ( 'NONE',  ( 0.000000000000000000, 0.000000000000000000, -1.000000000000000000 ) ) ;
#148 = MECHANICAL_DESIGN_GEOMETRIC_PRESENTATION_REPRESENTATION (  '', ( #83 ), #38 ) ;
#149 = CARTESIAN_POINT ( 'NONE',  ( 0.000000000000000000, 0.000000000000000000, -0.1562500000000000000 ) ) ;
#150 = DIRECTION ( 'NONE',  ( -0.000000000000000000, -1.000000000000000000, -0.000000000000000000 ) ) ;
#151 =( LENGTH_UNIT ( ) NAMED_UNIT ( * ) SI_UNIT ( $, .METRE. ) );
#152 = DIRECTION ( 'NONE',  ( -1.238371898121736924E-16, 1.000000000000000000, -0.000000000000000000 ) ) ;
#153 = ORIENTED_EDGE ( 'NONE', *, *, #135, .T. ) ;
#154 = DIRECTION ( 'NONE',  ( 0.000000000000000000, 0.000000000000000000, -1.000000000000000000 ) ) ;
#155 = AXIS2_PLACEMENT_3D ( 'NONE', #53, #360, #21 ) ;
#156 = MECHANICAL_DESIGN_GEOMETRIC_PRESENTATION_REPRESENTATION (  '', ( #333 ), #3 ) ;
#157 =( LENGTH_UNIT ( ) NAMED_UNIT ( * ) SI_UNIT ( $, .METRE. ) );
#158 = ORIENTED_EDGE ( 'NONE', *, *, #274, .F. ) ;
#159 = CARTESIAN_POINT ( 'NONE',  ( 3.082204646329958964E-16, 0.5000000000000001110, 0.000000000000000000 ) ) ;
#160 = CARTESIAN_POINT ( 'NONE',  ( 1.913510623667739463E-17, 0.000000000000000000, 0.1562500000000000000 ) ) ;
#161 = ORIENTED_EDGE ( 'NONE', *, *, #79, .T. ) ;
#162 = FACE_OUTER_BOUND ( 'NONE', #118, .T. ) ;
#163 = COLOUR_RGB ( '',1.000000000000000000, 0.000000000000000000, 0.000000000000000000 ) ;
#164 = CARTESIAN_POINT ( 'NONE',  ( 1.224646799147353700E-16, 2.000000000000000000, 0.000000000000000000 ) ) ;
#165 = ORIENTED_EDGE ( 'NONE', *, *, #79, .F. ) ;
#166 = CIRCLE ( 'NONE', #283, 0.1562500000000000000 ) ;
#167 = AXIS2_PLACEMENT_3D ( 'NONE', #178, #150, #5 ) ;
#168 = SURFACE_STYLE_FILL_AREA ( #2 ) ;
#169 = UNCERTAINTY_MEASURE_WITH_UNIT (LENGTH_MEASURE( 1.000000000000000082E-05 ), #253, 'distance_accuracy_value', 'NONE');
#170 = ORIENTED_EDGE ( 'NONE', *, *, #127, .F. ) ;
#171 = SURFACE_SIDE_STYLE ('',( #303 ) ) ;
#172 = AXIS2_PLACEMENT_3D ( 'NONE', #9, #107, #24 ) ;
#173 = ORIENTED_EDGE ( 'NONE', *, *, #207, .T. ) ;
#174 = VECTOR ( 'NONE', #328, 39.37007874015748143 ) ;
#175 = DIRECTION ( 'NONE',  ( -1.238371898121736924E-16, 1.000000000000000000, -0.000000000000000000 ) ) ;
#176 = ADVANCED_FACE ( 'NONE', ( #364 ), #132, .T. ) ;
#177 = COLOUR_RGB ( '',1.000000000000000000, 0.000000000000000000, 0.000000000000000000 ) ;
#178 = CARTESIAN_POINT ( 'NONE',  ( 0.000000000000000000, 0.1562500000000000278, 0.000000000000000000 ) ) ;
#179 = PRODUCT_RELATED_PRODUCT_CATEGORY ( 'part', '', ( #325 ) ) ;
#180 = SURFACE_SIDE_STYLE ('',( #366 ) ) ;
#181 = LENGTH_MEASURE_WITH_UNIT ( LENGTH_MEASURE( 0.02539999999999999897 ), #212 );
#182 = COLOUR_RGB ( '',1.000000000000000000, 0.000000000000000000, 0.000000000000000000 ) ;
#183 = CIRCLE ( 'NONE', #290, 0.1562500000000000000 ) ;
#184 = LENGTH_MEASURE_WITH_UNIT ( LENGTH_MEASURE( 0.02539999999999999897 ), #157 );
#185 = ADVANCED_FACE ( 'NONE', ( #245 ), #218, .T. ) ;
#186 =( NAMED_UNIT ( * ) PLANE_ANGLE_UNIT ( ) SI_UNIT ( $, .RADIAN. ) );
#187 =( CONVERSION_BASED_UNIT ( 'INCH', #311 ) LENGTH_UNIT ( ) NAMED_UNIT ( #84 ) );
#188 = SURFACE_STYLE_FILL_AREA ( #215 ) ;
#189 = ADVANCED_FACE ( 'NONE', ( #193 ), #11, .T. ) ;
#190 = STYLED_ITEM ( 'NONE', ( #199 ), #77 ) ;
#191 =( GEOMETRIC_REPRESENTATION_CONTEXT ( 3 ) GLOBAL_UNCERTAINTY_ASSIGNED_CONTEXT ( ( #321 ) ) GLOBAL_UNIT_ASSIGNED_CONTEXT ( ( #187, #342, #308 ) ) REPRESENTATION_CONTEXT ( 'NONE', 'WORKASPACE' ) );
#192 = LENGTH_MEASURE_WITH_UNIT ( LENGTH_MEASURE( 0.02539999999999999897 ), #62 );
#193 = FACE_OUTER_BOUND ( 'NONE', #294, .T. ) ;
#194 = FACE_OUTER_BOUND ( 'NONE', #228, .T. ) ;
#195 = VERTEX_POINT ( 'NONE', #300 ) ;
#196 = DIMENSIONAL_EXPONENTS ( 1.000000000000000000, 0.000000000000000000, 0.000000000000000000, 0.000000000000000000, 0.000000000000000000, 0.000000000000000000, 0.000000000000000000 ) ;
#197 = CARTESIAN_POINT ( 'NONE',  ( 0.000000000000000000, 0.5000000000000000000, -0.1562499999999999722 ) ) ;
#198 = ORIENTED_EDGE ( 'NONE', *, *, #216, .T. ) ;
#199 = PRESENTATION_STYLE_ASSIGNMENT (( #92 ) ) ;
#200 = EDGE_CURVE ( 'NONE', #299, #210, #41, .T. ) ;
#201 = DIRECTION ( 'NONE',  ( 1.000000000000000000, 0.000000000000000000, -1.224646799147353207E-16 ) ) ;
#202 = FILL_AREA_STYLE_COLOUR ( '', #177 ) ;
#203 = CARTESIAN_POINT ( 'NONE',  ( -0.1562499999999995837, 2.000000000000000000, 0.000000000000000000 ) ) ;
#204 = ORIENTED_EDGE ( 'NONE', *, *, #226, .F. ) ;
#205 = ORIENTED_EDGE ( 'NONE', *, *, #6, .F. ) ;
#206 = EDGE_CURVE ( 'NONE', #116, #115, #67, .T. ) ;
#207 = EDGE_CURVE ( 'NONE', #4, #116, #355, .T. ) ;
#208 = STYLED_ITEM ( 'NONE', ( #102 ), #176 ) ;
#209 =( GEOMETRIC_REPRESENTATION_CONTEXT ( 3 ) GLOBAL_UNCERTAINTY_ASSIGNED_CONTEXT ( ( #169 ) ) GLOBAL_UNIT_ASSIGNED_CONTEXT ( ( #253, #217, #286 ) ) REPRESENTATION_CONTEXT ( 'NONE', 'WORKASPACE' ) );
#210 = VERTEX_POINT ( 'NONE', #270 ) ;
#211 =( NAMED_UNIT ( * ) PLANE_ANGLE_UNIT ( ) SI_UNIT ( $, .RADIAN. ) );
#212 =( LENGTH_UNIT ( ) NAMED_UNIT ( * ) SI_UNIT ( $, .METRE. ) );
#213 = SURFACE_STYLE_USAGE ( .BOTH. , #131 ) ;
#214 =( NAMED_UNIT ( * ) PLANE_ANGLE_UNIT ( ) SI_UNIT ( $, .RADIAN. ) );
#215 = FILL_AREA_STYLE ('',( #134 ) ) ;
#216 = EDGE_CURVE ( 'NONE', #210, #74, #28, .T. ) ;
#217 =( NAMED_UNIT ( * ) PLANE_ANGLE_UNIT ( ) SI_UNIT ( $, .RADIAN. ) );
#218 = CYLINDRICAL_SURFACE ( 'NONE', #221, 0.1562500000000000000 ) ;
#219 = DIMENSIONAL_EXPONENTS ( 1.000000000000000000, 0.000000000000000000, 0.000000000000000000, 0.000000000000000000, 0.000000000000000000, 0.000000000000000000, 0.000000000000000000 ) ;
#220 = PLANE ( 'NONE',  #353 ) ;
#221 = AXIS2_PLACEMENT_3D ( 'NONE', #145, #110, #231 ) ;
#222 =( NAMED_UNIT ( * ) PLANE_ANGLE_UNIT ( ) SI_UNIT ( $, .RADIAN. ) );
#223 = DIRECTION ( 'NONE',  ( -1.238371898121736924E-16, 1.000000000000000000, -0.000000000000000000 ) ) ;
#224 = ORIENTED_EDGE ( 'NONE', *, *, #274, .T. ) ;
#225 = ORIENTED_EDGE ( 'NONE', *, *, #267, .F. ) ;
#226 = EDGE_CURVE ( 'NONE', #142, #115, #236, .T. ) ;
#227 = UNCERTAINTY_MEASURE_WITH_UNIT (LENGTH_MEASURE( 1.000000000000000082E-05 ), #305, 'distance_accuracy_value', 'NONE');
#228 = EDGE_LOOP ( 'NONE', ( #205, #165 ) ) ;
#229 = DIRECTION ( 'NONE',  ( -1.000000000000000000, -1.238371898121736924E-16, 0.000000000000000000 ) ) ;
#230 = VERTEX_POINT ( 'NONE', #330 ) ;
#231 = DIRECTION ( 'NONE',  ( 0.000000000000000000, 0.000000000000000000, -1.000000000000000000 ) ) ;
#232 = MECHANICAL_DESIGN_GEOMETRIC_PRESENTATION_REPRESENTATION (  '', ( #37 ), #49 ) ;
#233 = SURFACE_SIDE_STYLE ('',( #1 ) ) ;
#234 = PRESENTATION_STYLE_ASSIGNMENT (( #96 ) ) ;
#235 = ORIENTED_EDGE ( 'NONE', *, *, #206, .F. ) ;
#236 = LINE ( 'NONE', #237, #123 ) ;
#237 = CARTESIAN_POINT ( 'NONE',  ( 0.1562499999999998612, 2.000000000000000000, 1.913510623667736074E-17 ) ) ;
#238 = AXIS2_PLACEMENT_3D ( 'NONE', #75, #281, #86 ) ;
#239 = MECHANICAL_DESIGN_GEOMETRIC_PRESENTATION_REPRESENTATION (  '', ( #59 ), #244 ) ;
#240 = DIRECTION ( 'NONE',  ( -1.000000000000000000, 0.000000000000000000, 0.000000000000000000 ) ) ;
#241 = SURFACE_STYLE_USAGE ( .BOTH. , #180 ) ;
#242 = DIRECTION ( 'NONE',  ( -1.238371898121736924E-16, 1.000000000000000000, -0.000000000000000000 ) ) ;
#243 = SURFACE_STYLE_USAGE ( .BOTH. , #171 ) ;
#244 =( GEOMETRIC_REPRESENTATION_CONTEXT ( 3 ) GLOBAL_UNCERTAINTY_ASSIGNED_CONTEXT ( ( #227 ) ) GLOBAL_UNIT_ASSIGNED_CONTEXT ( ( #305, #214, #307 ) ) REPRESENTATION_CONTEXT ( 'NONE', 'WORKASPACE' ) );
#245 = FACE_OUTER_BOUND ( 'NONE', #48, .T. ) ;
#246 = EDGE_CURVE ( 'NONE', #4, #142, #99, .T. ) ;
#247 = PRESENTATION_STYLE_ASSIGNMENT (( #243 ) ) ;
#248 = DIRECTION ( 'NONE',  ( 1.000000000000000000, 0.000000000000000000, 0.000000000000000000 ) ) ;
#249 =( GEOMETRIC_REPRESENTATION_CONTEXT ( 3 ) GLOBAL_UNCERTAINTY_ASSIGNED_CONTEXT ( ( #273 ) ) GLOBAL_UNIT_ASSIGNED_CONTEXT ( ( #331, #211, #72 ) ) REPRESENTATION_CONTEXT ( 'NONE', 'WORKASPACE' ) );
#250 = CIRCLE ( 'NONE', #73, 0.1562500000000000000 ) ;
#251 = SURFACE_STYLE_USAGE ( .BOTH. , #255 ) ;
#252 = DIMENSIONAL_EXPONENTS ( 1.000000000000000000, 0.000000000000000000, 0.000000000000000000, 0.000000000000000000, 0.000000000000000000, 0.000000000000000000, 0.000000000000000000 ) ;
#253 =( CONVERSION_BASED_UNIT ( 'INCH', #192 ) LENGTH_UNIT ( ) NAMED_UNIT ( #35 ) );
#254 = MANIFOLD_SOLID_BREP ( 'Revolve - Cutting Edge', #129 ) ;
#255 = SURFACE_SIDE_STYLE ('',( #188 ) ) ;
#256 = PRODUCT_CONTEXT ( 'NONE', #42, 'mechanical' ) ;
#257 =( NAMED_UNIT ( * ) PLANE_ANGLE_UNIT ( ) SI_UNIT ( $, .RADIAN. ) );
#258 = APPLICATION_PROTOCOL_DEFINITION ( 'draft international standard', 'automotive_design', 1998, #94 ) ;
#259 = CARTESIAN_POINT ( 'NONE',  ( 0.000000000000000000, 0.1562500000000000278, 0.000000000000000000 ) ) ;
#260 = ORIENTED_EDGE ( 'NONE', *, *, #135, .F. ) ;
#261 = CARTESIAN_POINT ( 'NONE',  ( 3.082204646329958964E-16, 0.5000000000000000000, 0.000000000000000000 ) ) ;
#262 = ORIENTED_EDGE ( 'NONE', *, *, #313, .F. ) ;
#263 = MANIFOLD_SOLID_BREP ( 'Revolve - Tool Body (Straight Shanked)', #27 ) ;
#264 =( NAMED_UNIT ( * ) SI_UNIT ( $, .STERADIAN. ) SOLID_ANGLE_UNIT ( ) );
#265 = DIMENSIONAL_EXPONENTS ( 1.000000000000000000, 0.000000000000000000, 0.000000000000000000, 0.000000000000000000, 0.000000000000000000, 0.000000000000000000, 0.000000000000000000 ) ;
#266 = EDGE_LOOP ( 'NONE', ( #289, #296, #262, #361, #30 ) ) ;
#267 = EDGE_CURVE ( 'NONE', #322, #210, #250, .T. ) ;
#268 = ORIENTED_EDGE ( 'NONE', *, *, #207, .F. ) ;
#269 = DIRECTION ( 'NONE',  ( -1.000000000000000000, 0.000000000000000000, 0.000000000000000000 ) ) ;
#270 = CARTESIAN_POINT ( 'NONE',  ( 0.000000000000000000, 0.1562500000000000278, -0.1562500000000000000 ) ) ;
#271 = CARTESIAN_POINT ( 'NONE',  ( 1.224646799147353700E-16, 2.000000000000000000, 0.000000000000000000 ) ) ;
#272 = VECTOR ( 'NONE', #242, 39.37007874015748143 ) ;
#273 = UNCERTAINTY_MEASURE_WITH_UNIT (LENGTH_MEASURE( 1.000000000000000082E-05 ), #331, 'distance_accuracy_value', 'NONE');
#274 = EDGE_CURVE ( 'NONE', #142, #4, #16, .T. ) ;
#275 = DIRECTION ( 'NONE',  ( 0.000000000000000000, -0.000000000000000000, 1.000000000000000000 ) ) ;
#276 = ADVANCED_BREP_SHAPE_REPRESENTATION ( '83287', ( #254, #263, #50 ), #209 ) ;
#277 = ADVANCED_FACE ( 'NONE', ( #341 ), #220, .F. ) ;
#278 = CIRCLE ( 'NONE', #309, 0.1562500000000000000 ) ;
#279 =( CONVERSION_BASED_UNIT ( 'INCH', #181 ) LENGTH_UNIT ( ) NAMED_UNIT ( #196 ) );
#280 = DIRECTION ( 'NONE',  ( -1.238371898121736924E-16, 1.000000000000000000, -0.000000000000000000 ) ) ;
#281 = DIRECTION ( 'NONE',  ( 0.000000000000000000, 0.000000000000000000, 1.000000000000000000 ) ) ;
#282 = DIRECTION ( 'NONE',  ( 1.000000000000000000, 1.238371898121736924E-16, 0.000000000000000000 ) ) ;
#283 = AXIS2_PLACEMENT_3D ( 'NONE', #259, #350, #370 ) ;
#284 = DIMENSIONAL_EXPONENTS ( 1.000000000000000000, 0.000000000000000000, 0.000000000000000000, 0.000000000000000000, 0.000000000000000000, 0.000000000000000000, 0.000000000000000000 ) ;
#285 = AXIS2_PLACEMENT_3D ( 'NONE', #159, #280, #133 ) ;
#286 =( NAMED_UNIT ( * ) SI_UNIT ( $, .STERADIAN. ) SOLID_ANGLE_UNIT ( ) );
#287 = APPLICATION_PROTOCOL_DEFINITION ( 'draft international standard', 'automotive_design', 1998, #42 ) ;
#288 = CARTESIAN_POINT ( 'NONE',  ( 0.000000000000000000, 0.000000000000000000, 0.000000000000000000 ) ) ;
#289 = ORIENTED_EDGE ( 'NONE', *, *, #6, .T. ) ;
#290 = AXIS2_PLACEMENT_3D ( 'NONE', #343, #60, #201 ) ;
#291 = ORIENTED_EDGE ( 'NONE', *, *, #226, .T. ) ;
#292 =( CONVERSION_BASED_UNIT ( 'INCH', #25 ) LENGTH_UNIT ( ) NAMED_UNIT ( #252 ) );
#293 = UNCERTAINTY_MEASURE_WITH_UNIT (LENGTH_MEASURE( 1.000000000000000082E-05 ), #69, 'distance_accuracy_value', 'NONE');
#294 = EDGE_LOOP ( 'NONE', ( #204, #224, #173, #170 ) ) ;
#295 =( NAMED_UNIT ( * ) SI_UNIT ( $, .STERADIAN. ) SOLID_ANGLE_UNIT ( ) );
#296 = ORIENTED_EDGE ( 'NONE', *, *, #140, .T. ) ;
#297 = DIRECTION ( 'NONE',  ( -0.000000000000000000, -1.000000000000000000, -0.000000000000000000 ) ) ;
#298 = FACE_OUTER_BOUND ( 'NONE', #320, .T. ) ;
#299 = VERTEX_POINT ( 'NONE', #197 ) ;
#300 = CARTESIAN_POINT ( 'NONE',  ( 1.913510623667738847E-17, 0.5000000000000000000, 0.1562499999999999722 ) ) ;
#301 = FACE_OUTER_BOUND ( 'NONE', #266, .T. ) ;
#302 = PRESENTATION_LAYER_ASSIGNMENT (  '', '', ( #190 ) ) ;
#303 = SURFACE_STYLE_FILL_AREA ( #13 ) ;
#304 = EDGE_LOOP ( 'NONE', ( #66, #291, #235, #268 ) ) ;
#305 =( CONVERSION_BASED_UNIT ( 'INCH', #85 ) LENGTH_UNIT ( ) NAMED_UNIT ( #265 ) );
#306 = DIRECTION ( 'NONE',  ( 1.238371898121736924E-16, -1.000000000000000000, 0.000000000000000000 ) ) ;
#307 =( NAMED_UNIT ( * ) SI_UNIT ( $, .STERADIAN. ) SOLID_ANGLE_UNIT ( ) );
#308 =( NAMED_UNIT ( * ) SI_UNIT ( $, .STERADIAN. ) SOLID_ANGLE_UNIT ( ) );
#309 = AXIS2_PLACEMENT_3D ( 'NONE', #17, #154, #104 ) ;
#310 = FILL_AREA_STYLE ('',( #78 ) ) ;
#311 = LENGTH_MEASURE_WITH_UNIT ( LENGTH_MEASURE( 0.02539999999999999897 ), #108 );
#312 = SURFACE_STYLE_USAGE ( .BOTH. , #20 ) ;
#313 = EDGE_CURVE ( 'NONE', #74, #230, #327, .T. ) ;
#314 = DIRECTION ( 'NONE',  ( -1.238371898121736924E-16, 1.000000000000000000, 0.000000000000000000 ) ) ;
#315 = PRODUCT_DEFINITION_FORMATION_WITH_SPECIFIED_SOURCE ( 'ANY', '', #325, .NOT_KNOWN. ) ;
#316 = ADVANCED_FACE ( 'NONE', ( #318 ), #141, .T. ) ;
#317 = UNCERTAINTY_MEASURE_WITH_UNIT (LENGTH_MEASURE( 1.000000000000000082E-05 ), #292, 'distance_accuracy_value', 'NONE');
#318 = FACE_OUTER_BOUND ( 'NONE', #304, .T. ) ;
#319 = CARTESIAN_POINT ( 'NONE',  ( -9.567553118338697316E-18, 0.000000000000000000, 0.000000000000000000 ) ) ;
#320 = EDGE_LOOP ( 'NONE', ( #57, #91, #198, #153 ) ) ;
#321 = UNCERTAINTY_MEASURE_WITH_UNIT (LENGTH_MEASURE( 1.000000000000000082E-05 ), #187, 'distance_accuracy_value', 'NONE');
#322 = VERTEX_POINT ( 'NONE', #345 ) ;
#323 = CARTESIAN_POINT ( 'NONE',  ( -0.1562499999999993616, 0.5000000000000001110, 0.000000000000000000 ) ) ;
#324 = VECTOR ( 'NONE', #359, 39.37007874015748143 ) ;
#325 = PRODUCT ( '83287', '83287', '', ( #256 ) ) ;
#326 = AXIS2_PLACEMENT_3D ( 'NONE', #164, #223, #144 ) ;
#327 = CIRCLE ( 'NONE', #120, 0.1562500000000000000 ) ;
#328 = DIRECTION ( 'NONE',  ( -0.000000000000000000, -1.000000000000000000, -0.000000000000000000 ) ) ;
#329 = FILL_AREA_STYLE_COLOUR ( '', #23 ) ;
#330 = CARTESIAN_POINT ( 'NONE',  ( 1.913510623667739463E-17, 0.1562500000000000278, 0.1562500000000000000 ) ) ;
#331 =( CONVERSION_BASED_UNIT ( 'INCH', #36 ) LENGTH_UNIT ( ) NAMED_UNIT ( #219 ) );
#332 = AXIS2_PLACEMENT_3D ( 'NONE', #288, #109, #114 ) ;
#333 = STYLED_ITEM ( 'NONE', ( #103 ), #263 ) ;
#334 =( LENGTH_UNIT ( ) NAMED_UNIT ( * ) SI_UNIT ( $, .METRE. ) );
#335 = SPHERICAL_SURFACE ( 'NONE', #238, 0.1562500000000000000 ) ;
#336 = PRESENTATION_STYLE_ASSIGNMENT (( #213 ) ) ;
#337 = DIRECTION ( 'NONE',  ( -0.000000000000000000, -1.000000000000000000, -0.000000000000000000 ) ) ;
#338 = CARTESIAN_POINT ( 'NONE',  ( -0.1562499999999996947, 2.000000000000000000, 0.000000000000000000 ) ) ;
#339 = CIRCLE ( 'NONE', #368, 0.1562499999999999722 ) ;
#340 = PRESENTATION_LAYER_ASSIGNMENT (  '', '', ( #83 ) ) ;
#341 = FACE_OUTER_BOUND ( 'NONE', #33, .T. ) ;
#342 =( NAMED_UNIT ( * ) PLANE_ANGLE_UNIT ( ) SI_UNIT ( $, .RADIAN. ) );
#343 = CARTESIAN_POINT ( 'NONE',  ( -1.913510623667739463E-17, 0.1562500000000000000, 0.000000000000000000 ) ) ;
#344 = EDGE_CURVE ( 'NONE', #322, #31, #183, .T. ) ;
#345 = CARTESIAN_POINT ( 'NONE',  ( -0.1562500000000000000, 0.1562500000000000278, 1.913510623667738847E-17 ) ) ;
#346 =( NAMED_UNIT ( * ) SI_UNIT ( $, .STERADIAN. ) SOLID_ANGLE_UNIT ( ) );
#347 = DIRECTION ( 'NONE',  ( 0.000000000000000000, 0.000000000000000000, 1.000000000000000000 ) ) ;
#348 = CARTESIAN_POINT ( 'NONE',  ( 0.000000000000000000, 0.5000000000000000000, 0.000000000000000000 ) ) ;
#349 = CARTESIAN_POINT ( 'NONE',  ( 0.000000000000000000, 0.5000000000000000000, 0.000000000000000000 ) ) ;
#350 = DIRECTION ( 'NONE',  ( -0.000000000000000000, -1.000000000000000000, -0.000000000000000000 ) ) ;
#351 =( GEOMETRIC_REPRESENTATION_CONTEXT ( 3 ) GLOBAL_UNCERTAINTY_ASSIGNED_CONTEXT ( ( #293 ) ) GLOBAL_UNIT_ASSIGNED_CONTEXT ( ( #69, #126, #264 ) ) REPRESENTATION_CONTEXT ( 'NONE', 'WORKASPACE' ) );
#352 = COLOUR_RGB ( '',1.000000000000000000, 0.000000000000000000, 0.000000000000000000 ) ;
#353 = AXIS2_PLACEMENT_3D ( 'NONE', #261, #314, #229 ) ;
#354 = ORIENTED_EDGE ( 'NONE', *, *, #140, .F. ) ;
#355 = LINE ( 'NONE', #203, #272 ) ;
#356 = PRODUCT_DEFINITION_CONTEXT ( 'detailed design', #94, 'design' ) ;
#357 = AXIS2_PLACEMENT_3D ( 'NONE', #349, #64, #275 ) ;
#358 = AXIS2_PLACEMENT_3D ( 'NONE', #70, #175, #124 ) ;
#359 = DIRECTION ( 'NONE',  ( -0.000000000000000000, -1.000000000000000000, -0.000000000000000000 ) ) ;
#360 = DIRECTION ( 'NONE',  ( -1.238371898121736924E-16, 1.000000000000000000, -0.000000000000000000 ) ) ;
#361 = ORIENTED_EDGE ( 'NONE', *, *, #216, .F. ) ;
#362 = CARTESIAN_POINT ( 'NONE',  ( 0.1562499999999999722, 0.5000000000000001110, 1.913510623667736382E-17 ) ) ;
#363 = COLOUR_RGB ( '',0.7921568627450980005, 0.8196078431372548767, 0.9333333333333333481 ) ;
#364 = FACE_OUTER_BOUND ( 'NONE', #121, .T. ) ;
#365 = DIRECTION ( 'NONE',  ( 0.000000000000000000, 0.000000000000000000, 1.000000000000000000 ) ) ;
#366 = SURFACE_STYLE_FILL_AREA ( #90 ) ;
#367 = PRODUCT_DEFINITION ( 'UNKNOWN', '', #315, #356 ) ;
#368 = AXIS2_PLACEMENT_3D ( 'NONE', #348, #297, #147 ) ;
#369 = SHAPE_DEFINITION_REPRESENTATION ( #130, #276 ) ;
#370 = DIRECTION ( 'NONE',  ( 0.000000000000000000, 0.000000000000000000, -1.000000000000000000 ) ) ;
#371 = ORIENTED_EDGE ( 'NONE', *, *, #246, .F. ) ;
#372 = SURFACE_SIDE_STYLE ('',( #168 ) ) ;
#373 = ORIENTED_EDGE ( 'NONE', *, *, #127, .T. ) ;
ENDSEC;
END-ISO-10303-21;
