ISO-10303-21;
HEADER;
FILE_DESCRIPTION (( 'STEP AP214' ),
    '1' );
FILE_NAME ('Micro_SBMM-030-221.STEP',
    '2021-09-02T17:06:49',
    ( '' ),
    ( '' ),
    'SwSTEP 2.0',
    'SolidWorks 2020',
    '' );
FILE_SCHEMA (( 'AUTOMOTIVE_DESIGN' ));
ENDSEC;

DATA;
#1 = LINE ( 'NONE', #344, #320 ) ;
#2 = ORIENTED_EDGE ( 'NONE', *, *, #111, .T. ) ;
#3 = AXIS2_PLACEMENT_3D ( 'NONE', #257, #182, #231 ) ;
#4 = DIRECTION ( 'NONE',  ( 1.000000000000000000, 0.0000000000000000000, -0.0000000000000000000 ) ) ;
#5 = VERTEX_POINT ( 'NONE', #84 ) ;
#6 =( NAMED_UNIT ( * ) SI_UNIT ( $, .STERADIAN. ) SOLID_ANGLE_UNIT ( ) );
#7 = ORIENTED_EDGE ( 'NONE', *, *, #338, .T. ) ;
#8 = ORIENTED_EDGE ( 'NONE', *, *, #189, .F. ) ;
#9 = DIRECTION ( 'NONE',  ( 0.7071067811865486830, 8.659560562354947649E-17, -0.7071067811865462405 ) ) ;
#10 = CARTESIAN_POINT ( 'NONE',  ( 0.0000000000000000000, 0.0000000000000000000, 0.1030719981370833843 ) ) ;
#11 = EDGE_LOOP ( 'NONE', ( #294, #218, #207, #345, #8 ) ) ;
#12 = DIRECTION ( 'NONE',  ( 0.0000000000000000000, 0.0000000000000000000, 1.000000000000000000 ) ) ;
#13 = LENGTH_MEASURE_WITH_UNIT ( LENGTH_MEASURE( 0.02539999999999999897 ), #196 );
#14 = ADVANCED_FACE ( 'NONE', ( #180 ), #312, .T. ) ;
#15 = VECTOR ( 'NONE', #263, 39.37007874015748854 ) ;
#16 = AXIS2_PLACEMENT_3D ( 'NONE', #264, #234, #27 ) ;
#17 = PRODUCT_DEFINITION_FORMATION_WITH_SPECIFIED_SOURCE ( 'ANY', '', #81, .NOT_KNOWN. ) ;
#18 = LENGTH_MEASURE_WITH_UNIT ( LENGTH_MEASURE( 0.02539999999999999897 ), #256 );
#19 = FACE_OUTER_BOUND ( 'NONE', #80, .T. ) ;
#20 = FILL_AREA_STYLE ('',( #69 ) ) ;
#21 = SPHERICAL_SURFACE ( 'NONE', #107, 0.05905499999999999639 ) ;
#22 = CLOSED_SHELL ( 'NONE', ( #230, #184, #14, #143, #138, #224, #172, #238, #74, #305, #341 ) ) ;
#23 = AXIS2_PLACEMENT_3D ( 'NONE', #109, #330, #89 ) ;
#24 = CARTESIAN_POINT ( 'NONE',  ( 4.821434448243127714E-18, -0.03936999999999998140, 0.1030719981370833843 ) ) ;
#25 = VERTEX_POINT ( 'NONE', #126 ) ;
#26 = DIRECTION ( 'NONE',  ( -0.0000000000000000000, -0.0000000000000000000, -1.000000000000000000 ) ) ;
#27 = DIRECTION ( 'NONE',  ( 1.000000000000000000, 0.0000000000000000000, 0.0000000000000000000 ) ) ;
#28 = EDGE_CURVE ( 'NONE', #250, #105, #232, .T. ) ;
#29 = DIRECTION ( 'NONE',  ( 0.0000000000000000000, 0.0000000000000000000, 1.000000000000000000 ) ) ;
#30 = ORIENTED_EDGE ( 'NONE', *, *, #32, .F. ) ;
#31 = EDGE_LOOP ( 'NONE', ( #315, #7, #88, #229, #327 ) ) ;
#32 = EDGE_CURVE ( 'NONE', #128, #324, #282, .T. ) ;
#33 = CARTESIAN_POINT ( 'NONE',  ( 0.0000000000000000000, 0.0000000000000000000, 1.692912999999999890 ) ) ;
#34 = MANIFOLD_SOLID_BREP ( 'Cut-Revolve3', #22 ) ;
#35 = EDGE_LOOP ( 'NONE', ( #164, #319, #171, #296 ) ) ;
#36 = CARTESIAN_POINT ( 'NONE',  ( 0.03936999999999993977, 4.821434448243122321E-18, 0.0000000000000000000 ) ) ;
#37 =( NAMED_UNIT ( * ) PLANE_ANGLE_UNIT ( ) SI_UNIT ( $, .RADIAN. ) );
#38 = DIRECTION ( 'NONE',  ( -1.000000000000000000, 0.0000000000000000000, 0.0000000000000000000 ) ) ;
#39 = SURFACE_STYLE_FILL_AREA ( #276 ) ;
#40 = CARTESIAN_POINT ( 'NONE',  ( 0.0000000000000000000, 0.0000000000000000000, 1.822834149999997377 ) ) ;
#41 = APPLICATION_CONTEXT ( 'automotive_design' ) ;
#42 =( NAMED_UNIT ( * ) SI_UNIT ( $, .STERADIAN. ) SOLID_ANGLE_UNIT ( ) );
#43 = AXIS2_PLACEMENT_3D ( 'NONE', #178, #26, #288 ) ;
#44 = AXIS2_PLACEMENT_3D ( 'NONE', #60, #190, #130 ) ;
#45 = DIRECTION ( 'NONE',  ( 0.0000000000000000000, 0.0000000000000000000, 1.000000000000000000 ) ) ;
#46 = CARTESIAN_POINT ( 'NONE',  ( 0.0000000000000000000, 0.0000000000000000000, 2.952755999999999936 ) ) ;
#47 = FACE_OUTER_BOUND ( 'NONE', #310, .T. ) ;
#48 = AXIS2_PLACEMENT_3D ( 'NONE', #70, #50, #4 ) ;
#49 =( GEOMETRIC_REPRESENTATION_CONTEXT ( 3 ) GLOBAL_UNCERTAINTY_ASSIGNED_CONTEXT ( ( #251 ) ) GLOBAL_UNIT_ASSIGNED_CONTEXT ( ( #177, #148, #42 ) ) REPRESENTATION_CONTEXT ( 'NONE', 'WORKASPACE' ) );
#50 = DIRECTION ( 'NONE',  ( 0.0000000000000000000, 0.0000000000000000000, 1.000000000000000000 ) ) ;
#51 = VERTEX_POINT ( 'NONE', #137 ) ;
#52 = EDGE_CURVE ( 'NONE', #51, #128, #326, .T. ) ;
#53 = LINE ( 'NONE', #258, #144 ) ;
#54 = VERTEX_POINT ( 'NONE', #244 ) ;
#55 = APPLICATION_CONTEXT ( 'automotive_design' ) ;
#56 = CYLINDRICAL_SURFACE ( 'NONE', #23, 0.03936999999999993977 ) ;
#57 = CARTESIAN_POINT ( 'NONE',  ( -0.1181100000000000344, 0.0000000000000000000, 2.952755999999999936 ) ) ;
#58 = MECHANICAL_DESIGN_GEOMETRIC_PRESENTATION_REPRESENTATION (  '', ( #98 ), #259 ) ;
#59 = ORIENTED_EDGE ( 'NONE', *, *, #206, .F. ) ;
#60 = CARTESIAN_POINT ( 'NONE',  ( 0.0000000000000000000, 0.0000000000000000000, 0.05905500000000000332 ) ) ;
#61 = EDGE_LOOP ( 'NONE', ( #30, #211, #2, #237 ) ) ;
#62 =( LENGTH_UNIT ( ) NAMED_UNIT ( * ) SI_UNIT ( $, .METRE. ) );
#63 = DIRECTION ( 'NONE',  ( 1.000000000000000000, 0.0000000000000000000, 0.0000000000000000000 ) ) ;
#64 = VECTOR ( 'NONE', #226, 39.37007874015748854 ) ;
#65 = FACE_OUTER_BOUND ( 'NONE', #187, .T. ) ;
#66 = EDGE_CURVE ( 'NONE', #25, #54, #86, .T. ) ;
#67 = AXIS2_PLACEMENT_3D ( 'NONE', #228, #225, #200 ) ;
#68 = COLOUR_RGB ( '',0.7921568627450980005, 0.8196078431372548767, 0.9333333333333333481 ) ;
#69 = FILL_AREA_STYLE_COLOUR ( '', #68 ) ;
#70 = CARTESIAN_POINT ( 'NONE',  ( 0.0000000000000000000, 0.0000000000000000000, 2.952755999999999936 ) ) ;
#71 = APPLICATION_PROTOCOL_DEFINITION ( 'draft international standard', 'automotive_design', 1998, #41 ) ;
#72 = VECTOR ( 'NONE', #9, 39.37007874015748854 ) ;
#73 = CARTESIAN_POINT ( 'NONE',  ( -0.1031099999999991745, 0.0000000000000000000, 2.952755999999999936 ) ) ;
#74 = ADVANCED_FACE ( 'NONE', ( #65 ), #221, .T. ) ;
#75 = CARTESIAN_POINT ( 'NONE',  ( -0.03936999999999998140, 0.0000000000000000000, 0.1030719981370833843 ) ) ;
#76 = DIRECTION ( 'NONE',  ( 1.000000000000000000, 0.0000000000000000000, 0.0000000000000000000 ) ) ;
#77 = EDGE_CURVE ( 'NONE', #325, #324, #277, .T. ) ;
#78 = ORIENTED_EDGE ( 'NONE', *, *, #66, .T. ) ;
#79 = CARTESIAN_POINT ( 'NONE',  ( 0.03936999999999990507, 0.0000000000000000000, 0.8267719999999999514 ) ) ;
#80 = EDGE_LOOP ( 'NONE', ( #183, #78 ) ) ;
#81 = PRODUCT ( 'Micro_SBMM-030-221', 'Micro_SBMM-030-221', '', ( #308 ) ) ;
#82 = CARTESIAN_POINT ( 'NONE',  ( 0.0000000000000000000, 0.0000000000000000000, 2.937755999999999368 ) ) ;
#83 = ORIENTED_EDGE ( 'NONE', *, *, #281, .F. ) ;
#84 = CARTESIAN_POINT ( 'NONE',  ( -0.03936999999999990507, 9.642868896486255427E-18, 0.8267719999999999514 ) ) ;
#85 = AXIS2_PLACEMENT_3D ( 'NONE', #46, #342, #99 ) ;
#86 = CIRCLE ( 'NONE', #169, 0.1031099999999991745 ) ;
#87 = FACE_OUTER_BOUND ( 'NONE', #61, .T. ) ;
#88 = ORIENTED_EDGE ( 'NONE', *, *, #189, .T. ) ;
#89 = DIRECTION ( 'NONE',  ( -1.000000000000000000, 0.0000000000000000000, 0.0000000000000000000 ) ) ;
#90 = CARTESIAN_POINT ( 'NONE',  ( 0.0000000000000000000, 0.0000000000000000000, 2.952755999999999936 ) ) ;
#91 = FILL_AREA_STYLE_COLOUR ( '', #122 ) ;
#92 = EDGE_CURVE ( 'NONE', #325, #51, #336, .T. ) ;
#93 = AXIS2_PLACEMENT_3D ( 'NONE', #260, #205, #173 ) ;
#94 = SURFACE_SIDE_STYLE ('',( #39 ) ) ;
#95 = DIRECTION ( 'NONE',  ( -1.224646799147353207E-16, 1.000000000000000000, 0.0000000000000000000 ) ) ;
#96 = FACE_OUTER_BOUND ( 'NONE', #35, .T. ) ;
#97 = ORIENTED_EDGE ( 'NONE', *, *, #316, .F. ) ;
#98 = STYLED_ITEM ( 'NONE', ( #273 ), #34 ) ;
#99 = DIRECTION ( 'NONE',  ( -1.000000000000000000, 0.0000000000000000000, 0.0000000000000000000 ) ) ;
#100 = FACE_OUTER_BOUND ( 'NONE', #266, .T. ) ;
#101 = ORIENTED_EDGE ( 'NONE', *, *, #175, .F. ) ;
#102 = ORIENTED_EDGE ( 'NONE', *, *, #66, .F. ) ;
#103 = DIRECTION ( 'NONE',  ( 0.0000000000000000000, 1.000000000000000000, 0.0000000000000000000 ) ) ;
#104 = ORIENTED_EDGE ( 'NONE', *, *, #248, .F. ) ;
#105 = VERTEX_POINT ( 'NONE', #249 ) ;
#106 = ORIENTED_EDGE ( 'NONE', *, *, #329, .F. ) ;
#107 = AXIS2_PLACEMENT_3D ( 'NONE', #291, #154, #103 ) ;
#108 = AXIS2_PLACEMENT_3D ( 'NONE', #241, #300, #132 ) ;
#109 = CARTESIAN_POINT ( 'NONE',  ( 0.0000000000000000000, 0.0000000000000000000, 0.0000000000000000000 ) ) ;
#110 = CARTESIAN_POINT ( 'NONE',  ( 0.0000000000000000000, 0.0000000000000000000, 0.1030719981370833843 ) ) ;
#111 = EDGE_CURVE ( 'NONE', #129, #325, #151, .T. ) ;
#112 = DIRECTION ( 'NONE',  ( -1.000000000000000000, 0.0000000000000000000, 0.0000000000000000000 ) ) ;
#113 = PRODUCT_DEFINITION_CONTEXT ( 'detailed design', #41, 'design' ) ;
#114 = AXIS2_PLACEMENT_3D ( 'NONE', #265, #29, #76 ) ;
#115 = CARTESIAN_POINT ( 'NONE',  ( 0.0000000000000000000, 0.0000000000000000000, 0.1030719981370833843 ) ) ;
#116 = PRODUCT_DEFINITION ( 'UNKNOWN', '', #17, #113 ) ;
#117 = CIRCLE ( 'NONE', #108, 0.03936999999999990507 ) ;
#118 = EDGE_CURVE ( 'NONE', #280, #204, #217, .T. ) ;
#119 = CARTESIAN_POINT ( 'NONE',  ( 0.0000000000000000000, 0.0000000000000000000, 0.0000000000000000000 ) ) ;
#120 = FACE_OUTER_BOUND ( 'NONE', #11, .T. ) ;
#121 = DIRECTION ( 'NONE',  ( 1.000000000000000000, 0.0000000000000000000, 0.0000000000000000000 ) ) ;
#122 = COLOUR_RGB ( '',0.7921568627450980005, 0.8196078431372548767, 0.9333333333333333481 ) ;
#123 = CYLINDRICAL_SURFACE ( 'NONE', #3, 0.1181100000000000344 ) ;
#124 = ORIENTED_EDGE ( 'NONE', *, *, #175, .T. ) ;
#125 = DIRECTION ( 'NONE',  ( -0.0000000000000000000, -0.0000000000000000000, -1.000000000000000000 ) ) ;
#126 = CARTESIAN_POINT ( 'NONE',  ( 0.1031099999999991745, 1.354581824536882559E-17, 2.952755999999999936 ) ) ;
#127 = CARTESIAN_POINT ( 'NONE',  ( 0.0000000000000000000, 0.0000000000000000000, 0.1030719981370833843 ) ) ;
#128 = VERTEX_POINT ( 'NONE', #24 ) ;
#129 = VERTEX_POINT ( 'NONE', #75 ) ;
#130 = DIRECTION ( 'NONE',  ( 0.0000000000000000000, 1.000000000000000000, 0.0000000000000000000 ) ) ;
#131 = ORIENTED_EDGE ( 'NONE', *, *, #274, .T. ) ;
#132 = DIRECTION ( 'NONE',  ( -1.000000000000000000, 0.0000000000000000000, 0.0000000000000000000 ) ) ;
#133 =( NAMED_UNIT ( * ) SI_UNIT ( $, .STERADIAN. ) SOLID_ANGLE_UNIT ( ) );
#134 = DIMENSIONAL_EXPONENTS ( 1.000000000000000000, 0.0000000000000000000, 0.0000000000000000000, 0.0000000000000000000, 0.0000000000000000000, 0.0000000000000000000, 0.0000000000000000000 ) ;
#135 = CARTESIAN_POINT ( 'NONE',  ( 0.0000000000000000000, 0.03936999999999998140, 0.1030719981370833843 ) ) ;
#136 = ORIENTED_EDGE ( 'NONE', *, *, #316, .T. ) ;
#137 = CARTESIAN_POINT ( 'NONE',  ( 0.03936999999999998140, 4.821434448243128484E-18, 0.1030719981370833843 ) ) ;
#138 = ADVANCED_FACE ( 'NONE', ( #96 ), #123, .T. ) ;
#139 = DIRECTION ( 'NONE',  ( 1.000000000000000000, 1.224646799147353207E-16, -0.0000000000000000000 ) ) ;
#140 =( CONVERSION_BASED_UNIT ( 'INCH', #13 ) LENGTH_UNIT ( ) NAMED_UNIT ( #134 ) );
#141 = AXIS2_PLACEMENT_3D ( 'NONE', #40, #12, #63 ) ;
#142 = PRESENTATION_STYLE_ASSIGNMENT (( #339 ) ) ;
#143 = ADVANCED_FACE ( 'NONE', ( #340 ), #269, .T. ) ;
#144 = VECTOR ( 'NONE', #202, 39.37007874015748143 ) ;
#145 = EDGE_CURVE ( 'NONE', #149, #204, #1, .T. ) ;
#146 = LINE ( 'NONE', #73, #64 ) ;
#147 = CARTESIAN_POINT ( 'NONE',  ( 0.1181100000000000344, 1.446430334472939084E-17, 2.937755999999999368 ) ) ;
#148 =( NAMED_UNIT ( * ) PLANE_ANGLE_UNIT ( ) SI_UNIT ( $, .RADIAN. ) );
#149 = VERTEX_POINT ( 'NONE', #147 ) ;
#150 = CYLINDRICAL_SURFACE ( 'NONE', #85, 0.1181100000000000344 ) ;
#151 = CIRCLE ( 'NONE', #198, 0.03936999999999998140 ) ;
#152 = CARTESIAN_POINT ( 'NONE',  ( -0.1299209999999997867, 1.591073367920230343E-17, 1.822834149999997377 ) ) ;
#153 = ORIENTED_EDGE ( 'NONE', *, *, #52, .T. ) ;
#154 = DIRECTION ( 'NONE',  ( 1.000000000000000000, 0.0000000000000000000, 0.0000000000000000000 ) ) ;
#155 = ORIENTED_EDGE ( 'NONE', *, *, #28, .T. ) ;
#156 = CARTESIAN_POINT ( 'NONE',  ( 0.1031099999999991745, 1.262733314600825725E-17, 2.952755999999999936 ) ) ;
#157 = CARTESIAN_POINT ( 'NONE',  ( 0.0000000000000000000, 0.0000000000000000000, 0.05905500000000000332 ) ) ;
#158 = VECTOR ( 'NONE', #303, 39.37007874015748854 ) ;
#159 = ORIENTED_EDGE ( 'NONE', *, *, #199, .F. ) ;
#160 = DIMENSIONAL_EXPONENTS ( 1.000000000000000000, 0.0000000000000000000, 0.0000000000000000000, 0.0000000000000000000, 0.0000000000000000000, 0.0000000000000000000, 0.0000000000000000000 ) ;
#161 = FACE_OUTER_BOUND ( 'NONE', #31, .T. ) ;
#162 = DIRECTION ( 'NONE',  ( -1.000000000000000000, 0.0000000000000000000, 0.0000000000000000000 ) ) ;
#163 = CARTESIAN_POINT ( 'NONE',  ( 0.0000000000000000000, 0.0000000000000000000, 0.05905500000000000332 ) ) ;
#164 = ORIENTED_EDGE ( 'NONE', *, *, #302, .T. ) ;
#165 = AXIS2_PLACEMENT_3D ( 'NONE', #317, #284, #318 ) ;
#166 =( GEOMETRIC_REPRESENTATION_CONTEXT ( 3 ) GLOBAL_UNCERTAINTY_ASSIGNED_CONTEXT ( ( #197 ) ) GLOBAL_UNIT_ASSIGNED_CONTEXT ( ( #275, #37, #6 ) ) REPRESENTATION_CONTEXT ( 'NONE', 'WORKASPACE' ) );
#167 = PRODUCT_RELATED_PRODUCT_CATEGORY ( 'part', '', ( #81 ) ) ;
#168 = DIRECTION ( 'NONE',  ( 1.000000000000000000, 0.0000000000000000000, 0.0000000000000000000 ) ) ;
#169 = AXIS2_PLACEMENT_3D ( 'NONE', #90, #247, #168 ) ;
#170 = AXIS2_PLACEMENT_3D ( 'NONE', #185, #293, #192 ) ;
#171 = ORIENTED_EDGE ( 'NONE', *, *, #199, .T. ) ;
#172 = ADVANCED_FACE ( 'NONE', ( #19 ), #313, .T. ) ;
#173 = DIRECTION ( 'NONE',  ( -1.000000000000000000, 0.0000000000000000000, 0.0000000000000000000 ) ) ;
#174 = DIRECTION ( 'NONE',  ( 0.0000000000000000000, 0.0000000000000000000, 1.000000000000000000 ) ) ;
#175 = EDGE_CURVE ( 'NONE', #149, #250, #194, .T. ) ;
#176 = FACE_OUTER_BOUND ( 'NONE', #193, .T. ) ;
#177 =( CONVERSION_BASED_UNIT ( 'INCH', #18 ) LENGTH_UNIT ( ) NAMED_UNIT ( #240 ) );
#178 = CARTESIAN_POINT ( 'NONE',  ( 0.0000000000000000000, 0.0000000000000000000, 0.0000000000000000000 ) ) ;
#179 = CARTESIAN_POINT ( 'NONE',  ( -0.1181100000000000344, 0.0000000000000000000, 2.937755999999999368 ) ) ;
#180 = FACE_OUTER_BOUND ( 'NONE', #292, .T. ) ;
#181 = MECHANICAL_DESIGN_GEOMETRIC_PRESENTATION_REPRESENTATION (  '', ( #188 ), #49 ) ;
#182 = DIRECTION ( 'NONE',  ( -0.0000000000000000000, -0.0000000000000000000, -1.000000000000000000 ) ) ;
#183 = ORIENTED_EDGE ( 'NONE', *, *, #248, .T. ) ;
#184 = ADVANCED_FACE ( 'NONE', ( #100 ), #21, .T. ) ;
#185 = CARTESIAN_POINT ( 'NONE',  ( 0.0000000000000000000, 0.0000000000000000000, 0.8267719999999999514 ) ) ;
#186 = ORIENTED_EDGE ( 'NONE', *, *, #145, .F. ) ;
#187 = EDGE_LOOP ( 'NONE', ( #262, #209, #239, #83 ) ) ;
#188 = STYLED_ITEM ( 'NONE', ( #142 ), #212 ) ;
#189 = EDGE_CURVE ( 'NONE', #5, #129, #53, .T. ) ;
#190 = DIRECTION ( 'NONE',  ( 1.000000000000000000, 0.0000000000000000000, 0.0000000000000000000 ) ) ;
#191 = ORIENTED_EDGE ( 'NONE', *, *, #92, .T. ) ;
#192 = DIRECTION ( 'NONE',  ( -1.000000000000000000, 0.0000000000000000000, 0.0000000000000000000 ) ) ;
#193 = EDGE_LOOP ( 'NONE', ( #186, #124, #155, #322 ) ) ;
#194 = CIRCLE ( 'NONE', #165, 0.1181100000000000344 ) ;
#195 = CIRCLE ( 'NONE', #170, 0.03936999999999990507 ) ;
#196 =( LENGTH_UNIT ( ) NAMED_UNIT ( * ) SI_UNIT ( $, .METRE. ) );
#197 = UNCERTAINTY_MEASURE_WITH_UNIT (LENGTH_MEASURE( 1.000000000000000082E-05 ), #275, 'distance_accuracy_value', 'NONE');
#198 = AXIS2_PLACEMENT_3D ( 'NONE', #10, #216, #112 ) ;
#199 = EDGE_CURVE ( 'NONE', #204, #105, #333, .T. ) ;
#200 = DIRECTION ( 'NONE',  ( -1.000000000000000000, 0.0000000000000000000, 0.0000000000000000000 ) ) ;
#201 = CIRCLE ( 'NONE', #253, 0.03936999999999998140 ) ;
#202 = DIRECTION ( 'NONE',  ( -0.0000000000000000000, -0.0000000000000000000, -1.000000000000000000 ) ) ;
#203 = CYLINDRICAL_SURFACE ( 'NONE', #43, 0.03936999999999993977 ) ;
#204 = VERTEX_POINT ( 'NONE', #208 ) ;
#205 = DIRECTION ( 'NONE',  ( 0.0000000000000000000, 0.0000000000000000000, -1.000000000000000000 ) ) ;
#206 = EDGE_CURVE ( 'NONE', #54, #250, #146, .T. ) ;
#207 = ORIENTED_EDGE ( 'NONE', *, *, #92, .F. ) ;
#208 = CARTESIAN_POINT ( 'NONE',  ( 0.1181100000000000344, 1.446430334472939084E-17, 1.692912999999999890 ) ) ;
#209 = ORIENTED_EDGE ( 'NONE', *, *, #338, .F. ) ;
#210 = DIRECTION ( 'NONE',  ( 1.000000000000000000, 0.0000000000000000000, 0.0000000000000000000 ) ) ;
#211 = ORIENTED_EDGE ( 'NONE', *, *, #278, .T. ) ;
#212 = ADVANCED_BREP_SHAPE_REPRESENTATION ( 'Micro_SBMM-030-221', ( #34, #236 ), #166 ) ;
#213 = ORIENTED_EDGE ( 'NONE', *, *, #206, .T. ) ;
#214 = AXIS2_PLACEMENT_3D ( 'NONE', #115, #335, #162 ) ;
#215 = DIRECTION ( 'NONE',  ( 0.0000000000000000000, 0.0000000000000000000, 1.000000000000000000 ) ) ;
#216 = DIRECTION ( 'NONE',  ( -0.0000000000000000000, -0.0000000000000000000, -1.000000000000000000 ) ) ;
#217 = LINE ( 'NONE', #332, #158 ) ;
#218 = ORIENTED_EDGE ( 'NONE', *, *, #311, .T. ) ;
#219 = DIRECTION ( 'NONE',  ( -1.000000000000000000, 0.0000000000000000000, 0.0000000000000000000 ) ) ;
#220 = CIRCLE ( 'NONE', #114, 0.1031099999999991745 ) ;
#221 = CONICAL_SURFACE ( 'NONE', #141, 0.1299209999999997867, 0.09065978310229558246 ) ;
#222 = AXIS2_PLACEMENT_3D ( 'NONE', #33, #215, #323 ) ;
#223 = SHAPE_DEFINITION_REPRESENTATION ( #343, #212 ) ;
#224 = ADVANCED_FACE ( 'NONE', ( #176 ), #150, .T. ) ;
#225 = DIRECTION ( 'NONE',  ( 0.0000000000000000000, 0.0000000000000000000, -1.000000000000000000 ) ) ;
#226 = DIRECTION ( 'NONE',  ( -0.7071067811865486830, 0.0000000000000000000, -0.7071067811865462405 ) ) ;
#227 = AXIS2_PLACEMENT_3D ( 'NONE', #157, #139, #95 ) ;
#228 = CARTESIAN_POINT ( 'NONE',  ( 0.0000000000000000000, 0.0000000000000000000, 2.952755999999999936 ) ) ;
#229 = ORIENTED_EDGE ( 'NONE', *, *, #278, .F. ) ;
#230 = ADVANCED_FACE ( 'NONE', ( #120 ), #203, .T. ) ;
#231 = DIRECTION ( 'NONE',  ( -1.000000000000000000, 0.0000000000000000000, 0.0000000000000000000 ) ) ;
#232 = LINE ( 'NONE', #57, #297 ) ;
#233 = CARTESIAN_POINT ( 'NONE',  ( 0.0000000000000000000, 0.0000000000000000000, 1.692912999999999890 ) ) ;
#234 = DIRECTION ( 'NONE',  ( 0.0000000000000000000, 0.0000000000000000000, 1.000000000000000000 ) ) ;
#235 = CONICAL_SURFACE ( 'NONE', #93, 0.1031099999999991745, 0.7853981633974500554 ) ;
#236 = AXIS2_PLACEMENT_3D ( 'NONE', #119, #174, #309 ) ;
#237 = ORIENTED_EDGE ( 'NONE', *, *, #77, .T. ) ;
#238 = ADVANCED_FACE ( 'NONE', ( #47 ), #235, .T. ) ;
#239 = ORIENTED_EDGE ( 'NONE', *, *, #118, .T. ) ;
#240 = DIMENSIONAL_EXPONENTS ( 1.000000000000000000, 0.0000000000000000000, 0.0000000000000000000, 0.0000000000000000000, 0.0000000000000000000, 0.0000000000000000000, 0.0000000000000000000 ) ;
#241 = CARTESIAN_POINT ( 'NONE',  ( 0.0000000000000000000, 0.0000000000000000000, 0.8267719999999999514 ) ) ;
#242 = ORIENTED_EDGE ( 'NONE', *, *, #118, .F. ) ;
#243 = SPHERICAL_SURFACE ( 'NONE', #44, 0.05905499999999999639 ) ;
#244 = CARTESIAN_POINT ( 'NONE',  ( -0.1031099999999991745, 0.0000000000000000000, 2.952755999999999936 ) ) ;
#245 = AXIS2_PLACEMENT_3D ( 'NONE', #233, #45, #121 ) ;
#246 = DIRECTION ( 'NONE',  ( 0.0000000000000000000, 0.0000000000000000000, -1.000000000000000000 ) ) ;
#247 = DIRECTION ( 'NONE',  ( 0.0000000000000000000, 0.0000000000000000000, 1.000000000000000000 ) ) ;
#248 = EDGE_CURVE ( 'NONE', #54, #25, #220, .T. ) ;
#249 = CARTESIAN_POINT ( 'NONE',  ( -0.1181100000000000344, 0.0000000000000000000, 1.692912999999999890 ) ) ;
#250 = VERTEX_POINT ( 'NONE', #179 ) ;
#251 = UNCERTAINTY_MEASURE_WITH_UNIT (LENGTH_MEASURE( 1.000000000000000082E-05 ), #177, 'distance_accuracy_value', 'NONE');
#252 = DIRECTION ( 'NONE',  ( 0.0000000000000000000, 0.0000000000000000000, 1.000000000000000000 ) ) ;
#253 = AXIS2_PLACEMENT_3D ( 'NONE', #127, #125, #321 ) ;
#254 = APPLICATION_PROTOCOL_DEFINITION ( 'draft international standard', 'automotive_design', 1998, #55 ) ;
#255 = CIRCLE ( 'NONE', #328, 0.1181100000000000344 ) ;
#256 =( LENGTH_UNIT ( ) NAMED_UNIT ( * ) SI_UNIT ( $, .METRE. ) );
#257 = CARTESIAN_POINT ( 'NONE',  ( 0.0000000000000000000, 0.0000000000000000000, 2.952755999999999936 ) ) ;
#258 = CARTESIAN_POINT ( 'NONE',  ( -0.03936999999999993977, 0.0000000000000000000, 0.0000000000000000000 ) ) ;
#259 =( GEOMETRIC_REPRESENTATION_CONTEXT ( 3 ) GLOBAL_UNCERTAINTY_ASSIGNED_CONTEXT ( ( #334 ) ) GLOBAL_UNIT_ASSIGNED_CONTEXT ( ( #140, #301, #133 ) ) REPRESENTATION_CONTEXT ( 'NONE', 'WORKASPACE' ) );
#260 = CARTESIAN_POINT ( 'NONE',  ( 0.0000000000000000000, 0.0000000000000000000, 2.952755999999999936 ) ) ;
#261 = PRESENTATION_LAYER_ASSIGNMENT (  '', '', ( #188 ) ) ;
#262 = ORIENTED_EDGE ( 'NONE', *, *, #274, .F. ) ;
#263 = DIRECTION ( 'NONE',  ( -0.09053564237157933625, 1.108741846391041270E-17, 0.9958932158923291533 ) ) ;
#264 = CARTESIAN_POINT ( 'NONE',  ( 0.0000000000000000000, 0.0000000000000000000, 1.822834149999997377 ) ) ;
#265 = CARTESIAN_POINT ( 'NONE',  ( 0.0000000000000000000, 0.0000000000000000000, 2.952755999999999936 ) ) ;
#266 = EDGE_LOOP ( 'NONE', ( #191, #153, #290, #314 ) ) ;
#267 = LENGTH_MEASURE_WITH_UNIT ( LENGTH_MEASURE( 0.02539999999999999897 ), #62 );
#268 = DIRECTION ( 'NONE',  ( -0.0000000000000000000, -0.0000000000000000000, -1.000000000000000000 ) ) ;
#269 = CONICAL_SURFACE ( 'NONE', #67, 0.1031099999999991745, 0.7853981633974500554 ) ;
#270 = LINE ( 'NONE', #156, #72 ) ;
#271 = ORIENTED_EDGE ( 'NONE', *, *, #302, .F. ) ;
#272 = CARTESIAN_POINT ( 'NONE',  ( 0.0000000000000000000, 3.616075836182346941E-18, 8.537024980200822558E-18 ) ) ;
#273 = PRESENTATION_STYLE_ASSIGNMENT (( #279 ) ) ;
#274 = EDGE_CURVE ( 'NONE', #5, #105, #289, .T. ) ;
#275 =( CONVERSION_BASED_UNIT ( 'INCH', #267 ) LENGTH_UNIT ( ) NAMED_UNIT ( #160 ) );
#276 = FILL_AREA_STYLE ('',( #91 ) ) ;
#277 = CIRCLE ( 'NONE', #306, 0.05905499999999998945 ) ;
#278 = EDGE_CURVE ( 'NONE', #128, #129, #201, .T. ) ;
#279 = SURFACE_STYLE_USAGE ( .BOTH. , #94 ) ;
#280 = VERTEX_POINT ( 'NONE', #79 ) ;
#281 = EDGE_CURVE ( 'NONE', #105, #204, #337, .T. ) ;
#282 = CIRCLE ( 'NONE', #227, 0.05905499999999999639 ) ;
#283 = AXIS2_PLACEMENT_3D ( 'NONE', #110, #331, #219 ) ;
#284 = DIRECTION ( 'NONE',  ( 0.0000000000000000000, 0.0000000000000000000, -1.000000000000000000 ) ) ;
#285 = SURFACE_STYLE_FILL_AREA ( #20 ) ;
#286 = DIRECTION ( 'NONE',  ( -0.0000000000000000000, -0.0000000000000000000, -1.000000000000000000 ) ) ;
#287 = SURFACE_SIDE_STYLE ('',( #285 ) ) ;
#288 = DIRECTION ( 'NONE',  ( -1.000000000000000000, 0.0000000000000000000, 0.0000000000000000000 ) ) ;
#289 = LINE ( 'NONE', #152, #15 ) ;
#290 = ORIENTED_EDGE ( 'NONE', *, *, #32, .T. ) ;
#291 = CARTESIAN_POINT ( 'NONE',  ( 0.0000000000000000000, 0.0000000000000000000, 0.05905500000000000332 ) ) ;
#292 = EDGE_LOOP ( 'NONE', ( #106, #131, #159, #242 ) ) ;
#293 = DIRECTION ( 'NONE',  ( -0.0000000000000000000, -0.0000000000000000000, -1.000000000000000000 ) ) ;
#294 = ORIENTED_EDGE ( 'NONE', *, *, #329, .T. ) ;
#295 = LINE ( 'NONE', #36, #307 ) ;
#296 = ORIENTED_EDGE ( 'NONE', *, *, #28, .F. ) ;
#297 = VECTOR ( 'NONE', #268, 39.37007874015748143 ) ;
#298 = DIRECTION ( 'NONE',  ( -0.0000000000000000000, -0.0000000000000000000, -1.000000000000000000 ) ) ;
#299 = EDGE_LOOP ( 'NONE', ( #102, #136, #271, #59 ) ) ;
#300 = DIRECTION ( 'NONE',  ( -0.0000000000000000000, -0.0000000000000000000, -1.000000000000000000 ) ) ;
#301 =( NAMED_UNIT ( * ) PLANE_ANGLE_UNIT ( ) SI_UNIT ( $, .RADIAN. ) );
#302 = EDGE_CURVE ( 'NONE', #250, #149, #255, .T. ) ;
#303 = DIRECTION ( 'NONE',  ( 0.09053564237157933625, 0.0000000000000000000, 0.9958932158923291533 ) ) ;
#304 = PRESENTATION_LAYER_ASSIGNMENT (  '', '', ( #98 ) ) ;
#305 = ADVANCED_FACE ( 'NONE', ( #87 ), #243, .T. ) ;
#306 = AXIS2_PLACEMENT_3D ( 'NONE', #163, #38, #252 ) ;
#307 = VECTOR ( 'NONE', #298, 39.37007874015748143 ) ;
#308 = PRODUCT_CONTEXT ( 'NONE', #55, 'mechanical' ) ;
#309 = DIRECTION ( 'NONE',  ( 1.000000000000000000, 0.0000000000000000000, 0.0000000000000000000 ) ) ;
#310 = EDGE_LOOP ( 'NONE', ( #97, #104, #213, #101 ) ) ;
#311 = EDGE_CURVE ( 'NONE', #280, #51, #295, .T. ) ;
#312 = CONICAL_SURFACE ( 'NONE', #16, 0.1299209999999997867, 0.09065978310229558246 ) ;
#313 = PLANE ( 'NONE',  #48 ) ;
#314 = ORIENTED_EDGE ( 'NONE', *, *, #77, .F. ) ;
#315 = ORIENTED_EDGE ( 'NONE', *, *, #311, .F. ) ;
#316 = EDGE_CURVE ( 'NONE', #25, #149, #270, .T. ) ;
#317 = CARTESIAN_POINT ( 'NONE',  ( 0.0000000000000000000, 0.0000000000000000000, 2.937755999999999368 ) ) ;
#318 = DIRECTION ( 'NONE',  ( 1.000000000000000000, 0.0000000000000000000, 0.0000000000000000000 ) ) ;
#319 = ORIENTED_EDGE ( 'NONE', *, *, #145, .T. ) ;
#320 = VECTOR ( 'NONE', #286, 39.37007874015748143 ) ;
#321 = DIRECTION ( 'NONE',  ( -1.000000000000000000, 0.0000000000000000000, 0.0000000000000000000 ) ) ;
#322 = ORIENTED_EDGE ( 'NONE', *, *, #281, .T. ) ;
#323 = DIRECTION ( 'NONE',  ( 1.000000000000000000, 0.0000000000000000000, 0.0000000000000000000 ) ) ;
#324 = VERTEX_POINT ( 'NONE', #272 ) ;
#325 = VERTEX_POINT ( 'NONE', #135 ) ;
#326 = CIRCLE ( 'NONE', #283, 0.03936999999999998140 ) ;
#327 = ORIENTED_EDGE ( 'NONE', *, *, #52, .F. ) ;
#328 = AXIS2_PLACEMENT_3D ( 'NONE', #82, #246, #210 ) ;
#329 = EDGE_CURVE ( 'NONE', #5, #280, #117, .T. ) ;
#330 = DIRECTION ( 'NONE',  ( -0.0000000000000000000, -0.0000000000000000000, -1.000000000000000000 ) ) ;
#331 = DIRECTION ( 'NONE',  ( -0.0000000000000000000, -0.0000000000000000000, -1.000000000000000000 ) ) ;
#332 = CARTESIAN_POINT ( 'NONE',  ( 0.1299209999999997867, 0.0000000000000000000, 1.822834149999997377 ) ) ;
#333 = CIRCLE ( 'NONE', #245, 0.1181100000000000344 ) ;
#334 = UNCERTAINTY_MEASURE_WITH_UNIT (LENGTH_MEASURE( 1.000000000000000082E-05 ), #140, 'distance_accuracy_value', 'NONE');
#335 = DIRECTION ( 'NONE',  ( -0.0000000000000000000, -0.0000000000000000000, -1.000000000000000000 ) ) ;
#336 = CIRCLE ( 'NONE', #214, 0.03936999999999998140 ) ;
#337 = CIRCLE ( 'NONE', #222, 0.1181100000000000344 ) ;
#338 = EDGE_CURVE ( 'NONE', #280, #5, #195, .T. ) ;
#339 = SURFACE_STYLE_USAGE ( .BOTH. , #287 ) ;
#340 = FACE_OUTER_BOUND ( 'NONE', #299, .T. ) ;
#341 = ADVANCED_FACE ( 'NONE', ( #161 ), #56, .T. ) ;
#342 = DIRECTION ( 'NONE',  ( -0.0000000000000000000, -0.0000000000000000000, -1.000000000000000000 ) ) ;
#343 = PRODUCT_DEFINITION_SHAPE ( 'NONE', 'NONE',  #116 ) ;
#344 = CARTESIAN_POINT ( 'NONE',  ( 0.1181100000000000344, 1.446430334472939084E-17, 2.952755999999999936 ) ) ;
#345 = ORIENTED_EDGE ( 'NONE', *, *, #111, .F. ) ;
ENDSEC;
END-ISO-10303-21;
