ISO-10303-21;
HEADER;
FILE_DESCRIPTION (( 'STEP AP214' ),
    '1' );
FILE_NAME ('Micro_MMBM-015-15.STEP',
    '2021-09-03T16:28:51',
    ( '' ),
    ( '' ),
    'SwSTEP 2.0',
    'SolidWorks 2020',
    '' );
FILE_SCHEMA (( 'AUTOMOTIVE_DESIGN' ));
ENDSEC;

DATA;
#1 = CARTESIAN_POINT ( 'NONE',  ( -0.02854350000000000637, 0.0000000000000000000, 0.06461879543311090102 ) ) ;
#2 = LINE ( 'NONE', #81, #133 ) ;
#3 = AXIS2_PLACEMENT_3D ( 'NONE', #142, #322, #226 ) ;
#4 = EDGE_CURVE ( 'NONE', #188, #210, #273, .T. ) ;
#5 = DIRECTION ( 'NONE',  ( 1.000000000000000000, 0.0000000000000000000, 0.0000000000000000000 ) ) ;
#6 = DIRECTION ( 'NONE',  ( -0.0000000000000000000, -0.0000000000000000000, -1.000000000000000000 ) ) ;
#7 = EDGE_CURVE ( 'NONE', #84, #190, #15, .T. ) ;
#8 = DIRECTION ( 'NONE',  ( -0.0000000000000000000, -0.0000000000000000000, -1.000000000000000000 ) ) ;
#9 = ORIENTED_EDGE ( 'NONE', *, *, #218, .T. ) ;
#10 = COLOUR_RGB ( '',0.7921568627450980005, 0.8196078431372548767, 0.9333333333333333481 ) ;
#11 = CARTESIAN_POINT ( 'NONE',  ( 0.0000000000000000000, 0.0000000000000000000, 0.05905500000000000332 ) ) ;
#12 = PRODUCT ( 'Micro_MMBM-015-15', 'Micro_MMBM-015-15', '', ( #28 ) ) ;
#13 = DIRECTION ( 'NONE',  ( -0.0000000000000000000, -0.0000000000000000000, -1.000000000000000000 ) ) ;
#14 = VERTEX_POINT ( 'NONE', #1 ) ;
#15 = CIRCLE ( 'NONE', #154, 0.02952454724999999808 ) ;
#16 = VECTOR ( 'NONE', #285, 39.37007874015748143 ) ;
#17 = ORIENTED_EDGE ( 'NONE', *, *, #218, .F. ) ;
#18 = CARTESIAN_POINT ( 'NONE',  ( 0.02854350000000003759, 3.495570591146252268E-18, 0.0000000000000000000 ) ) ;
#19 = FACE_OUTER_BOUND ( 'NONE', #241, .T. ) ;
#20 = ORIENTED_EDGE ( 'NONE', *, *, #191, .T. ) ;
#21 = VECTOR ( 'NONE', #83, 39.37007874015748854 ) ;
#22 = ORIENTED_EDGE ( 'NONE', *, *, #7, .F. ) ;
#23 =( NAMED_UNIT ( * ) PLANE_ANGLE_UNIT ( ) SI_UNIT ( $, .RADIAN. ) );
#24 = DIRECTION ( 'NONE',  ( -0.0000000000000000000, -0.0000000000000000000, -1.000000000000000000 ) ) ;
#25 = DIRECTION ( 'NONE',  ( -0.0000000000000000000, -0.0000000000000000000, -1.000000000000000000 ) ) ;
#26 = SURFACE_STYLE_FILL_AREA ( #318 ) ;
#27 = FACE_OUTER_BOUND ( 'NONE', #152, .T. ) ;
#28 = PRODUCT_CONTEXT ( 'NONE', #224, 'mechanical' ) ;
#29 = DIRECTION ( 'NONE',  ( -1.000000000000000000, 0.0000000000000000000, 0.0000000000000000000 ) ) ;
#30 = FACE_OUTER_BOUND ( 'NONE', #237, .T. ) ;
#31 = CARTESIAN_POINT ( 'NONE',  ( 0.0000000000000000000, 0.0000000000000000000, 0.05905500000000000332 ) ) ;
#32 = EDGE_LOOP ( 'NONE', ( #266, #158, #302, #75 ) ) ;
#33 = DIRECTION ( 'NONE',  ( -1.000000000000000000, 0.0000000000000000000, 0.0000000000000000000 ) ) ;
#34 = AXIS2_PLACEMENT_3D ( 'NONE', #265, #354, #328 ) ;
#35 = DIRECTION ( 'NONE',  ( -0.7071067811865358044, 0.0000000000000000000, -0.7071067811865590080 ) ) ;
#36 = CARTESIAN_POINT ( 'NONE',  ( 0.0000000000000000000, 0.0000000000000000000, 0.06461879543311090102 ) ) ;
#37 =( NAMED_UNIT ( * ) PLANE_ANGLE_UNIT ( ) SI_UNIT ( $, .RADIAN. ) );
#38 = VECTOR ( 'NONE', #140, 39.37007874015748854 ) ;
#39 = AXIS2_PLACEMENT_3D ( 'NONE', #109, #310, #277 ) ;
#40 = UNCERTAINTY_MEASURE_WITH_UNIT (LENGTH_MEASURE( 1.000000000000000082E-05 ), #104, 'distance_accuracy_value', 'NONE');
#41 = DIRECTION ( 'NONE',  ( -0.0000000000000000000, -0.0000000000000000000, -1.000000000000000000 ) ) ;
#42 = EDGE_LOOP ( 'NONE', ( #247, #20 ) ) ;
#43 = PRODUCT_DEFINITION_SHAPE ( 'NONE', 'NONE',  #335 ) ;
#44 = EDGE_LOOP ( 'NONE', ( #73, #99, #50, #17 ) ) ;
#45 = ORIENTED_EDGE ( 'NONE', *, *, #90, .F. ) ;
#46 = CIRCLE ( 'NONE', #368, 0.02854350000000000637 ) ;
#47 = EDGE_LOOP ( 'NONE', ( #98, #333 ) ) ;
#48 = ORIENTED_EDGE ( 'NONE', *, *, #209, .T. ) ;
#49 = CARTESIAN_POINT ( 'NONE',  ( 0.0000000000000000000, 0.0000000000000000000, 2.244094000000000033 ) ) ;
#50 = ORIENTED_EDGE ( 'NONE', *, *, #185, .T. ) ;
#51 = MECHANICAL_DESIGN_GEOMETRIC_PRESENTATION_REPRESENTATION (  '', ( #359 ), #101 ) ;
#52 = DIRECTION ( 'NONE',  ( 0.0000000000000000000, 0.0000000000000000000, 1.000000000000000000 ) ) ;
#53 = DIRECTION ( 'NONE',  ( 0.0000000000000000000, 0.0000000000000000000, 1.000000000000000000 ) ) ;
#54 = DIRECTION ( 'NONE',  ( 0.0000000000000000000, 0.0000000000000000000, 1.000000000000000000 ) ) ;
#55 = DIRECTION ( 'NONE',  ( -0.0000000000000000000, 0.0000000000000000000, -1.000000000000000000 ) ) ;
#56 = DIRECTION ( 'NONE',  ( 1.000000000000000000, 0.0000000000000000000, -0.0000000000000000000 ) ) ;
#57 = CARTESIAN_POINT ( 'NONE',  ( -0.02952454724999999808, 0.0000000000000000000, 0.0000000000000000000 ) ) ;
#58 =( CONVERSION_BASED_UNIT ( 'INCH', #65 ) LENGTH_UNIT ( ) NAMED_UNIT ( #206 ) );
#59 = CARTESIAN_POINT ( 'NONE',  ( -0.1181100000000000066, 0.0000000000000000000, 0.5905510000000000481 ) ) ;
#60 = CIRCLE ( 'NONE', #279, 0.1031100000000002570 ) ;
#61 = ADVANCED_FACE ( 'NONE', ( #221 ), #320, .T. ) ;
#62 = CARTESIAN_POINT ( 'NONE',  ( 0.02854350000000007229, 0.0000000000000000000, 0.5905510000000000481 ) ) ;
#63 = ORIENTED_EDGE ( 'NONE', *, *, #198, .T. ) ;
#64 = DIRECTION ( 'NONE',  ( 0.0000000000000000000, 0.0000000000000000000, -1.000000000000000000 ) ) ;
#65 = LENGTH_MEASURE_WITH_UNIT ( LENGTH_MEASURE( 0.02539999999999999897 ), #295 );
#66 = AXIS2_PLACEMENT_3D ( 'NONE', #197, #290, #112 ) ;
#67 = CIRCLE ( 'NONE', #138, 0.02854350000000007229 ) ;
#68 = DIRECTION ( 'NONE',  ( -0.0000000000000000000, -0.0000000000000000000, -1.000000000000000000 ) ) ;
#69 =( CONVERSION_BASED_UNIT ( 'INCH', #148 ) LENGTH_UNIT ( ) NAMED_UNIT ( #324 ) );
#70 = FACE_OUTER_BOUND ( 'NONE', #32, .T. ) ;
#71 = AXIS2_PLACEMENT_3D ( 'NONE', #232, #292, #300 ) ;
#72 = ORIENTED_EDGE ( 'NONE', *, *, #280, .F. ) ;
#73 = ORIENTED_EDGE ( 'NONE', *, *, #164, .F. ) ;
#74 = EDGE_LOOP ( 'NONE', ( #334, #215, #161, #338 ) ) ;
#75 = ORIENTED_EDGE ( 'NONE', *, *, #373, .F. ) ;
#76 = CYLINDRICAL_SURFACE ( 'NONE', #321, 0.1181100000000000066 ) ;
#77 = ORIENTED_EDGE ( 'NONE', *, *, #145, .T. ) ;
#78 = LENGTH_MEASURE_WITH_UNIT ( LENGTH_MEASURE( 0.02539999999999999897 ), #135 );
#79 = DIRECTION ( 'NONE',  ( -0.1736481776669310528, 0.0000000000000000000, -0.9848077530122080203 ) ) ;
#80 = CIRCLE ( 'NONE', #213, 0.1181100000000000066 ) ;
#81 = CARTESIAN_POINT ( 'NONE',  ( -0.02952454724999999808, 0.0000000000000000000, 0.05905500000000000332 ) ) ;
#82 = DIRECTION ( 'NONE',  ( -1.000000000000000000, 0.0000000000000000000, 0.0000000000000000000 ) ) ;
#83 = DIRECTION ( 'NONE',  ( 0.1736481776669310528, 2.126576849575780543E-17, -0.9848077530122080203 ) ) ;
#84 = VERTEX_POINT ( 'NONE', #107 ) ;
#85 = AXIS2_PLACEMENT_3D ( 'NONE', #255, #174, #114 ) ;
#86 = DIRECTION ( 'NONE',  ( -0.0000000000000000000, -0.0000000000000000000, -1.000000000000000000 ) ) ;
#87 = CIRCLE ( 'NONE', #271, 0.02854350000000007229 ) ;
#88 = DIMENSIONAL_EXPONENTS ( 1.000000000000000000, 0.0000000000000000000, 0.0000000000000000000, 0.0000000000000000000, 0.0000000000000000000, 0.0000000000000000000, 0.0000000000000000000 ) ;
#89 = DIRECTION ( 'NONE',  ( -1.000000000000000000, 0.0000000000000000000, 0.0000000000000000000 ) ) ;
#90 = EDGE_CURVE ( 'NONE', #186, #219, #225, .T. ) ;
#91 = DIRECTION ( 'NONE',  ( -1.000000000000000000, 0.0000000000000000000, 0.0000000000000000000 ) ) ;
#92 = SURFACE_STYLE_FILL_AREA ( #118 ) ;
#93 = AXIS2_PLACEMENT_3D ( 'NONE', #11, #13, #267 ) ;
#94 = CARTESIAN_POINT ( 'NONE',  ( 0.0000000000000000000, 0.0000000000000000000, 2.244094000000000033 ) ) ;
#95 = ADVANCED_FACE ( 'NONE', ( #344, #27 ), #253, .T. ) ;
#96 = ORIENTED_EDGE ( 'NONE', *, *, #366, .F. ) ;
#97 = CIRCLE ( 'NONE', #293, 0.1031100000000002570 ) ;
#98 = ORIENTED_EDGE ( 'NONE', *, *, #227, .F. ) ;
#99 = ORIENTED_EDGE ( 'NONE', *, *, #373, .T. ) ;
#100 = EDGE_LOOP ( 'NONE', ( #48, #240, #22, #105 ) ) ;
#101 =( GEOMETRIC_REPRESENTATION_CONTEXT ( 3 ) GLOBAL_UNCERTAINTY_ASSIGNED_CONTEXT ( ( #229 ) ) GLOBAL_UNIT_ASSIGNED_CONTEXT ( ( #69, #37, #362 ) ) REPRESENTATION_CONTEXT ( 'NONE', 'WORKASPACE' ) );
#102 = DIRECTION ( 'NONE',  ( -1.000000000000000000, 0.0000000000000000000, 0.0000000000000000000 ) ) ;
#103 = VERTEX_POINT ( 'NONE', #59 ) ;
#104 =( CONVERSION_BASED_UNIT ( 'INCH', #78 ) LENGTH_UNIT ( ) NAMED_UNIT ( #88 ) );
#105 = ORIENTED_EDGE ( 'NONE', *, *, #127, .F. ) ;
#106 = DIRECTION ( 'NONE',  ( 0.0000000000000000000, 0.0000000000000000000, -1.000000000000000000 ) ) ;
#107 = CARTESIAN_POINT ( 'NONE',  ( -0.02952454724999999808, 0.0000000000000000000, 0.05905500000000000332 ) ) ;
#108 = VECTOR ( 'NONE', #375, 39.37007874015748143 ) ;
#109 = CARTESIAN_POINT ( 'NONE',  ( 0.0000000000000000000, 0.0000000000000000000, 0.05905500000000000332 ) ) ;
#110 = DIRECTION ( 'NONE',  ( -0.0000000000000000000, -0.0000000000000000000, -1.000000000000000000 ) ) ;
#111 = PRESENTATION_STYLE_ASSIGNMENT (( #377 ) ) ;
#112 = DIRECTION ( 'NONE',  ( -1.000000000000000000, 0.0000000000000000000, 0.0000000000000000000 ) ) ;
#113 = ORIENTED_EDGE ( 'NONE', *, *, #126, .F. ) ;
#114 = DIRECTION ( 'NONE',  ( -1.000000000000000000, 0.0000000000000000000, 0.0000000000000000000 ) ) ;
#115 = AXIS2_PLACEMENT_3D ( 'NONE', #168, #200, #29 ) ;
#116 = AXIS2_PLACEMENT_3D ( 'NONE', #357, #6, #89 ) ;
#117 = CARTESIAN_POINT ( 'NONE',  ( -0.02854350000000007229, 0.0000000000000000000, 0.5905510000000000481 ) ) ;
#118 = FILL_AREA_STYLE ('',( #235 ) ) ;
#119 = UNCERTAINTY_MEASURE_WITH_UNIT (LENGTH_MEASURE( 1.000000000000000082E-05 ), #58, 'distance_accuracy_value', 'NONE');
#120 = CARTESIAN_POINT ( 'NONE',  ( 0.0000000000000000000, 0.0000000000000000000, 0.0000000000000000000 ) ) ;
#121 = CIRCLE ( 'NONE', #258, 0.02952454724999999808 ) ;
#122 = CARTESIAN_POINT ( 'NONE',  ( 0.02854350000000000637, 3.555642409872488112E-18, 0.06461879543311090102 ) ) ;
#123 = ADVANCED_BREP_SHAPE_REPRESENTATION ( 'Micro_MMBM-015-15', ( #276, #259 ), #327 ) ;
#124 = EDGE_CURVE ( 'NONE', #210, #190, #372, .T. ) ;
#125 = ORIENTED_EDGE ( 'NONE', *, *, #4, .T. ) ;
#126 = EDGE_CURVE ( 'NONE', #210, #14, #298, .T. ) ;
#127 = EDGE_CURVE ( 'NONE', #14, #84, #2, .T. ) ;
#128 = VERTEX_POINT ( 'NONE', #201 ) ;
#129 = CARTESIAN_POINT ( 'NONE',  ( 0.0000000000000000000, 0.0000000000000000000, 0.05905500000000000332 ) ) ;
#130 = LINE ( 'NONE', #312, #332 ) ;
#131 = VERTEX_POINT ( 'NONE', #117 ) ;
#132 = VECTOR ( 'NONE', #110, 39.37007874015748143 ) ;
#133 = VECTOR ( 'NONE', #79, 39.37007874015748854 ) ;
#134 = CONICAL_SURFACE ( 'NONE', #93, 0.02952454724999999808, 0.1745329251994336694 ) ;
#135 =( LENGTH_UNIT ( ) NAMED_UNIT ( * ) SI_UNIT ( $, .METRE. ) );
#136 = DIRECTION ( 'NONE',  ( -1.000000000000000000, 0.0000000000000000000, 0.0000000000000000000 ) ) ;
#137 = DIRECTION ( 'NONE',  ( -1.000000000000000000, 0.0000000000000000000, 0.0000000000000000000 ) ) ;
#138 = AXIS2_PLACEMENT_3D ( 'NONE', #147, #177, #261 ) ;
#139 = SURFACE_SIDE_STYLE ('',( #26 ) ) ;
#140 = DIRECTION ( 'NONE',  ( 0.7071067811865358044, 8.659560562354788645E-17, -0.7071067811865590080 ) ) ;
#141 = ORIENTED_EDGE ( 'NONE', *, *, #353, .F. ) ;
#142 = CARTESIAN_POINT ( 'NONE',  ( 0.0000000000000000000, 0.0000000000000000000, 0.5905510000000000481 ) ) ;
#143 = VERTEX_POINT ( 'NONE', #173 ) ;
#144 = FACE_OUTER_BOUND ( 'NONE', #100, .T. ) ;
#145 = EDGE_CURVE ( 'NONE', #103, #187, #228, .T. ) ;
#146 = VECTOR ( 'NONE', #272, 39.37007874015748143 ) ;
#147 = CARTESIAN_POINT ( 'NONE',  ( 0.0000000000000000000, 0.0000000000000000000, 0.5905510000000000481 ) ) ;
#148 = LENGTH_MEASURE_WITH_UNIT ( LENGTH_MEASURE( 0.02539999999999999897 ), #180 );
#149 = CARTESIAN_POINT ( 'NONE',  ( 0.0000000000000000000, 0.0000000000000000000, 0.0000000000000000000 ) ) ;
#150 = EDGE_CURVE ( 'NONE', #187, #103, #297, .T. ) ;
#151 = DIRECTION ( 'NONE',  ( -0.0000000000000000000, -0.0000000000000000000, -1.000000000000000000 ) ) ;
#152 = EDGE_LOOP ( 'NONE', ( #77, #212 ) ) ;
#153 = CARTESIAN_POINT ( 'NONE',  ( 0.1181100000000000066, 1.446430334472939084E-17, 2.229093999999999465 ) ) ;
#154 = AXIS2_PLACEMENT_3D ( 'NONE', #129, #378, #82 ) ;
#155 = AXIS2_PLACEMENT_3D ( 'NONE', #282, #24, #136 ) ;
#156 = CYLINDRICAL_SURFACE ( 'NONE', #116, 0.02854350000000003759 ) ;
#157 = VERTEX_POINT ( 'NONE', #251 ) ;
#158 = ORIENTED_EDGE ( 'NONE', *, *, #126, .T. ) ;
#159 = ORIENTED_EDGE ( 'NONE', *, *, #164, .T. ) ;
#160 = PLANE ( 'NONE',  #287 ) ;
#161 = ORIENTED_EDGE ( 'NONE', *, *, #216, .F. ) ;
#162 = DIRECTION ( 'NONE',  ( -1.000000000000000000, 0.0000000000000000000, 0.0000000000000000000 ) ) ;
#163 = EDGE_CURVE ( 'NONE', #219, #187, #317, .T. ) ;
#164 = EDGE_CURVE ( 'NONE', #190, #157, #342, .T. ) ;
#165 = ORIENTED_EDGE ( 'NONE', *, *, #308, .T. ) ;
#166 = CONICAL_SURFACE ( 'NONE', #34, 0.1031100000000002570, 0.7853981633974318477 ) ;
#167 = DIRECTION ( 'NONE',  ( 1.000000000000000000, 0.0000000000000000000, 0.0000000000000000000 ) ) ;
#168 = CARTESIAN_POINT ( 'NONE',  ( 0.0000000000000000000, 0.0000000000000000000, 0.5905510000000000481 ) ) ;
#169 = CARTESIAN_POINT ( 'NONE',  ( -0.1181100000000000066, 0.0000000000000000000, 2.244094000000000033 ) ) ;
#170 = CARTESIAN_POINT ( 'NONE',  ( 0.1181100000000000066, 1.446430334472939084E-17, 0.5905510000000000481 ) ) ;
#171 = AXIS2_PLACEMENT_3D ( 'NONE', #367, #217, #162 ) ;
#172 = DIRECTION ( 'NONE',  ( 0.0000000000000000000, 0.0000000000000000000, 1.000000000000000000 ) ) ;
#173 = CARTESIAN_POINT ( 'NONE',  ( -0.1031100000000002570, 0.0000000000000000000, 2.244094000000000033 ) ) ;
#174 = DIRECTION ( 'NONE',  ( -0.0000000000000000000, -0.0000000000000000000, -1.000000000000000000 ) ) ;
#175 = FACE_OUTER_BOUND ( 'NONE', #307, .T. ) ;
#176 = AXIS2_PLACEMENT_3D ( 'NONE', #296, #331, #325 ) ;
#177 = DIRECTION ( 'NONE',  ( -0.0000000000000000000, -0.0000000000000000000, -1.000000000000000000 ) ) ;
#178 = ADVANCED_FACE ( 'NONE', ( #144 ), #326, .T. ) ;
#179 = CARTESIAN_POINT ( 'NONE',  ( 0.0000000000000000000, 0.0000000000000000000, 0.5905510000000000481 ) ) ;
#180 =( LENGTH_UNIT ( ) NAMED_UNIT ( * ) SI_UNIT ( $, .METRE. ) );
#181 = CARTESIAN_POINT ( 'NONE',  ( -0.1031100000000002570, 0.0000000000000000000, 2.244094000000000033 ) ) ;
#182 = MECHANICAL_DESIGN_GEOMETRIC_PRESENTATION_REPRESENTATION (  '', ( #183 ), #245 ) ;
#183 = STYLED_ITEM ( 'NONE', ( #111 ), #123 ) ;
#184 = ORIENTED_EDGE ( 'NONE', *, *, #227, .T. ) ;
#185 = EDGE_CURVE ( 'NONE', #84, #128, #203, .T. ) ;
#186 = VERTEX_POINT ( 'NONE', #222 ) ;
#187 = VERTEX_POINT ( 'NONE', #170 ) ;
#188 = VERTEX_POINT ( 'NONE', #257 ) ;
#189 = PRESENTATION_LAYER_ASSIGNMENT (  '', '', ( #359 ) ) ;
#190 = VERTEX_POINT ( 'NONE', #194 ) ;
#191 = EDGE_CURVE ( 'NONE', #186, #143, #60, .T. ) ;
#192 = DIRECTION ( 'NONE',  ( 0.0000000000000000000, 0.0000000000000000000, 1.000000000000000000 ) ) ;
#193 = ORIENTED_EDGE ( 'NONE', *, *, #209, .F. ) ;
#194 = CARTESIAN_POINT ( 'NONE',  ( 0.02952454724999999808, 3.615714228598728577E-18, 0.05905500000000000332 ) ) ;
#195 = AXIS2_PLACEMENT_3D ( 'NONE', #31, #86, #137 ) ;
#196 = ADVANCED_FACE ( 'NONE', ( #345 ), #319, .T. ) ;
#197 = CARTESIAN_POINT ( 'NONE',  ( 0.0000000000000000000, 0.0000000000000000000, 0.0000000000000000000 ) ) ;
#198 = EDGE_CURVE ( 'NONE', #143, #379, #249, .T. ) ;
#199 = FILL_AREA_STYLE_COLOUR ( '', #376 ) ;
#200 = DIRECTION ( 'NONE',  ( -0.0000000000000000000, -0.0000000000000000000, -1.000000000000000000 ) ) ;
#201 = CARTESIAN_POINT ( 'NONE',  ( -0.02952454724999999808, 0.0000000000000000000, 0.0000000000000000000 ) ) ;
#202 = AXIS2_PLACEMENT_3D ( 'NONE', #94, #64, #355 ) ;
#203 = LINE ( 'NONE', #57, #108 ) ;
#204 = CYLINDRICAL_SURFACE ( 'NONE', #306, 0.02854350000000003759 ) ;
#205 = SURFACE_STYLE_USAGE ( .BOTH. , #231 ) ;
#206 = DIMENSIONAL_EXPONENTS ( 1.000000000000000000, 0.0000000000000000000, 0.0000000000000000000, 0.0000000000000000000, 0.0000000000000000000, 0.0000000000000000000, 0.0000000000000000000 ) ;
#207 = VECTOR ( 'NONE', #35, 39.37007874015748854 ) ;
#208 = DIRECTION ( 'NONE',  ( -1.000000000000000000, 0.0000000000000000000, 0.0000000000000000000 ) ) ;
#209 = EDGE_CURVE ( 'NONE', #14, #210, #46, .T. ) ;
#210 = VERTEX_POINT ( 'NONE', #122 ) ;
#211 = ORIENTED_EDGE ( 'NONE', *, *, #308, .F. ) ;
#212 = ORIENTED_EDGE ( 'NONE', *, *, #150, .T. ) ;
#213 = AXIS2_PLACEMENT_3D ( 'NONE', #246, #106, #283 ) ;
#214 = DIRECTION ( 'NONE',  ( -0.0000000000000000000, -0.0000000000000000000, -1.000000000000000000 ) ) ;
#215 = ORIENTED_EDGE ( 'NONE', *, *, #90, .T. ) ;
#216 = EDGE_CURVE ( 'NONE', #379, #219, #336, .T. ) ;
#217 = DIRECTION ( 'NONE',  ( -0.0000000000000000000, -0.0000000000000000000, -1.000000000000000000 ) ) ;
#218 = EDGE_CURVE ( 'NONE', #157, #128, #299, .T. ) ;
#219 = VERTEX_POINT ( 'NONE', #153 ) ;
#220 = ADVANCED_FACE ( 'NONE', ( #268 ), #204, .T. ) ;
#221 = FACE_OUTER_BOUND ( 'NONE', #243, .T. ) ;
#222 = CARTESIAN_POINT ( 'NONE',  ( 0.1031100000000002570, 1.354581824536888722E-17, 2.244094000000000033 ) ) ;
#223 = CARTESIAN_POINT ( 'NONE',  ( 0.0000000000000000000, 0.0000000000000000000, 2.244094000000000033 ) ) ;
#224 = APPLICATION_CONTEXT ( 'automotive_design' ) ;
#225 = LINE ( 'NONE', #347, #38 ) ;
#226 = DIRECTION ( 'NONE',  ( -1.000000000000000000, 0.0000000000000000000, 0.0000000000000000000 ) ) ;
#227 = EDGE_CURVE ( 'NONE', #131, #188, #87, .T. ) ;
#228 = CIRCLE ( 'NONE', #115, 0.1181100000000000066 ) ;
#229 = UNCERTAINTY_MEASURE_WITH_UNIT (LENGTH_MEASURE( 1.000000000000000082E-05 ), #69, 'distance_accuracy_value', 'NONE');
#230 = FACE_OUTER_BOUND ( 'NONE', #370, .T. ) ;
#231 = SURFACE_SIDE_STYLE ('',( #92 ) ) ;
#232 = CARTESIAN_POINT ( 'NONE',  ( 0.0000000000000000000, 0.0000000000000000000, 0.0000000000000000000 ) ) ;
#233 = ADVANCED_FACE ( 'NONE', ( #70 ), #134, .T. ) ;
#234 = AXIS2_PLACEMENT_3D ( 'NONE', #250, #54, #371 ) ;
#235 = FILL_AREA_STYLE_COLOUR ( '', #10 ) ;
#236 = ADVANCED_FACE ( 'NONE', ( #175 ), #166, .T. ) ;
#237 = EDGE_LOOP ( 'NONE', ( #369, #9 ) ) ;
#238 = CONICAL_SURFACE ( 'NONE', #202, 0.1031100000000002570, 0.7853981633974318477 ) ;
#239 = ORIENTED_EDGE ( 'NONE', *, *, #216, .T. ) ;
#240 = ORIENTED_EDGE ( 'NONE', *, *, #124, .T. ) ;
#241 = EDGE_LOOP ( 'NONE', ( #309, #340, #365, #363 ) ) ;
#242 = DIRECTION ( 'NONE',  ( 1.000000000000000000, 0.0000000000000000000, 0.0000000000000000000 ) ) ;
#243 = EDGE_LOOP ( 'NONE', ( #303, #159, #72, #364 ) ) ;
#244 = AXIS2_PLACEMENT_3D ( 'NONE', #62, #55, #286 ) ;
#245 =( GEOMETRIC_REPRESENTATION_CONTEXT ( 3 ) GLOBAL_UNCERTAINTY_ASSIGNED_CONTEXT ( ( #119 ) ) GLOBAL_UNIT_ASSIGNED_CONTEXT ( ( #58, #356, #289 ) ) REPRESENTATION_CONTEXT ( 'NONE', 'WORKASPACE' ) );
#246 = CARTESIAN_POINT ( 'NONE',  ( 0.0000000000000000000, 0.0000000000000000000, 2.229093999999999465 ) ) ;
#247 = ORIENTED_EDGE ( 'NONE', *, *, #361, .T. ) ;
#248 =( NAMED_UNIT ( * ) SI_UNIT ( $, .STERADIAN. ) SOLID_ANGLE_UNIT ( ) );
#249 = LINE ( 'NONE', #181, #207 ) ;
#250 = CARTESIAN_POINT ( 'NONE',  ( 0.0000000000000000000, 0.0000000000000000000, 0.0000000000000000000 ) ) ;
#251 = CARTESIAN_POINT ( 'NONE',  ( 0.02952454724999999808, 3.615714228598728577E-18, 0.0000000000000000000 ) ) ;
#252 = FACE_OUTER_BOUND ( 'NONE', #42, .T. ) ;
#253 = PLANE ( 'NONE',  #244 ) ;
#254 = ORIENTED_EDGE ( 'NONE', *, *, #361, .F. ) ;
#255 = CARTESIAN_POINT ( 'NONE',  ( 0.0000000000000000000, 0.0000000000000000000, 0.06461879543311090102 ) ) ;
#256 = ORIENTED_EDGE ( 'NONE', *, *, #163, .T. ) ;
#257 = CARTESIAN_POINT ( 'NONE',  ( 0.02854350000000006882, 3.495570591146256120E-18, 0.5905510000000000481 ) ) ;
#258 = AXIS2_PLACEMENT_3D ( 'NONE', #120, #68, #330 ) ;
#259 = AXIS2_PLACEMENT_3D ( 'NONE', #149, #172, #5 ) ;
#260 = PLANE ( 'NONE',  #234 ) ;
#261 = DIRECTION ( 'NONE',  ( -1.000000000000000000, 0.0000000000000000000, 0.0000000000000000000 ) ) ;
#262 = EDGE_CURVE ( 'NONE', #188, #131, #67, .T. ) ;
#263 = SHAPE_DEFINITION_REPRESENTATION ( #43, #123 ) ;
#264 = ADVANCED_FACE ( 'NONE', ( #230 ), #156, .T. ) ;
#265 = CARTESIAN_POINT ( 'NONE',  ( 0.0000000000000000000, 0.0000000000000000000, 2.244094000000000033 ) ) ;
#266 = ORIENTED_EDGE ( 'NONE', *, *, #124, .F. ) ;
#267 = DIRECTION ( 'NONE',  ( -1.000000000000000000, 0.0000000000000000000, 0.0000000000000000000 ) ) ;
#268 = FACE_OUTER_BOUND ( 'NONE', #348, .T. ) ;
#269 = ADVANCED_FACE ( 'NONE', ( #323 ), #238, .T. ) ;
#270 = ORIENTED_EDGE ( 'NONE', *, *, #145, .F. ) ;
#271 = AXIS2_PLACEMENT_3D ( 'NONE', #179, #41, #91 ) ;
#272 = DIRECTION ( 'NONE',  ( -0.0000000000000000000, -0.0000000000000000000, -1.000000000000000000 ) ) ;
#273 = LINE ( 'NONE', #18, #146 ) ;
#274 = LINE ( 'NONE', #169, #16 ) ;
#275 = EDGE_LOOP ( 'NONE', ( #239, #256, #270, #141 ) ) ;
#276 = MANIFOLD_SOLID_BREP ( 'Cut-Revolve1', #313 ) ;
#277 = DIRECTION ( 'NONE',  ( -1.000000000000000000, 0.0000000000000000000, 0.0000000000000000000 ) ) ;
#278 = ORIENTED_EDGE ( 'NONE', *, *, #262, .T. ) ;
#279 = AXIS2_PLACEMENT_3D ( 'NONE', #314, #53, #167 ) ;
#280 = EDGE_CURVE ( 'NONE', #128, #157, #121, .T. ) ;
#281 = CYLINDRICAL_SURFACE ( 'NONE', #171, 0.1181100000000000066 ) ;
#282 = CARTESIAN_POINT ( 'NONE',  ( 0.0000000000000000000, 0.0000000000000000000, 0.0000000000000000000 ) ) ;
#283 = DIRECTION ( 'NONE',  ( 1.000000000000000000, 0.0000000000000000000, 0.0000000000000000000 ) ) ;
#284 = CARTESIAN_POINT ( 'NONE',  ( 0.02952454724999999808, 3.615714228598728577E-18, 0.0000000000000000000 ) ) ;
#285 = DIRECTION ( 'NONE',  ( -0.0000000000000000000, -0.0000000000000000000, -1.000000000000000000 ) ) ;
#286 = DIRECTION ( 'NONE',  ( -1.000000000000000000, 0.0000000000000000000, 0.0000000000000000000 ) ) ;
#287 = AXIS2_PLACEMENT_3D ( 'NONE', #49, #192, #56 ) ;
#288 = APPLICATION_CONTEXT ( 'automotive_design' ) ;
#289 =( NAMED_UNIT ( * ) SI_UNIT ( $, .STERADIAN. ) SOLID_ANGLE_UNIT ( ) );
#290 = DIRECTION ( 'NONE',  ( -0.0000000000000000000, -0.0000000000000000000, -1.000000000000000000 ) ) ;
#291 = CARTESIAN_POINT ( 'NONE',  ( 0.02952454724999999808, 3.615714228598728577E-18, 0.05905500000000000332 ) ) ;
#292 = DIRECTION ( 'NONE',  ( -0.0000000000000000000, -0.0000000000000000000, -1.000000000000000000 ) ) ;
#293 = AXIS2_PLACEMENT_3D ( 'NONE', #223, #52, #242 ) ;
#294 = PRODUCT_RELATED_PRODUCT_CATEGORY ( 'part', '', ( #12 ) ) ;
#295 =( LENGTH_UNIT ( ) NAMED_UNIT ( * ) SI_UNIT ( $, .METRE. ) );
#296 = CARTESIAN_POINT ( 'NONE',  ( 0.0000000000000000000, 0.0000000000000000000, 2.229093999999999465 ) ) ;
#297 = CIRCLE ( 'NONE', #3, 0.1181100000000000066 ) ;
#298 = CIRCLE ( 'NONE', #85, 0.02854350000000000637 ) ;
#299 = CIRCLE ( 'NONE', #71, 0.02952454724999999808 ) ;
#300 = DIRECTION ( 'NONE',  ( -1.000000000000000000, 0.0000000000000000000, 0.0000000000000000000 ) ) ;
#301 = PRODUCT_DEFINITION_CONTEXT ( 'detailed design', #288, 'design' ) ;
#302 = ORIENTED_EDGE ( 'NONE', *, *, #127, .T. ) ;
#303 = ORIENTED_EDGE ( 'NONE', *, *, #7, .T. ) ;
#304 = ADVANCED_FACE ( 'NONE', ( #30 ), #260, .F. ) ;
#305 = ADVANCED_FACE ( 'NONE', ( #19 ), #281, .T. ) ;
#306 = AXIS2_PLACEMENT_3D ( 'NONE', #329, #151, #33 ) ;
#307 = EDGE_LOOP ( 'NONE', ( #45, #254, #63, #96 ) ) ;
#308 = EDGE_CURVE ( 'NONE', #131, #14, #130, .T. ) ;
#309 = ORIENTED_EDGE ( 'NONE', *, *, #163, .F. ) ;
#310 = DIRECTION ( 'NONE',  ( -0.0000000000000000000, -0.0000000000000000000, -1.000000000000000000 ) ) ;
#311 = ORIENTED_EDGE ( 'NONE', *, *, #4, .F. ) ;
#312 = CARTESIAN_POINT ( 'NONE',  ( -0.02854350000000003759, 0.0000000000000000000, 0.0000000000000000000 ) ) ;
#313 = CLOSED_SHELL ( 'NONE', ( #61, #264, #178, #269, #358, #305, #341, #236, #95, #233, #220, #196, #304 ) ) ;
#314 = CARTESIAN_POINT ( 'NONE',  ( 0.0000000000000000000, 0.0000000000000000000, 2.244094000000000033 ) ) ;
#315 = CIRCLE ( 'NONE', #39, 0.02952454724999999808 ) ;
#316 = CARTESIAN_POINT ( 'NONE',  ( -0.1181100000000000066, 0.0000000000000000000, 2.229093999999999465 ) ) ;
#317 = LINE ( 'NONE', #349, #132 ) ;
#318 = FILL_AREA_STYLE ('',( #199 ) ) ;
#319 = CYLINDRICAL_SURFACE ( 'NONE', #155, 0.02952454724999999808 ) ;
#320 = CYLINDRICAL_SURFACE ( 'NONE', #66, 0.02952454724999999808 ) ;
#321 = AXIS2_PLACEMENT_3D ( 'NONE', #374, #214, #102 ) ;
#322 = DIRECTION ( 'NONE',  ( -0.0000000000000000000, -0.0000000000000000000, -1.000000000000000000 ) ) ;
#323 = FACE_OUTER_BOUND ( 'NONE', #74, .T. ) ;
#324 = DIMENSIONAL_EXPONENTS ( 1.000000000000000000, 0.0000000000000000000, 0.0000000000000000000, 0.0000000000000000000, 0.0000000000000000000, 0.0000000000000000000, 0.0000000000000000000 ) ;
#325 = DIRECTION ( 'NONE',  ( 1.000000000000000000, 0.0000000000000000000, 0.0000000000000000000 ) ) ;
#326 = CONICAL_SURFACE ( 'NONE', #195, 0.02952454724999999808, 0.1745329251994336694 ) ;
#327 =( GEOMETRIC_REPRESENTATION_CONTEXT ( 3 ) GLOBAL_UNCERTAINTY_ASSIGNED_CONTEXT ( ( #40 ) ) GLOBAL_UNIT_ASSIGNED_CONTEXT ( ( #104, #23, #248 ) ) REPRESENTATION_CONTEXT ( 'NONE', 'WORKASPACE' ) );
#328 = DIRECTION ( 'NONE',  ( -1.000000000000000000, 0.0000000000000000000, 0.0000000000000000000 ) ) ;
#329 = CARTESIAN_POINT ( 'NONE',  ( 0.0000000000000000000, 0.0000000000000000000, 0.0000000000000000000 ) ) ;
#330 = DIRECTION ( 'NONE',  ( -1.000000000000000000, 0.0000000000000000000, 0.0000000000000000000 ) ) ;
#331 = DIRECTION ( 'NONE',  ( 0.0000000000000000000, 0.0000000000000000000, -1.000000000000000000 ) ) ;
#332 = VECTOR ( 'NONE', #339, 39.37007874015748143 ) ;
#333 = ORIENTED_EDGE ( 'NONE', *, *, #262, .F. ) ;
#334 = ORIENTED_EDGE ( 'NONE', *, *, #191, .F. ) ;
#335 = PRODUCT_DEFINITION ( 'UNKNOWN', '', #337, #301 ) ;
#336 = CIRCLE ( 'NONE', #176, 0.1181100000000000066 ) ;
#337 = PRODUCT_DEFINITION_FORMATION_WITH_SPECIFIED_SOURCE ( 'ANY', '', #12, .NOT_KNOWN. ) ;
#338 = ORIENTED_EDGE ( 'NONE', *, *, #198, .F. ) ;
#339 = DIRECTION ( 'NONE',  ( -0.0000000000000000000, -0.0000000000000000000, -1.000000000000000000 ) ) ;
#340 = ORIENTED_EDGE ( 'NONE', *, *, #366, .T. ) ;
#341 = ADVANCED_FACE ( 'NONE', ( #252 ), #160, .T. ) ;
#342 = LINE ( 'NONE', #284, #350 ) ;
#343 = APPLICATION_PROTOCOL_DEFINITION ( 'draft international standard', 'automotive_design', 1998, #224 ) ;
#344 = FACE_BOUND ( 'NONE', #47, .T. ) ;
#345 = FACE_OUTER_BOUND ( 'NONE', #44, .T. ) ;
#346 = FACE_OUTER_BOUND ( 'NONE', #275, .T. ) ;
#347 = CARTESIAN_POINT ( 'NONE',  ( 0.1031100000000002570, 1.262733314600838667E-17, 2.244094000000000033 ) ) ;
#348 = EDGE_LOOP ( 'NONE', ( #311, #278, #165, #113 ) ) ;
#349 = CARTESIAN_POINT ( 'NONE',  ( 0.1181100000000000066, 1.446430334472939084E-17, 2.244094000000000033 ) ) ;
#350 = VECTOR ( 'NONE', #25, 39.37007874015748143 ) ;
#351 = PRESENTATION_LAYER_ASSIGNMENT (  '', '', ( #183 ) ) ;
#352 = APPLICATION_PROTOCOL_DEFINITION ( 'draft international standard', 'automotive_design', 1998, #288 ) ;
#353 = EDGE_CURVE ( 'NONE', #379, #103, #274, .T. ) ;
#354 = DIRECTION ( 'NONE',  ( 0.0000000000000000000, 0.0000000000000000000, -1.000000000000000000 ) ) ;
#355 = DIRECTION ( 'NONE',  ( -1.000000000000000000, 0.0000000000000000000, 0.0000000000000000000 ) ) ;
#356 =( NAMED_UNIT ( * ) PLANE_ANGLE_UNIT ( ) SI_UNIT ( $, .RADIAN. ) );
#357 = CARTESIAN_POINT ( 'NONE',  ( 0.0000000000000000000, 0.0000000000000000000, 0.0000000000000000000 ) ) ;
#358 = ADVANCED_FACE ( 'NONE', ( #346 ), #76, .T. ) ;
#359 = STYLED_ITEM ( 'NONE', ( #360 ), #276 ) ;
#360 = PRESENTATION_STYLE_ASSIGNMENT (( #205 ) ) ;
#361 = EDGE_CURVE ( 'NONE', #143, #186, #97, .T. ) ;
#362 =( NAMED_UNIT ( * ) SI_UNIT ( $, .STERADIAN. ) SOLID_ANGLE_UNIT ( ) );
#363 = ORIENTED_EDGE ( 'NONE', *, *, #150, .F. ) ;
#364 = ORIENTED_EDGE ( 'NONE', *, *, #185, .F. ) ;
#365 = ORIENTED_EDGE ( 'NONE', *, *, #353, .T. ) ;
#366 = EDGE_CURVE ( 'NONE', #219, #379, #80, .T. ) ;
#367 = CARTESIAN_POINT ( 'NONE',  ( 0.0000000000000000000, 0.0000000000000000000, 2.244094000000000033 ) ) ;
#368 = AXIS2_PLACEMENT_3D ( 'NONE', #36, #8, #208 ) ;
#369 = ORIENTED_EDGE ( 'NONE', *, *, #280, .T. ) ;
#370 = EDGE_LOOP ( 'NONE', ( #184, #125, #193, #211 ) ) ;
#371 = DIRECTION ( 'NONE',  ( 1.000000000000000000, 0.0000000000000000000, -0.0000000000000000000 ) ) ;
#372 = LINE ( 'NONE', #291, #21 ) ;
#373 = EDGE_CURVE ( 'NONE', #190, #84, #315, .T. ) ;
#374 = CARTESIAN_POINT ( 'NONE',  ( 0.0000000000000000000, 0.0000000000000000000, 2.244094000000000033 ) ) ;
#375 = DIRECTION ( 'NONE',  ( -0.0000000000000000000, -0.0000000000000000000, -1.000000000000000000 ) ) ;
#376 = COLOUR_RGB ( '',0.7921568627450980005, 0.8196078431372548767, 0.9333333333333333481 ) ;
#377 = SURFACE_STYLE_USAGE ( .BOTH. , #139 ) ;
#378 = DIRECTION ( 'NONE',  ( -0.0000000000000000000, -0.0000000000000000000, -1.000000000000000000 ) ) ;
#379 = VERTEX_POINT ( 'NONE', #316 ) ;
ENDSEC;
END-ISO-10303-21;
