ISO-10303-21;
HEADER;
FILE_DESCRIPTION (( 'STEP AP214' ),
    '1' );
FILE_NAME ('59567.STEP',
    '2023-07-24T15:11:34',
    ( '' ),
    ( '' ),
    'SwSTEP 2.0',
    'SolidWorks 2023',
    '' );
FILE_SCHEMA (( 'AUTOMOTIVE_DESIGN' ));
ENDSEC;

DATA;
#1 =( NAMED_UNIT ( * ) SI_UNIT ( $, .STERADIAN. ) SOLID_ANGLE_UNIT ( ) );
#2 = EDGE_CURVE ( 'NONE', #119, #252, #63, .T. ) ;
#3 = EDGE_LOOP ( 'NONE', ( #151, #233, #32, #338 ) ) ;
#4 = FACE_OUTER_BOUND ( 'NONE', #370, .T. ) ;
#5 = UNCERTAINTY_MEASURE_WITH_UNIT (LENGTH_MEASURE( 1.000000000000000082E-05 ), #297, 'distance_accuracy_value', 'NONE');
#6 = DIRECTION ( 'NONE',  ( -1.895813576284393923E-16, 1.000000000000000000, -0.000000000000000000 ) ) ;
#7 = DIRECTION ( 'NONE',  ( 0.000000000000000000, 0.000000000000000000, -1.000000000000000000 ) ) ;
#8 = MECHANICAL_DESIGN_GEOMETRIC_PRESENTATION_REPRESENTATION (  '', ( #250 ), #278 ) ;
#9 = LINE ( 'NONE', #231, #229 ) ;
#10 = DIRECTION ( 'NONE',  ( 0.000000000000000000, -0.000000000000000000, 1.000000000000000000 ) ) ;
#11 = ORIENTED_EDGE ( 'NONE', *, *, #204, .F. ) ;
#12 = EDGE_CURVE ( 'NONE', #60, #119, #366, .T. ) ;
#13 = SURFACE_SIDE_STYLE ('',( #68 ) ) ;
#14 =( NAMED_UNIT ( * ) SI_UNIT ( $, .STERADIAN. ) SOLID_ANGLE_UNIT ( ) );
#15 = SURFACE_SIDE_STYLE ('',( #181 ) ) ;
#16 = AXIS2_PLACEMENT_3D ( 'NONE', #228, #344, #309 ) ;
#17 = PRESENTATION_LAYER_ASSIGNMENT (  '', '', ( #142 ) ) ;
#18 = PRODUCT_DEFINITION ( 'UNKNOWN', '', #300, #196 ) ;
#19 = CARTESIAN_POINT ( 'NONE',  ( 0.000000000000000000, 0.000000000000000000, 0.000000000000000000 ) ) ;
#20 = DIRECTION ( 'NONE',  ( 0.000000000000000000, -1.000000000000000000, -0.000000000000000000 ) ) ;
#21 =( GEOMETRIC_REPRESENTATION_CONTEXT ( 3 ) GLOBAL_UNCERTAINTY_ASSIGNED_CONTEXT ( ( #255 ) ) GLOBAL_UNIT_ASSIGNED_CONTEXT ( ( #57, #168, #280 ) ) REPRESENTATION_CONTEXT ( 'NONE', 'WORKASPACE' ) );
#22 = EDGE_CURVE ( 'NONE', #252, #185, #330, .T. ) ;
#23 = CARTESIAN_POINT ( 'NONE',  ( 0.000000000000000000, 1.000000000000000000, 0.000000000000000000 ) ) ;
#24 = PRESENTATION_STYLE_ASSIGNMENT (( #328 ) ) ;
#25 = DIRECTION ( 'NONE',  ( -1.000000000000000000, 0.000000000000000000, 0.000000000000000000 ) ) ;
#26 = SURFACE_STYLE_USAGE ( .BOTH. , #144 ) ;
#27 = ORIENTED_EDGE ( 'NONE', *, *, #108, .T. ) ;
#28 = EDGE_CURVE ( 'NONE', #113, #308, #214, .T. ) ;
#29 = AXIS2_PLACEMENT_3D ( 'NONE', #346, #33, #226 ) ;
#30 = CARTESIAN_POINT ( 'NONE',  ( 0.000000000000000000, 0.000000000000000000, 0.000000000000000000 ) ) ;
#31 = VECTOR ( 'NONE', #120, 1000.000000000000000 ) ;
#32 = ORIENTED_EDGE ( 'NONE', *, *, #108, .F. ) ;
#33 = DIRECTION ( 'NONE',  ( -1.000000000000000000, 0.000000000000000000, 0.000000000000000000 ) ) ;
#34 = DIRECTION ( 'NONE',  ( -0.000000000000000000, -1.000000000000000000, -0.000000000000000000 ) ) ;
#35 = CARTESIAN_POINT ( 'NONE',  ( 0.000000000000000000, 1.000000000000000000, 0.000000000000000000 ) ) ;
#36 = UNCERTAINTY_MEASURE_WITH_UNIT (LENGTH_MEASURE( 1.000000000000000082E-05 ), #189, 'distance_accuracy_value', 'NONE');
#37 = ORIENTED_EDGE ( 'NONE', *, *, #340, .T. ) ;
#38 =( GEOMETRIC_REPRESENTATION_CONTEXT ( 3 ) GLOBAL_UNCERTAINTY_ASSIGNED_CONTEXT ( ( #227 ) ) GLOBAL_UNIT_ASSIGNED_CONTEXT ( ( #174, #131, #179 ) ) REPRESENTATION_CONTEXT ( 'NONE', 'WORKASPACE' ) );
#39 = ORIENTED_EDGE ( 'NONE', *, *, #2, .T. ) ;
#40 = APPLICATION_PROTOCOL_DEFINITION ( 'draft international standard', 'automotive_design', 1998, #112 ) ;
#41 = SURFACE_STYLE_USAGE ( .BOTH. , #13 ) ;
#42 = EDGE_CURVE ( 'NONE', #308, #147, #9, .T. ) ;
#43 = MECHANICAL_DESIGN_GEOMETRIC_PRESENTATION_REPRESENTATION (  '', ( #69 ), #287 ) ;
#44 =( NAMED_UNIT ( * ) PLANE_ANGLE_UNIT ( ) SI_UNIT ( $, .RADIAN. ) );
#45 = SURFACE_SIDE_STYLE ('',( #96 ) ) ;
#46 = FACE_OUTER_BOUND ( 'NONE', #59, .T. ) ;
#47 = EDGE_CURVE ( 'NONE', #318, #121, #55, .T. ) ;
#48 = AXIS2_PLACEMENT_3D ( 'NONE', #266, #271, #25 ) ;
#49 = AXIS2_PLACEMENT_3D ( 'NONE', #238, #323, #129 ) ;
#50 = DIRECTION ( 'NONE',  ( 0.000000000000000000, 0.000000000000000000, -1.000000000000000000 ) ) ;
#51 = ORIENTED_EDGE ( 'NONE', *, *, #146, .T. ) ;
#52 = PRODUCT_DEFINITION_SHAPE ( 'NONE', 'NONE',  #18 ) ;
#53 = CYLINDRICAL_SURFACE ( 'NONE', #219, 12.50000000000000000 ) ;
#54 = FILL_AREA_STYLE ('',( #183 ) ) ;
#55 = CIRCLE ( 'NONE', #84, 11.50000000000000000 ) ;
#56 = CARTESIAN_POINT ( 'NONE',  ( 0.000000000000000000, 1.000000000000000000, -12.50000000000000000 ) ) ;
#57 =( LENGTH_UNIT ( ) NAMED_UNIT ( * ) SI_UNIT ( .MILLI., .METRE. ) );
#58 = DIRECTION ( 'NONE',  ( -0.000000000000000000, -1.000000000000000000, -0.000000000000000000 ) ) ;
#59 = EDGE_LOOP ( 'NONE', ( #243, #267 ) ) ;
#60 = VERTEX_POINT ( 'NONE', #88 ) ;
#61 = ORIENTED_EDGE ( 'NONE', *, *, #2, .F. ) ;
#62 = DIRECTION ( 'NONE',  ( -1.000000000000000000, 0.000000000000000000, 0.000000000000000000 ) ) ;
#63 = LINE ( 'NONE', #249, #236 ) ;
#64 = STYLED_ITEM ( 'NONE', ( #322 ), #274 ) ;
#65 = DIRECTION ( 'NONE',  ( -1.000000000000000000, 0.000000000000000000, 0.000000000000000000 ) ) ;
#66 = EDGE_CURVE ( 'NONE', #119, #60, #155, .T. ) ;
#67 = CARTESIAN_POINT ( 'NONE',  ( -4.408728476930469278E-15, 124.9999999999999858, 0.000000000000000000 ) ) ;
#68 = SURFACE_STYLE_FILL_AREA ( #157 ) ;
#69 = STYLED_ITEM ( 'NONE', ( #95 ), #97 ) ;
#70 = CIRCLE ( 'NONE', #128, 1.000000000000000888 ) ;
#71 = DIRECTION ( 'NONE',  ( -1.895813576284393923E-16, 1.000000000000000000, 0.000000000000000000 ) ) ;
#72 = ORIENTED_EDGE ( 'NONE', *, *, #312, .F. ) ;
#73 = AXIS2_PLACEMENT_3D ( 'NONE', #281, #6, #223 ) ;
#74 = COLOUR_RGB ( '',0.7921568627450980005, 0.8196078431372548767, 0.9333333333333333481 ) ;
#75 = FACE_OUTER_BOUND ( 'NONE', #3, .T. ) ;
#76 = ADVANCED_FACE ( 'NONE', ( #209 ), #241, .F. ) ;
#77 = PRESENTATION_STYLE_ASSIGNMENT (( #303 ) ) ;
#78 = CARTESIAN_POINT ( 'NONE',  ( 12.49999999999999467, 124.9999999999999858, 1.530808498934191521E-15 ) ) ;
#79 = ADVANCED_FACE ( 'NONE', ( #46 ), #354, .T. ) ;
#80 = SURFACE_STYLE_FILL_AREA ( #111 ) ;
#81 = DIRECTION ( 'NONE',  ( -0.000000000000000000, -1.000000000000000000, -0.000000000000000000 ) ) ;
#82 = DIRECTION ( 'NONE',  ( 0.000000000000000000, 1.000000000000000000, 0.000000000000000000 ) ) ;
#83 = ORIENTED_EDGE ( 'NONE', *, *, #12, .F. ) ;
#84 = AXIS2_PLACEMENT_3D ( 'NONE', #225, #34, #254 ) ;
#85 = DIRECTION ( 'NONE',  ( -1.224646799147353454E-16, 0.000000000000000000, -1.000000000000000000 ) ) ;
#86 = UNCERTAINTY_MEASURE_WITH_UNIT (LENGTH_MEASURE( 1.000000000000000082E-05 ), #298, 'distance_accuracy_value', 'NONE');
#87 =( GEOMETRIC_REPRESENTATION_CONTEXT ( 3 ) GLOBAL_UNCERTAINTY_ASSIGNED_CONTEXT ( ( #36 ) ) GLOBAL_UNIT_ASSIGNED_CONTEXT ( ( #189, #170, #1 ) ) REPRESENTATION_CONTEXT ( 'NONE', 'WORKASPACE' ) );
#88 = CARTESIAN_POINT ( 'NONE',  ( 12.50000000000000000, 64.00000000000000000, 1.530808498934191916E-15 ) ) ;
#89 = DIRECTION ( 'NONE',  ( 1.895813576284393923E-16, -1.000000000000000000, 0.000000000000000000 ) ) ;
#90 = DIRECTION ( 'NONE',  ( -1.000000000000000000, 0.000000000000000000, 0.000000000000000000 ) ) ;
#91 =( LENGTH_UNIT ( ) NAMED_UNIT ( * ) SI_UNIT ( .MILLI., .METRE. ) );
#92 = ORIENTED_EDGE ( 'NONE', *, *, #204, .T. ) ;
#93 = FILL_AREA_STYLE_COLOUR ( '', #74 ) ;
#94 = CYLINDRICAL_SURFACE ( 'NONE', #345, 12.50000000000000000 ) ;
#95 = PRESENTATION_STYLE_ASSIGNMENT (( #242 ) ) ;
#96 = SURFACE_STYLE_FILL_AREA ( #130 ) ;
#97 = MANIFOLD_SOLID_BREP ( 'Revolve - Tool Body (Straight Shanked)', #319 ) ;
#98 = DIRECTION ( 'NONE',  ( 0.000000000000000000, 0.000000000000000000, -1.000000000000000000 ) ) ;
#99 = SURFACE_STYLE_USAGE ( .BOTH. , #45 ) ;
#100 = COLOUR_RGB ( '',1.000000000000000000, 0.000000000000000000, 0.000000000000000000 ) ;
#101 = AXIS2_PLACEMENT_3D ( 'NONE', #19, #175, #290 ) ;
#102 = FILL_AREA_STYLE_COLOUR ( '', #321 ) ;
#103 = MANIFOLD_SOLID_BREP ( 'Revolve - Cutting Edge', #342 ) ;
#104 = DIRECTION ( 'NONE',  ( -0.000000000000000000, -1.000000000000000000, -0.000000000000000000 ) ) ;
#105 = MECHANICAL_DESIGN_GEOMETRIC_PRESENTATION_REPRESENTATION (  '', ( #299 ), #38 ) ;
#106 = STYLED_ITEM ( 'NONE', ( #282 ), #268 ) ;
#107 = CARTESIAN_POINT ( 'NONE',  ( 1.530808498934191521E-15, 1.000000000000000000, 12.50000000000000000 ) ) ;
#108 = EDGE_CURVE ( 'NONE', #197, #147, #237, .T. ) ;
#109 =( NAMED_UNIT ( * ) PLANE_ANGLE_UNIT ( ) SI_UNIT ( $, .RADIAN. ) );
#110 = MECHANICAL_DESIGN_GEOMETRIC_PRESENTATION_REPRESENTATION (  '', ( #106 ), #21 ) ;
#111 = FILL_AREA_STYLE ('',( #313 ) ) ;
#112 = APPLICATION_CONTEXT ( 'automotive_design' ) ;
#113 = VERTEX_POINT ( 'NONE', #302 ) ;
#114 = CARTESIAN_POINT ( 'NONE',  ( 12.50000000000000000, 125.0000000000000000, 1.530808498934191916E-15 ) ) ;
#115 = ORIENTED_EDGE ( 'NONE', *, *, #248, .T. ) ;
#116 = ADVANCED_FACE ( 'NONE', ( #75 ), #53, .T. ) ;
#117 = PRESENTATION_LAYER_ASSIGNMENT (  '', '', ( #64 ) ) ;
#118 = DIRECTION ( 'NONE',  ( 1.000000000000000000, 1.895813576284393923E-16, 0.000000000000000000 ) ) ;
#119 = VERTEX_POINT ( 'NONE', #162 ) ;
#120 = DIRECTION ( 'NONE',  ( -1.895813576284393923E-16, 1.000000000000000000, -0.000000000000000000 ) ) ;
#121 = VERTEX_POINT ( 'NONE', #159 ) ;
#122 =( NAMED_UNIT ( * ) PLANE_ANGLE_UNIT ( ) SI_UNIT ( $, .RADIAN. ) );
#123 = ADVANCED_FACE ( 'NONE', ( #358 ), #362, .T. ) ;
#124 = PRESENTATION_STYLE_ASSIGNMENT (( #240 ) ) ;
#125 = CARTESIAN_POINT ( 'NONE',  ( -4.408728476930471644E-15, 125.0000000000000000, 0.000000000000000000 ) ) ;
#126 = STYLED_ITEM ( 'NONE', ( #77 ), #116 ) ;
#127 =( NAMED_UNIT ( * ) SI_UNIT ( $, .STERADIAN. ) SOLID_ANGLE_UNIT ( ) );
#128 = AXIS2_PLACEMENT_3D ( 'NONE', #232, #221, #85 ) ;
#129 = DIRECTION ( 'NONE',  ( 0.000000000000000000, 0.000000000000000000, -1.000000000000000000 ) ) ;
#130 = FILL_AREA_STYLE ('',( #93 ) ) ;
#131 =( NAMED_UNIT ( * ) PLANE_ANGLE_UNIT ( ) SI_UNIT ( $, .RADIAN. ) );
#132 = FILL_AREA_STYLE ('',( #102 ) ) ;
#133 = EDGE_LOOP ( 'NONE', ( #192, #92, #171, #61 ) ) ;
#134 = ADVANCED_FACE ( 'NONE', ( #247 ), #163, .T. ) ;
#135 = PLANE ( 'NONE',  #352 ) ;
#136 =( LENGTH_UNIT ( ) NAMED_UNIT ( * ) SI_UNIT ( .MILLI., .METRE. ) );
#137 = AXIS2_PLACEMENT_3D ( 'NONE', #30, #307, #7 ) ;
#138 = MECHANICAL_DESIGN_GEOMETRIC_PRESENTATION_REPRESENTATION (  '', ( #216 ), #87 ) ;
#139 = DIRECTION ( 'NONE',  ( 0.000000000000000000, 0.000000000000000000, -1.000000000000000000 ) ) ;
#140 = CARTESIAN_POINT ( 'NONE',  ( -12.50000000000001066, 125.0000000000000000, 0.000000000000000000 ) ) ;
#141 = EDGE_LOOP ( 'NONE', ( #11, #348, #39, #213 ) ) ;
#142 = STYLED_ITEM ( 'NONE', ( #24 ), #123 ) ;
#143 = ORIENTED_EDGE ( 'NONE', *, *, #146, .F. ) ;
#144 = SURFACE_SIDE_STYLE ('',( #284 ) ) ;
#145 = UNCERTAINTY_MEASURE_WITH_UNIT (LENGTH_MEASURE( 1.000000000000000082E-05 ), #259, 'distance_accuracy_value', 'NONE');
#146 = EDGE_CURVE ( 'NONE', #147, #197, #199, .T. ) ;
#147 = VERTEX_POINT ( 'NONE', #107 ) ;
#148 = DIRECTION ( 'NONE',  ( -0.000000000000000000, -1.000000000000000000, -0.000000000000000000 ) ) ;
#149 = ORIENTED_EDGE ( 'NONE', *, *, #191, .F. ) ;
#150 = PRESENTATION_LAYER_ASSIGNMENT (  '', '', ( #250 ) ) ;
#151 = ORIENTED_EDGE ( 'NONE', *, *, #28, .T. ) ;
#152 = ADVANCED_FACE ( 'NONE', ( #246 ), #135, .F. ) ;
#153 = FILL_AREA_STYLE_COLOUR ( '', #180 ) ;
#154 = APPLICATION_PROTOCOL_DEFINITION ( 'draft international standard', 'automotive_design', 1998, #311 ) ;
#155 = CIRCLE ( 'NONE', #264, 12.49999999999999289 ) ;
#156 = FILL_AREA_STYLE_COLOUR ( '', #100 ) ;
#157 = FILL_AREA_STYLE ('',( #153 ) ) ;
#158 =( NAMED_UNIT ( * ) PLANE_ANGLE_UNIT ( ) SI_UNIT ( $, .RADIAN. ) );
#159 = CARTESIAN_POINT ( 'NONE',  ( 0.000000000000000000, 0.000000000000000000, -11.50000000000000000 ) ) ;
#160 =( GEOMETRIC_REPRESENTATION_CONTEXT ( 3 ) GLOBAL_UNCERTAINTY_ASSIGNED_CONTEXT ( ( #222 ) ) GLOBAL_UNIT_ASSIGNED_CONTEXT ( ( #136, #109, #244 ) ) REPRESENTATION_CONTEXT ( 'NONE', 'WORKASPACE' ) );
#161 =( GEOMETRIC_REPRESENTATION_CONTEXT ( 3 ) GLOBAL_UNCERTAINTY_ASSIGNED_CONTEXT ( ( #285 ) ) GLOBAL_UNIT_ASSIGNED_CONTEXT ( ( #91, #122, #234 ) ) REPRESENTATION_CONTEXT ( 'NONE', 'WORKASPACE' ) );
#162 = CARTESIAN_POINT ( 'NONE',  ( -12.49999999999998757, 64.00000000000000000, 0.000000000000000000 ) ) ;
#163 = CYLINDRICAL_SURFACE ( 'NONE', #48, 12.50000000000000000 ) ;
#164 = LINE ( 'NONE', #78, #31 ) ;
#165 = ORIENTED_EDGE ( 'NONE', *, *, #66, .F. ) ;
#166 = FACE_OUTER_BOUND ( 'NONE', #316, .T. ) ;
#167 = DIRECTION ( 'NONE',  ( -1.895813576284393923E-16, 1.000000000000000000, -0.000000000000000000 ) ) ;
#168 =( NAMED_UNIT ( * ) PLANE_ANGLE_UNIT ( ) SI_UNIT ( $, .RADIAN. ) );
#169 = EDGE_LOOP ( 'NONE', ( #198, #277, #37, #143 ) ) ;
#170 =( NAMED_UNIT ( * ) PLANE_ANGLE_UNIT ( ) SI_UNIT ( $, .RADIAN. ) );
#171 = ORIENTED_EDGE ( 'NONE', *, *, #22, .F. ) ;
#172 =( GEOMETRIC_REPRESENTATION_CONTEXT ( 3 ) GLOBAL_UNCERTAINTY_ASSIGNED_CONTEXT ( ( #86 ) ) GLOBAL_UNIT_ASSIGNED_CONTEXT ( ( #298, #363, #273 ) ) REPRESENTATION_CONTEXT ( 'NONE', 'WORKASPACE' ) );
#173 = ORIENTED_EDGE ( 'NONE', *, *, #22, .T. ) ;
#174 =( LENGTH_UNIT ( ) NAMED_UNIT ( * ) SI_UNIT ( .MILLI., .METRE. ) );
#175 = DIRECTION ( 'NONE',  ( 0.000000000000000000, 0.000000000000000000, 1.000000000000000000 ) ) ;
#176 = CARTESIAN_POINT ( 'NONE',  ( 0.000000000000000000, 0.000000000000000000, 0.000000000000000000 ) ) ;
#177 = AXIS2_PLACEMENT_3D ( 'NONE', #339, #81, #190 ) ;
#178 = VECTOR ( 'NONE', #355, 1000.000000000000000 ) ;
#179 =( NAMED_UNIT ( * ) SI_UNIT ( $, .STERADIAN. ) SOLID_ANGLE_UNIT ( ) );
#180 = COLOUR_RGB ( '',1.000000000000000000, 0.000000000000000000, 0.000000000000000000 ) ;
#181 = SURFACE_STYLE_FILL_AREA ( #324 ) ;
#182 = EDGE_CURVE ( 'NONE', #197, #121, #184, .T. ) ;
#183 = FILL_AREA_STYLE_COLOUR ( '', #326 ) ;
#184 = CIRCLE ( 'NONE', #29, 1.000000000000000888 ) ;
#185 = VERTEX_POINT ( 'NONE', #114 ) ;
#186 = CARTESIAN_POINT ( 'NONE',  ( 0.000000000000000000, 0.000000000000000000, 0.000000000000000000 ) ) ;
#187 = CARTESIAN_POINT ( 'NONE',  ( 0.000000000000000000, 0.000000000000000000, 0.000000000000000000 ) ) ;
#188 = AXIS2_PLACEMENT_3D ( 'NONE', #224, #82, #10 ) ;
#189 =( LENGTH_UNIT ( ) NAMED_UNIT ( * ) SI_UNIT ( .MILLI., .METRE. ) );
#190 = DIRECTION ( 'NONE',  ( 0.000000000000000000, 0.000000000000000000, -1.000000000000000000 ) ) ;
#191 = EDGE_CURVE ( 'NONE', #121, #318, #360, .T. ) ;
#192 = ORIENTED_EDGE ( 'NONE', *, *, #66, .T. ) ;
#193 = SURFACE_SIDE_STYLE ('',( #80 ) ) ;
#194 = CARTESIAN_POINT ( 'NONE',  ( 7.155734338404330842E-15, 64.00000000000000000, 0.000000000000000000 ) ) ;
#195 = FILL_AREA_STYLE ('',( #257 ) ) ;
#196 = PRODUCT_DEFINITION_CONTEXT ( 'detailed design', #311, 'design' ) ;
#197 = VERTEX_POINT ( 'NONE', #56 ) ;
#198 = ORIENTED_EDGE ( 'NONE', *, *, #42, .F. ) ;
#199 = CIRCLE ( 'NONE', #293, 12.50000000000000000 ) ;
#200 = CIRCLE ( 'NONE', #327, 12.50000000000000533 ) ;
#201 = DIRECTION ( 'NONE',  ( -1.895813576284393923E-16, 1.000000000000000000, -0.000000000000000000 ) ) ;
#202 = PRESENTATION_STYLE_ASSIGNMENT (( #99 ) ) ;
#203 = CARTESIAN_POINT ( 'NONE',  ( 0.000000000000000000, 1.000000000000000000, 0.000000000000000000 ) ) ;
#204 = EDGE_CURVE ( 'NONE', #60, #185, #164, .T. ) ;
#205 =( LENGTH_UNIT ( ) NAMED_UNIT ( * ) SI_UNIT ( .MILLI., .METRE. ) );
#206 = LINE ( 'NONE', #260, #178 ) ;
#207 = PRESENTATION_LAYER_ASSIGNMENT (  '', '', ( #69 ) ) ;
#208 = CIRCLE ( 'NONE', #49, 12.50000000000000000 ) ;
#209 = FACE_OUTER_BOUND ( 'NONE', #276, .T. ) ;
#210 = ADVANCED_FACE ( 'NONE', ( #275 ), #253, .T. ) ;
#211 = SURFACE_SIDE_STYLE ('',( #291 ) ) ;
#212 = SURFACE_STYLE_FILL_AREA ( #334 ) ;
#213 = ORIENTED_EDGE ( 'NONE', *, *, #320, .F. ) ;
#214 = CIRCLE ( 'NONE', #177, 12.50000000000000000 ) ;
#215 = PRESENTATION_LAYER_ASSIGNMENT (  '', '', ( #299 ) ) ;
#216 = STYLED_ITEM ( 'NONE', ( #315 ), #210 ) ;
#217 = DIRECTION ( 'NONE',  ( -0.000000000000000000, -1.000000000000000000, -0.000000000000000000 ) ) ;
#218 = SURFACE_STYLE_FILL_AREA ( #54 ) ;
#219 = AXIS2_PLACEMENT_3D ( 'NONE', #187, #336, #50 ) ;
#220 = AXIS2_PLACEMENT_3D ( 'NONE', #35, #148, #368 ) ;
#221 = DIRECTION ( 'NONE',  ( 1.000000000000000000, 0.000000000000000000, -1.224646799147353207E-16 ) ) ;
#222 = UNCERTAINTY_MEASURE_WITH_UNIT (LENGTH_MEASURE( 1.000000000000000082E-05 ), #136, 'distance_accuracy_value', 'NONE');
#223 = DIRECTION ( 'NONE',  ( -1.000000000000000000, 0.000000000000000000, 0.000000000000000000 ) ) ;
#224 = CARTESIAN_POINT ( 'NONE',  ( 0.000000000000000000, 64.00000000000000000, 0.000000000000000000 ) ) ;
#225 = CARTESIAN_POINT ( 'NONE',  ( 0.000000000000000000, 0.000000000000000000, 0.000000000000000000 ) ) ;
#226 = DIRECTION ( 'NONE',  ( 0.000000000000000000, 0.000000000000000000, 1.000000000000000000 ) ) ;
#227 = UNCERTAINTY_MEASURE_WITH_UNIT (LENGTH_MEASURE( 1.000000000000000082E-05 ), #174, 'distance_accuracy_value', 'NONE');
#228 = CARTESIAN_POINT ( 'NONE',  ( -4.408728476930471644E-15, 125.0000000000000000, 0.000000000000000000 ) ) ;
#229 = VECTOR ( 'NONE', #58, 1000.000000000000000 ) ;
#230 = MECHANICAL_DESIGN_GEOMETRIC_PRESENTATION_REPRESENTATION (  '', ( #126 ), #172 ) ;
#231 = CARTESIAN_POINT ( 'NONE',  ( 1.530808498934191521E-15, 0.000000000000000000, 12.50000000000000000 ) ) ;
#232 = CARTESIAN_POINT ( 'NONE',  ( 1.408343819019456176E-15, 1.000000000000000000, 11.50000000000000000 ) ) ;
#233 = ORIENTED_EDGE ( 'NONE', *, *, #42, .T. ) ;
#234 =( NAMED_UNIT ( * ) SI_UNIT ( $, .STERADIAN. ) SOLID_ANGLE_UNIT ( ) );
#235 = CARTESIAN_POINT ( 'NONE',  ( 0.000000000000000000, 1.000000000000000000, 0.000000000000000000 ) ) ;
#236 = VECTOR ( 'NONE', #167, 1000.000000000000000 ) ;
#237 = CIRCLE ( 'NONE', #310, 12.50000000000000000 ) ;
#238 = CARTESIAN_POINT ( 'NONE',  ( 0.000000000000000000, 64.00000000000000000, 0.000000000000000000 ) ) ;
#239 = CARTESIAN_POINT ( 'NONE',  ( 1.469576158976823947E-15, 0.000000000000000000, 11.50000000000000000 ) ) ;
#240 = SURFACE_STYLE_USAGE ( .BOTH. , #15 ) ;
#241 = PLANE ( 'NONE',  #331 ) ;
#242 = SURFACE_STYLE_USAGE ( .BOTH. , #211 ) ;
#243 = ORIENTED_EDGE ( 'NONE', *, *, #191, .T. ) ;
#244 =( NAMED_UNIT ( * ) SI_UNIT ( $, .STERADIAN. ) SOLID_ANGLE_UNIT ( ) );
#245 = PRODUCT_RELATED_PRODUCT_CATEGORY ( 'part', '', ( #272 ) ) ;
#246 = FACE_OUTER_BOUND ( 'NONE', #365, .T. ) ;
#247 = FACE_OUTER_BOUND ( 'NONE', #141, .T. ) ;
#248 = EDGE_CURVE ( 'NONE', #147, #318, #70, .T. ) ;
#249 = CARTESIAN_POINT ( 'NONE',  ( -12.50000000000000533, 124.9999999999999858, 0.000000000000000000 ) ) ;
#250 = STYLED_ITEM ( 'NONE', ( #124 ), #79 ) ;
#251 =( GEOMETRIC_REPRESENTATION_CONTEXT ( 3 ) GLOBAL_UNCERTAINTY_ASSIGNED_CONTEXT ( ( #347 ) ) GLOBAL_UNIT_ASSIGNED_CONTEXT ( ( #205, #44, #289 ) ) REPRESENTATION_CONTEXT ( 'NONE', 'WORKASPACE' ) );
#252 = VERTEX_POINT ( 'NONE', #140 ) ;
#253 = PLANE ( 'NONE',  #188 ) ;
#254 = DIRECTION ( 'NONE',  ( 0.000000000000000000, 0.000000000000000000, -1.000000000000000000 ) ) ;
#255 = UNCERTAINTY_MEASURE_WITH_UNIT (LENGTH_MEASURE( 1.000000000000000082E-05 ), #57, 'distance_accuracy_value', 'NONE');
#256 = ORIENTED_EDGE ( 'NONE', *, *, #248, .F. ) ;
#257 = FILL_AREA_STYLE_COLOUR ( '', #288 ) ;
#258 = ORIENTED_EDGE ( 'NONE', *, *, #28, .F. ) ;
#259 =( LENGTH_UNIT ( ) NAMED_UNIT ( * ) SI_UNIT ( .MILLI., .METRE. ) );
#260 = CARTESIAN_POINT ( 'NONE',  ( 0.000000000000000000, 0.000000000000000000, -12.50000000000000000 ) ) ;
#261 = PRESENTATION_LAYER_ASSIGNMENT (  '', '', ( #126 ) ) ;
#262 = SHAPE_DEFINITION_REPRESENTATION ( #52, #351 ) ;
#263 = DIRECTION ( 'NONE',  ( -1.000000000000000000, -1.895813576284393923E-16, 0.000000000000000000 ) ) ;
#264 = AXIS2_PLACEMENT_3D ( 'NONE', #194, #314, #90 ) ;
#265 = PRESENTATION_LAYER_ASSIGNMENT (  '', '', ( #106 ) ) ;
#266 = CARTESIAN_POINT ( 'NONE',  ( -4.408728476930469278E-15, 124.9999999999999858, 0.000000000000000000 ) ) ;
#267 = ORIENTED_EDGE ( 'NONE', *, *, #47, .T. ) ;
#268 = ADVANCED_FACE ( 'NONE', ( #166 ), #361, .T. ) ;
#269 = SURFACE_SIDE_STYLE ('',( #212 ) ) ;
#270 = MECHANICAL_DESIGN_GEOMETRIC_PRESENTATION_REPRESENTATION (  '', ( #142 ), #160 ) ;
#271 = DIRECTION ( 'NONE',  ( -1.895813576284393923E-16, 1.000000000000000000, -0.000000000000000000 ) ) ;
#272 = PRODUCT ( '59567', '59567', '', ( #296 ) ) ;
#273 =( NAMED_UNIT ( * ) SI_UNIT ( $, .STERADIAN. ) SOLID_ANGLE_UNIT ( ) );
#274 = ADVANCED_FACE ( 'NONE', ( #4 ), #332, .T. ) ;
#275 = FACE_OUTER_BOUND ( 'NONE', #349, .T. ) ;
#276 = EDGE_LOOP ( 'NONE', ( #165, #83 ) ) ;
#277 = ORIENTED_EDGE ( 'NONE', *, *, #312, .T. ) ;
#278 =( GEOMETRIC_REPRESENTATION_CONTEXT ( 3 ) GLOBAL_UNCERTAINTY_ASSIGNED_CONTEXT ( ( #145 ) ) GLOBAL_UNIT_ASSIGNED_CONTEXT ( ( #259, #158, #14 ) ) REPRESENTATION_CONTEXT ( 'NONE', 'WORKASPACE' ) );
#279 = PRESENTATION_LAYER_ASSIGNMENT (  '', '', ( #216 ) ) ;
#280 =( NAMED_UNIT ( * ) SI_UNIT ( $, .STERADIAN. ) SOLID_ANGLE_UNIT ( ) );
#281 = CARTESIAN_POINT ( 'NONE',  ( 7.155734338404330842E-15, 64.00000000000000000, 0.000000000000000000 ) ) ;
#282 = PRESENTATION_STYLE_ASSIGNMENT (( #341 ) ) ;
#283 = ORIENTED_EDGE ( 'NONE', *, *, #47, .F. ) ;
#284 = SURFACE_STYLE_FILL_AREA ( #195 ) ;
#285 = UNCERTAINTY_MEASURE_WITH_UNIT (LENGTH_MEASURE( 1.000000000000000082E-05 ), #91, 'distance_accuracy_value', 'NONE');
#286 = ORIENTED_EDGE ( 'NONE', *, *, #320, .T. ) ;
#287 =( GEOMETRIC_REPRESENTATION_CONTEXT ( 3 ) GLOBAL_UNCERTAINTY_ASSIGNED_CONTEXT ( ( #5 ) ) GLOBAL_UNIT_ASSIGNED_CONTEXT ( ( #297, #357, #127 ) ) REPRESENTATION_CONTEXT ( 'NONE', 'WORKASPACE' ) );
#288 = COLOUR_RGB ( '',1.000000000000000000, 0.000000000000000000, 0.000000000000000000 ) ;
#289 =( NAMED_UNIT ( * ) SI_UNIT ( $, .STERADIAN. ) SOLID_ANGLE_UNIT ( ) );
#290 = DIRECTION ( 'NONE',  ( 1.000000000000000000, 0.000000000000000000, 0.000000000000000000 ) ) ;
#291 = SURFACE_STYLE_FILL_AREA ( #132 ) ;
#292 = DIRECTION ( 'NONE',  ( 0.000000000000000000, 0.000000000000000000, -1.000000000000000000 ) ) ;
#293 = AXIS2_PLACEMENT_3D ( 'NONE', #23, #104, #139 ) ;
#294 = MECHANICAL_DESIGN_GEOMETRIC_PRESENTATION_REPRESENTATION (  '', ( #64 ), #161 ) ;
#295 = CARTESIAN_POINT ( 'NONE',  ( 1.530808498934191521E-15, 64.00000000000000000, 12.50000000000000000 ) ) ;
#296 = PRODUCT_CONTEXT ( 'NONE', #112, 'mechanical' ) ;
#297 =( LENGTH_UNIT ( ) NAMED_UNIT ( * ) SI_UNIT ( .MILLI., .METRE. ) );
#298 =( LENGTH_UNIT ( ) NAMED_UNIT ( * ) SI_UNIT ( .MILLI., .METRE. ) );
#299 = STYLED_ITEM ( 'NONE', ( #202 ), #103 ) ;
#300 = PRODUCT_DEFINITION_FORMATION_WITH_SPECIFIED_SOURCE ( 'ANY', '', #272, .NOT_KNOWN. ) ;
#301 = ORIENTED_EDGE ( 'NONE', *, *, #182, .F. ) ;
#302 = CARTESIAN_POINT ( 'NONE',  ( 0.000000000000000000, 64.00000000000000000, -12.50000000000000000 ) ) ;
#303 = SURFACE_STYLE_USAGE ( .BOTH. , #364 ) ;
#304 = AXIS2_PLACEMENT_3D ( 'NONE', #176, #20, #292 ) ;
#305 = DIRECTION ( 'NONE',  ( 0.000000000000000000, 0.000000000000000000, -1.000000000000000000 ) ) ;
#306 = COLOUR_RGB ( '',1.000000000000000000, 0.000000000000000000, 0.000000000000000000 ) ;
#307 = DIRECTION ( 'NONE',  ( -0.000000000000000000, -1.000000000000000000, -0.000000000000000000 ) ) ;
#308 = VERTEX_POINT ( 'NONE', #295 ) ;
#309 = DIRECTION ( 'NONE',  ( -1.000000000000000000, 0.000000000000000000, 0.000000000000000000 ) ) ;
#310 = AXIS2_PLACEMENT_3D ( 'NONE', #235, #350, #333 ) ;
#311 = APPLICATION_CONTEXT ( 'automotive_design' ) ;
#312 = EDGE_CURVE ( 'NONE', #308, #113, #208, .T. ) ;
#313 = FILL_AREA_STYLE_COLOUR ( '', #306 ) ;
#314 = DIRECTION ( 'NONE',  ( -1.895813576284393923E-16, 1.000000000000000000, -0.000000000000000000 ) ) ;
#315 = PRESENTATION_STYLE_ASSIGNMENT (( #26 ) ) ;
#316 = EDGE_LOOP ( 'NONE', ( #256, #51, #335, #283 ) ) ;
#317 = FACE_OUTER_BOUND ( 'NONE', #133, .T. ) ;
#318 = VERTEX_POINT ( 'NONE', #239 ) ;
#319 = CLOSED_SHELL ( 'NONE', ( #329, #76, #134, #152 ) ) ;
#320 = EDGE_CURVE ( 'NONE', #185, #252, #200, .T. ) ;
#321 = COLOUR_RGB ( '',0.7921568627450980005, 0.8196078431372548767, 0.9333333333333333481 ) ;
#322 = PRESENTATION_STYLE_ASSIGNMENT (( #41 ) ) ;
#323 = DIRECTION ( 'NONE',  ( -0.000000000000000000, -1.000000000000000000, -0.000000000000000000 ) ) ;
#324 = FILL_AREA_STYLE ('',( #156 ) ) ;
#325 = CARTESIAN_POINT ( 'NONE',  ( 7.155734338404329264E-15, 64.00000000000000000, 0.000000000000000000 ) ) ;
#326 = COLOUR_RGB ( '',1.000000000000000000, 0.000000000000000000, 0.000000000000000000 ) ;
#327 = AXIS2_PLACEMENT_3D ( 'NONE', #125, #353, #65 ) ;
#328 = SURFACE_STYLE_USAGE ( .BOTH. , #269 ) ;
#329 = ADVANCED_FACE ( 'NONE', ( #317 ), #94, .T. ) ;
#330 = CIRCLE ( 'NONE', #16, 12.50000000000000533 ) ;
#331 = AXIS2_PLACEMENT_3D ( 'NONE', #325, #71, #263 ) ;
#332 = TOROIDAL_SURFACE ( 'NONE', #369, 11.50000000000000000, 1.000000000000000444 ) ;
#333 = DIRECTION ( 'NONE',  ( 0.000000000000000000, 0.000000000000000000, -1.000000000000000000 ) ) ;
#334 = FILL_AREA_STYLE ('',( #337 ) ) ;
#335 = ORIENTED_EDGE ( 'NONE', *, *, #182, .T. ) ;
#336 = DIRECTION ( 'NONE',  ( -0.000000000000000000, -1.000000000000000000, -0.000000000000000000 ) ) ;
#337 = FILL_AREA_STYLE_COLOUR ( '', #343 ) ;
#338 = ORIENTED_EDGE ( 'NONE', *, *, #340, .F. ) ;
#339 = CARTESIAN_POINT ( 'NONE',  ( 0.000000000000000000, 64.00000000000000000, 0.000000000000000000 ) ) ;
#340 = EDGE_CURVE ( 'NONE', #113, #197, #206, .T. ) ;
#341 = SURFACE_STYLE_USAGE ( .BOTH. , #193 ) ;
#342 = CLOSED_SHELL ( 'NONE', ( #116, #274, #79, #268, #123, #210 ) ) ;
#343 = COLOUR_RGB ( '',1.000000000000000000, 0.000000000000000000, 0.000000000000000000 ) ;
#344 = DIRECTION ( 'NONE',  ( -1.895813576284393923E-16, 1.000000000000000000, -0.000000000000000000 ) ) ;
#345 = AXIS2_PLACEMENT_3D ( 'NONE', #67, #201, #62 ) ;
#346 = CARTESIAN_POINT ( 'NONE',  ( 0.000000000000000000, 1.000000000000000000, -11.50000000000000000 ) ) ;
#347 = UNCERTAINTY_MEASURE_WITH_UNIT (LENGTH_MEASURE( 1.000000000000000082E-05 ), #205, 'distance_accuracy_value', 'NONE');
#348 = ORIENTED_EDGE ( 'NONE', *, *, #12, .T. ) ;
#349 = EDGE_LOOP ( 'NONE', ( #258, #72 ) ) ;
#350 = DIRECTION ( 'NONE',  ( -0.000000000000000000, -1.000000000000000000, -0.000000000000000000 ) ) ;
#351 = ADVANCED_BREP_SHAPE_REPRESENTATION ( '59567', ( #103, #97, #101 ), #251 ) ;
#352 = AXIS2_PLACEMENT_3D ( 'NONE', #359, #89, #118 ) ;
#353 = DIRECTION ( 'NONE',  ( -1.895813576284393923E-16, 1.000000000000000000, -0.000000000000000000 ) ) ;
#354 = PLANE ( 'NONE',  #304 ) ;
#355 = DIRECTION ( 'NONE',  ( -0.000000000000000000, -1.000000000000000000, -0.000000000000000000 ) ) ;
#356 = DIRECTION ( 'NONE',  ( -0.000000000000000000, -1.000000000000000000, -0.000000000000000000 ) ) ;
#357 =( NAMED_UNIT ( * ) PLANE_ANGLE_UNIT ( ) SI_UNIT ( $, .RADIAN. ) );
#358 = FACE_OUTER_BOUND ( 'NONE', #169, .T. ) ;
#359 = CARTESIAN_POINT ( 'NONE',  ( 12.50000000000000000, 125.0000000000000000, 0.000000000000000000 ) ) ;
#360 = CIRCLE ( 'NONE', #137, 11.50000000000000000 ) ;
#361 = TOROIDAL_SURFACE ( 'NONE', #220, 11.50000000000000000, 1.000000000000000444 ) ;
#362 = CYLINDRICAL_SURFACE ( 'NONE', #367, 12.50000000000000000 ) ;
#363 =( NAMED_UNIT ( * ) PLANE_ANGLE_UNIT ( ) SI_UNIT ( $, .RADIAN. ) );
#364 = SURFACE_SIDE_STYLE ('',( #218 ) ) ;
#365 = EDGE_LOOP ( 'NONE', ( #173, #286 ) ) ;
#366 = CIRCLE ( 'NONE', #73, 12.49999999999999289 ) ;
#367 = AXIS2_PLACEMENT_3D ( 'NONE', #186, #217, #305 ) ;
#368 = DIRECTION ( 'NONE',  ( 0.000000000000000000, 0.000000000000000000, -1.000000000000000000 ) ) ;
#369 = AXIS2_PLACEMENT_3D ( 'NONE', #203, #356, #98 ) ;
#370 = EDGE_LOOP ( 'NONE', ( #27, #115, #149, #301 ) ) ;
ENDSEC;
END-ISO-10303-21;
