ISO-10303-21;
HEADER;
FILE_DESCRIPTION (( 'STEP AP214' ),
    '1' );
FILE_NAME ('Micro_BMR-030-2.STEP',
    '2021-09-03T14:02:34',
    ( '' ),
    ( '' ),
    'SwSTEP 2.0',
    'SolidWorks 2020',
    '' );
FILE_SCHEMA (( 'AUTOMOTIVE_DESIGN' ));
ENDSEC;

DATA;
#1 = DIRECTION ( 'NONE',  ( -1.000000000000000000, 0.0000000000000000000, 0.0000000000000000000 ) ) ;
#2 = EDGE_CURVE ( 'NONE', #245, #101, #214, .T. ) ;
#3 = CARTESIAN_POINT ( 'NONE',  ( -0.04750000000000064587, 0.0000000000000000000, 1.500000000000000222 ) ) ;
#4 = CARTESIAN_POINT ( 'NONE',  ( 0.06250000000000006939, 7.654042494670963708E-18, 0.3594709556591341171 ) ) ;
#5 = DIRECTION ( 'NONE',  ( -1.224646799147353454E-16, -0.0000000000000000000, -1.000000000000000000 ) ) ;
#6 = AXIS2_PLACEMENT_3D ( 'NONE', #290, #145, #149 ) ;
#7 = ORIENTED_EDGE ( 'NONE', *, *, #237, .F. ) ;
#8 = ADVANCED_FACE ( 'NONE', ( #46 ), #128, .T. ) ;
#9 = CARTESIAN_POINT ( 'NONE',  ( 1.835133228522309201E-18, 0.0000000000000000000, 0.01498500000000000006 ) ) ;
#10 = VECTOR ( 'NONE', #103, 39.37007874015748854 ) ;
#11 = CYLINDRICAL_SURFACE ( 'NONE', #317, 0.01498500000000000006 ) ;
#12 = EDGE_CURVE ( 'NONE', #73, #112, #287, .T. ) ;
#13 =( NAMED_UNIT ( * ) SI_UNIT ( $, .STERADIAN. ) SOLID_ANGLE_UNIT ( ) );
#14 = PRESENTATION_LAYER_ASSIGNMENT (  '', '', ( #168 ) ) ;
#15 = ORIENTED_EDGE ( 'NONE', *, *, #173, .F. ) ;
#16 = COLOUR_RGB ( '',0.7921568627450980005, 0.8196078431372548767, 0.9333333333333333481 ) ;
#17 = SURFACE_STYLE_USAGE ( .BOTH. , #94 ) ;
#18 = EDGE_CURVE ( 'NONE', #245, #197, #273, .T. ) ;
#19 = EDGE_LOOP ( 'NONE', ( #20, #21, #294 ) ) ;
#20 = ORIENTED_EDGE ( 'NONE', *, *, #2, .F. ) ;
#21 = ORIENTED_EDGE ( 'NONE', *, *, #18, .T. ) ;
#22 = AXIS2_PLACEMENT_3D ( 'NONE', #240, #135, #55 ) ;
#23 = CYLINDRICAL_SURFACE ( 'NONE', #226, 0.06250000000000002776 ) ;
#24 = DIRECTION ( 'NONE',  ( 1.000000000000000000, 0.0000000000000000000, 0.0000000000000000000 ) ) ;
#25 = DIRECTION ( 'NONE',  ( -0.1736481776669311916, 2.126576849575783316E-17, 0.9848077530122080203 ) ) ;
#26 = ADVANCED_FACE ( 'NONE', ( #291 ), #71, .T. ) ;
#27 = APPLICATION_CONTEXT ( 'automotive_design' ) ;
#28 = CARTESIAN_POINT ( 'NONE',  ( -0.06250000000000002776, 0.0000000000000000000, 1.500000000000000222 ) ) ;
#29 = FACE_OUTER_BOUND ( 'NONE', #202, .T. ) ;
#30 = LINE ( 'NONE', #235, #256 ) ;
#31 = CIRCLE ( 'NONE', #221, 0.06250000000000002776 ) ;
#32 = CIRCLE ( 'NONE', #117, 0.01498500000000000006 ) ;
#33 = CARTESIAN_POINT ( 'NONE',  ( 0.0000000000000000000, 0.0000000000000000000, 1.500000000000000222 ) ) ;
#34 = DIRECTION ( 'NONE',  ( -1.000000000000000000, 0.0000000000000000000, 1.224646799147353454E-16 ) ) ;
#35 = AXIS2_PLACEMENT_3D ( 'NONE', #325, #52, #158 ) ;
#36 = CARTESIAN_POINT ( 'NONE',  ( 0.0000000000000000000, 0.0000000000000000000, 1.500000000000000222 ) ) ;
#37 = ORIENTED_EDGE ( 'NONE', *, *, #18, .F. ) ;
#38 = FILL_AREA_STYLE ('',( #59 ) ) ;
#39 = SURFACE_STYLE_FILL_AREA ( #170 ) ;
#40 = DIRECTION ( 'NONE',  ( 0.0000000000000000000, -1.000000000000000000, 0.0000000000000000000 ) ) ;
#41 = CONICAL_SURFACE ( 'NONE', #175, 0.01498500000000000006, 0.1745329251994338915 ) ;
#42 = EDGE_LOOP ( 'NONE', ( #99, #296, #220, #319 ) ) ;
#43 = DIRECTION ( 'NONE',  ( 1.224646799147353207E-16, 1.000000000000000000, -0.0000000000000000000 ) ) ;
#44 = EDGE_LOOP ( 'NONE', ( #247, #223, #66, #87 ) ) ;
#45 = EDGE_CURVE ( 'NONE', #201, #169, #183, .T. ) ;
#46 = FACE_OUTER_BOUND ( 'NONE', #44, .T. ) ;
#47 = CONICAL_SURFACE ( 'NONE', #205, 0.04750000000000064587, 0.7853981633974466137 ) ;
#48 = ADVANCED_BREP_SHAPE_REPRESENTATION ( 'Micro_BMR-030-2', ( #239, #124 ), #163 ) ;
#49 = CARTESIAN_POINT ( 'NONE',  ( -0.01498499999999998965, 4.744587861596634336E-18, 0.08999999999999999667 ) ) ;
#50 = CARTESIAN_POINT ( 'NONE',  ( 0.04750000000000064587, 6.735557395310483192E-18, 1.500000000000000222 ) ) ;
#51 = CONICAL_SURFACE ( 'NONE', #6, 0.04750000000000064587, 0.7853981633974466137 ) ;
#52 = DIRECTION ( 'NONE',  ( -1.224646799147353454E-16, -0.0000000000000000000, -1.000000000000000000 ) ) ;
#53 = SURFACE_STYLE_USAGE ( .BOTH. , #97 ) ;
#54 = DIRECTION ( 'NONE',  ( 1.224646799147353454E-16, 0.0000000000000000000, 1.000000000000000000 ) ) ;
#55 = DIRECTION ( 'NONE',  ( -1.000000000000000000, 0.0000000000000000000, 1.424261758458595593E-16 ) ) ;
#56 = DIRECTION ( 'NONE',  ( 0.0000000000000000000, 0.0000000000000000000, 1.000000000000000000 ) ) ;
#57 = ORIENTED_EDGE ( 'NONE', *, *, #62, .F. ) ;
#58 =( GEOMETRIC_REPRESENTATION_CONTEXT ( 3 ) GLOBAL_UNCERTAINTY_ASSIGNED_CONTEXT ( ( #142 ) ) GLOBAL_UNIT_ASSIGNED_CONTEXT ( ( #212, #157, #308 ) ) REPRESENTATION_CONTEXT ( 'NONE', 'WORKASPACE' ) );
#59 = FILL_AREA_STYLE_COLOUR ( '', #16 ) ;
#60 = DIRECTION ( 'NONE',  ( 0.0000000000000000000, 0.0000000000000000000, 1.000000000000000000 ) ) ;
#61 = CARTESIAN_POINT ( 'NONE',  ( 1.835133228522309201E-18, 0.0000000000000000000, 0.01498500000000000006 ) ) ;
#62 = EDGE_CURVE ( 'NONE', #174, #169, #31, .T. ) ;
#63 = APPLICATION_PROTOCOL_DEFINITION ( 'draft international standard', 'automotive_design', 1998, #216 ) ;
#64 = CARTESIAN_POINT ( 'NONE',  ( 0.0000000000000000000, 0.0000000000000000000, 0.0000000000000000000 ) ) ;
#65 = AXIS2_PLACEMENT_3D ( 'NONE', #199, #264, #252 ) ;
#66 = ORIENTED_EDGE ( 'NONE', *, *, #12, .T. ) ;
#67 =( CONVERSION_BASED_UNIT ( 'INCH', #242 ) LENGTH_UNIT ( ) NAMED_UNIT ( #85 ) );
#68 = FILL_AREA_STYLE_COLOUR ( '', #77 ) ;
#69 = ORIENTED_EDGE ( 'NONE', *, *, #45, .T. ) ;
#70 = ADVANCED_FACE ( 'NONE', ( #233 ), #126, .T. ) ;
#71 = CYLINDRICAL_SURFACE ( 'NONE', #192, 0.06250000000000002776 ) ;
#72 = VECTOR ( 'NONE', #234, 39.37007874015748854 ) ;
#73 = VERTEX_POINT ( 'NONE', #105 ) ;
#74 = ORIENTED_EDGE ( 'NONE', *, *, #150, .T. ) ;
#75 = CARTESIAN_POINT ( 'NONE',  ( 1.835133228522309201E-18, 0.0000000000000000000, 0.01498500000000000006 ) ) ;
#76 = CARTESIAN_POINT ( 'NONE',  ( 1.102182119232618065E-17, 0.0000000000000000000, 0.08999999999999999667 ) ) ;
#77 = COLOUR_RGB ( '',0.7921568627450980005, 0.8196078431372548767, 0.9333333333333333481 ) ;
#78 = EDGE_CURVE ( 'NONE', #222, #112, #258, .T. ) ;
#79 = CARTESIAN_POINT ( 'NONE',  ( 0.0000000000000000000, 0.0000000000000000000, 1.500000000000000222 ) ) ;
#80 = CARTESIAN_POINT ( 'NONE',  ( 0.06250000000000002776, 7.654042494670959086E-18, 1.485000000000000764 ) ) ;
#81 = FACE_OUTER_BOUND ( 'NONE', #225, .T. ) ;
#82 =( LENGTH_UNIT ( ) NAMED_UNIT ( * ) SI_UNIT ( $, .METRE. ) );
#83 = AXIS2_PLACEMENT_3D ( 'NONE', #246, #318, #115 ) ;
#84 = DIRECTION ( 'NONE',  ( 1.000000000000000000, 0.0000000000000000000, 0.0000000000000000000 ) ) ;
#85 = DIMENSIONAL_EXPONENTS ( 1.000000000000000000, 0.0000000000000000000, 0.0000000000000000000, 0.0000000000000000000, 0.0000000000000000000, 0.0000000000000000000, 0.0000000000000000000 ) ;
#86 = DIRECTION ( 'NONE',  ( -1.000000000000000000, 0.0000000000000000000, 1.424261758458595593E-16 ) ) ;
#87 = ORIENTED_EDGE ( 'NONE', *, *, #78, .F. ) ;
#88 = VECTOR ( 'NONE', #278, 39.37007874015748143 ) ;
#89 = CARTESIAN_POINT ( 'NONE',  ( 2.752699842783463994E-18, 0.0000000000000000000, 0.0000000000000000000 ) ) ;
#90 = VERTEX_POINT ( 'NONE', #49 ) ;
#91 =( LENGTH_UNIT ( ) NAMED_UNIT ( * ) SI_UNIT ( $, .METRE. ) );
#92 = DIRECTION ( 'NONE',  ( 1.224646799147353454E-16, 0.0000000000000000000, 1.000000000000000000 ) ) ;
#93 = FACE_OUTER_BOUND ( 'NONE', #268, .T. ) ;
#94 = SURFACE_SIDE_STYLE ('',( #316 ) ) ;
#95 = CIRCLE ( 'NONE', #282, 0.01498500000000000006 ) ;
#96 = CARTESIAN_POINT ( 'NONE',  ( 1.835133228522309201E-18, 0.0000000000000000000, 0.01498500000000000006 ) ) ;
#97 = SURFACE_SIDE_STYLE ('',( #39 ) ) ;
#98 = ORIENTED_EDGE ( 'NONE', *, *, #237, .T. ) ;
#99 = ORIENTED_EDGE ( 'NONE', *, *, #150, .F. ) ;
#100 = CIRCLE ( 'NONE', #155, 0.06250000000000002776 ) ;
#101 = VERTEX_POINT ( 'NONE', #271 ) ;
#102 = VERTEX_POINT ( 'NONE', #50 ) ;
#103 = DIRECTION ( 'NONE',  ( 0.7071067811865462405, 8.659560562354916834E-17, -0.7071067811865486830 ) ) ;
#104 = DIMENSIONAL_EXPONENTS ( 1.000000000000000000, 0.0000000000000000000, 0.0000000000000000000, 0.0000000000000000000, 0.0000000000000000000, 0.0000000000000000000, 0.0000000000000000000 ) ;
#105 = CARTESIAN_POINT ( 'NONE',  ( -0.06249999999999997918, 0.0000000000000000000, 0.3594709556591341171 ) ) ;
#106 = AXIS2_PLACEMENT_3D ( 'NONE', #9, #92, #86 ) ;
#107 = EDGE_CURVE ( 'NONE', #169, #174, #100, .T. ) ;
#108 = CARTESIAN_POINT ( 'NONE',  ( -0.06250000000000002776, 0.0000000000000000000, 1.485000000000000764 ) ) ;
#109 = CARTESIAN_POINT ( 'NONE',  ( 0.01498500000000001220, 0.0000000000000000000, 0.08999999999999999667 ) ) ;
#110 = CARTESIAN_POINT ( 'NONE',  ( -0.01498499999999998965, 1.835133228522308816E-18, 0.08999999999999999667 ) ) ;
#111 = FACE_OUTER_BOUND ( 'NONE', #118, .T. ) ;
#112 = VERTEX_POINT ( 'NONE', #4 ) ;
#113 = CIRCLE ( 'NONE', #295, 0.04750000000000064587 ) ;
#114 = DIRECTION ( 'NONE',  ( -1.224646799147353454E-16, -0.0000000000000000000, -1.000000000000000000 ) ) ;
#115 = DIRECTION ( 'NONE',  ( 1.000000000000000000, 0.0000000000000000000, 0.0000000000000000000 ) ) ;
#116 = PRODUCT_RELATED_PRODUCT_CATEGORY ( 'part', '', ( #210 ) ) ;
#117 = AXIS2_PLACEMENT_3D ( 'NONE', #76, #182, #1 ) ;
#118 = EDGE_LOOP ( 'NONE', ( #193, #98, #176, #148 ) ) ;
#119 = ORIENTED_EDGE ( 'NONE', *, *, #200, .F. ) ;
#120 = ADVANCED_FACE ( 'NONE', ( #188 ), #23, .T. ) ;
#121 = ORIENTED_EDGE ( 'NONE', *, *, #179, .F. ) ;
#122 = AXIS2_PLACEMENT_3D ( 'NONE', #196, #56, #286 ) ;
#123 = ORIENTED_EDGE ( 'NONE', *, *, #107, .T. ) ;
#124 = AXIS2_PLACEMENT_3D ( 'NONE', #217, #312, #219 ) ;
#125 = DIRECTION ( 'NONE',  ( -1.224646799147353454E-16, -0.0000000000000000000, -1.000000000000000000 ) ) ;
#126 = SPHERICAL_SURFACE ( 'NONE', #141, 0.01498500000000000006 ) ;
#127 = DIRECTION ( 'NONE',  ( -1.000000000000000000, 0.0000000000000000000, 0.0000000000000000000 ) ) ;
#128 = CONICAL_SURFACE ( 'NONE', #65, 0.01498500000000000006, 0.1745329251994338915 ) ;
#129 = LINE ( 'NONE', #28, #88 ) ;
#130 = DIMENSIONAL_EXPONENTS ( 1.000000000000000000, 0.0000000000000000000, 0.0000000000000000000, 0.0000000000000000000, 0.0000000000000000000, 0.0000000000000000000, 0.0000000000000000000 ) ;
#131 = AXIS2_PLACEMENT_3D ( 'NONE', #64, #167, #34 ) ;
#132 = EDGE_CURVE ( 'NONE', #90, #73, #152, .T. ) ;
#133 = PLANE ( 'NONE',  #122 ) ;
#134 = EDGE_CURVE ( 'NONE', #112, #73, #181, .T. ) ;
#135 = DIRECTION ( 'NONE',  ( 1.224646799147353454E-16, 0.0000000000000000000, 1.000000000000000000 ) ) ;
#136 = PRESENTATION_STYLE_ASSIGNMENT (( #17 ) ) ;
#137 = CARTESIAN_POINT ( 'NONE',  ( -0.04750000000000064587, 0.0000000000000000000, 1.500000000000000222 ) ) ;
#138 = ORIENTED_EDGE ( 'NONE', *, *, #261, .F. ) ;
#139 = DIRECTION ( 'NONE',  ( 0.0000000000000000000, 0.0000000000000000000, -1.000000000000000000 ) ) ;
#140 =( NAMED_UNIT ( * ) PLANE_ANGLE_UNIT ( ) SI_UNIT ( $, .RADIAN. ) );
#141 = AXIS2_PLACEMENT_3D ( 'NONE', #302, #254, #24 ) ;
#142 = UNCERTAINTY_MEASURE_WITH_UNIT (LENGTH_MEASURE( 1.000000000000000082E-05 ), #212, 'distance_accuracy_value', 'NONE');
#143 = CARTESIAN_POINT ( 'NONE',  ( 0.0000000000000000000, 0.0000000000000000000, 1.500000000000000222 ) ) ;
#144 = ORIENTED_EDGE ( 'NONE', *, *, #288, .F. ) ;
#145 = DIRECTION ( 'NONE',  ( 0.0000000000000000000, 0.0000000000000000000, -1.000000000000000000 ) ) ;
#146 = ORIENTED_EDGE ( 'NONE', *, *, #277, .T. ) ;
#147 = VECTOR ( 'NONE', #151, 39.37007874015748143 ) ;
#148 = ORIENTED_EDGE ( 'NONE', *, *, #153, .F. ) ;
#149 = DIRECTION ( 'NONE',  ( -1.000000000000000000, 0.0000000000000000000, 0.0000000000000000000 ) ) ;
#150 = EDGE_CURVE ( 'NONE', #174, #112, #156, .T. ) ;
#151 = DIRECTION ( 'NONE',  ( 0.1736481776669313859, 0.0000000000000000000, 0.9848077530122077983 ) ) ;
#152 = LINE ( 'NONE', #110, #186 ) ;
#153 = EDGE_CURVE ( 'NONE', #90, #101, #154, .T. ) ;
#154 = LINE ( 'NONE', #303, #250 ) ;
#155 = AXIS2_PLACEMENT_3D ( 'NONE', #270, #208, #84 ) ;
#156 = LINE ( 'NONE', #301, #310 ) ;
#157 =( NAMED_UNIT ( * ) PLANE_ANGLE_UNIT ( ) SI_UNIT ( $, .RADIAN. ) );
#158 = DIRECTION ( 'NONE',  ( 1.000000000000000000, 0.0000000000000000000, 0.0000000000000000000 ) ) ;
#159 = DIRECTION ( 'NONE',  ( -1.000000000000000000, 0.0000000000000000000, 1.224646799147353454E-16 ) ) ;
#160 = ORIENTED_EDGE ( 'NONE', *, *, #2, .T. ) ;
#161 = AXIS2_PLACEMENT_3D ( 'NONE', #75, #43, #227 ) ;
#162 =( NAMED_UNIT ( * ) PLANE_ANGLE_UNIT ( ) SI_UNIT ( $, .RADIAN. ) );
#163 =( GEOMETRIC_REPRESENTATION_CONTEXT ( 3 ) GLOBAL_UNCERTAINTY_ASSIGNED_CONTEXT ( ( #267 ) ) GLOBAL_UNIT_ASSIGNED_CONTEXT ( ( #276, #162, #13 ) ) REPRESENTATION_CONTEXT ( 'NONE', 'WORKASPACE' ) );
#164 = ADVANCED_FACE ( 'NONE', ( #29 ), #47, .T. ) ;
#165 =( NAMED_UNIT ( * ) SI_UNIT ( $, .STERADIAN. ) SOLID_ANGLE_UNIT ( ) );
#166 = DIRECTION ( 'NONE',  ( 0.0000000000000000000, 1.000000000000000000, 0.0000000000000000000 ) ) ;
#167 = DIRECTION ( 'NONE',  ( -1.224646799147353454E-16, -0.0000000000000000000, -1.000000000000000000 ) ) ;
#168 = STYLED_ITEM ( 'NONE', ( #238 ), #239 ) ;
#169 = VERTEX_POINT ( 'NONE', #108 ) ;
#170 = FILL_AREA_STYLE ('',( #68 ) ) ;
#171 = ORIENTED_EDGE ( 'NONE', *, *, #255, .T. ) ;
#172 = PRODUCT_CONTEXT ( 'NONE', #27, 'mechanical' ) ;
#173 = EDGE_CURVE ( 'NONE', #102, #174, #257, .T. ) ;
#174 = VERTEX_POINT ( 'NONE', #80 ) ;
#175 = AXIS2_PLACEMENT_3D ( 'NONE', #204, #54, #298 ) ;
#176 = ORIENTED_EDGE ( 'NONE', *, *, #261, .T. ) ;
#177 = ORIENTED_EDGE ( 'NONE', *, *, #78, .T. ) ;
#178 = ORIENTED_EDGE ( 'NONE', *, *, #132, .F. ) ;
#179 = EDGE_CURVE ( 'NONE', #169, #73, #129, .T. ) ;
#180 = CIRCLE ( 'NONE', #321, 0.04750000000000064587 ) ;
#181 = CIRCLE ( 'NONE', #35, 0.06250000000000002776 ) ;
#182 = DIRECTION ( 'NONE',  ( -1.224646799147353454E-16, -0.0000000000000000000, -1.000000000000000000 ) ) ;
#183 = LINE ( 'NONE', #3, #72 ) ;
#184 = DIRECTION ( 'NONE',  ( 0.0000000000000000000, 0.0000000000000000000, -1.000000000000000000 ) ) ;
#185 = CARTESIAN_POINT ( 'NONE',  ( 0.01498500000000000353, 1.835133228522308816E-18, 0.01498499999999999832 ) ) ;
#186 = VECTOR ( 'NONE', #25, 39.37007874015747433 ) ;
#187 = LENGTH_MEASURE_WITH_UNIT ( LENGTH_MEASURE( 0.02539999999999999897 ), #82 );
#188 = FACE_OUTER_BOUND ( 'NONE', #191, .T. ) ;
#189 = UNCERTAINTY_MEASURE_WITH_UNIT (LENGTH_MEASURE( 1.000000000000000082E-05 ), #67, 'distance_accuracy_value', 'NONE');
#190 = FACE_OUTER_BOUND ( 'NONE', #297, .T. ) ;
#191 = EDGE_LOOP ( 'NONE', ( #123, #74, #213, #121 ) ) ;
#192 = AXIS2_PLACEMENT_3D ( 'NONE', #143, #229, #324 ) ;
#193 = ORIENTED_EDGE ( 'NONE', *, *, #198, .T. ) ;
#194 = FACE_OUTER_BOUND ( 'NONE', #284, .T. ) ;
#195 = ADVANCED_FACE ( 'NONE', ( #81 ), #41, .T. ) ;
#196 = CARTESIAN_POINT ( 'NONE',  ( 0.0000000000000000000, 0.0000000000000000000, 1.500000000000000222 ) ) ;
#197 = VERTEX_POINT ( 'NONE', #185 ) ;
#198 = EDGE_CURVE ( 'NONE', #90, #222, #32, .T. ) ;
#199 = CARTESIAN_POINT ( 'NONE',  ( 1.102182119232618065E-17, 0.0000000000000000000, 0.08999999999999999667 ) ) ;
#200 = EDGE_CURVE ( 'NONE', #102, #201, #180, .T. ) ;
#201 = VERTEX_POINT ( 'NONE', #137 ) ;
#202 = EDGE_LOOP ( 'NONE', ( #15, #315, #69, #57 ) ) ;
#203 = ORIENTED_EDGE ( 'NONE', *, *, #107, .F. ) ;
#204 = CARTESIAN_POINT ( 'NONE',  ( 1.102182119232618065E-17, 0.0000000000000000000, 0.08999999999999999667 ) ) ;
#205 = AXIS2_PLACEMENT_3D ( 'NONE', #79, #228, #127 ) ;
#206 = CARTESIAN_POINT ( 'NONE',  ( 0.0000000000000000000, 0.0000000000000000000, 1.485000000000000764 ) ) ;
#207 = DIRECTION ( 'NONE',  ( -0.0000000000000000000, -0.0000000000000000000, -1.000000000000000000 ) ) ;
#208 = DIRECTION ( 'NONE',  ( 0.0000000000000000000, 0.0000000000000000000, -1.000000000000000000 ) ) ;
#209 = CLOSED_SHELL ( 'NONE', ( #211, #300, #8, #304, #120, #26, #224, #164, #195, #293, #70 ) ) ;
#210 = PRODUCT ( 'Micro_BMR-030-2', 'Micro_BMR-030-2', '', ( #172 ) ) ;
#211 = ADVANCED_FACE ( 'NONE', ( #190 ), #260, .T. ) ;
#212 =( CONVERSION_BASED_UNIT ( 'INCH', #280 ) LENGTH_UNIT ( ) NAMED_UNIT ( #104 ) );
#213 = ORIENTED_EDGE ( 'NONE', *, *, #12, .F. ) ;
#214 = CIRCLE ( 'NONE', #161, 0.01498500000000000006 ) ;
#215 = CARTESIAN_POINT ( 'NONE',  ( 1.102182119232618065E-17, 0.0000000000000000000, 0.08999999999999999667 ) ) ;
#216 = APPLICATION_CONTEXT ( 'automotive_design' ) ;
#217 = CARTESIAN_POINT ( 'NONE',  ( 0.0000000000000000000, 0.0000000000000000000, 0.0000000000000000000 ) ) ;
#218 = CARTESIAN_POINT ( 'NONE',  ( 0.01498500000000001220, 0.0000000000000000000, 0.08999999999999999667 ) ) ;
#219 = DIRECTION ( 'NONE',  ( 1.000000000000000000, 0.0000000000000000000, 0.0000000000000000000 ) ) ;
#220 = ORIENTED_EDGE ( 'NONE', *, *, #179, .T. ) ;
#221 = AXIS2_PLACEMENT_3D ( 'NONE', #206, #184, #253 ) ;
#222 = VERTEX_POINT ( 'NONE', #218 ) ;
#223 = ORIENTED_EDGE ( 'NONE', *, *, #132, .T. ) ;
#224 = ADVANCED_FACE ( 'NONE', ( #93 ), #133, .T. ) ;
#225 = EDGE_LOOP ( 'NONE', ( #178, #144, #177, #263 ) ) ;
#226 = AXIS2_PLACEMENT_3D ( 'NONE', #275, #307, #272 ) ;
#227 = DIRECTION ( 'NONE',  ( -1.000000000000000000, 1.224646799147353207E-16, 0.0000000000000000000 ) ) ;
#228 = DIRECTION ( 'NONE',  ( 0.0000000000000000000, 0.0000000000000000000, -1.000000000000000000 ) ) ;
#229 = DIRECTION ( 'NONE',  ( -0.0000000000000000000, -0.0000000000000000000, -1.000000000000000000 ) ) ;
#230 = AXIS2_PLACEMENT_3D ( 'NONE', #61, #166, #313 ) ;
#231 = MECHANICAL_DESIGN_GEOMETRIC_PRESENTATION_REPRESENTATION (  '', ( #274 ), #322 ) ;
#232 = CARTESIAN_POINT ( 'NONE',  ( 0.04750000000000064587, 5.817072295950006528E-18, 1.500000000000000222 ) ) ;
#233 = FACE_OUTER_BOUND ( 'NONE', #19, .T. ) ;
#234 = DIRECTION ( 'NONE',  ( -0.7071067811865462405, 0.0000000000000000000, -0.7071067811865486830 ) ) ;
#235 = CARTESIAN_POINT ( 'NONE',  ( 0.01498500000000000006, 1.835133228522308816E-18, -1.835133228522309201E-18 ) ) ;
#236 = CIRCLE ( 'NONE', #106, 0.01498500000000000006 ) ;
#237 = EDGE_CURVE ( 'NONE', #222, #197, #30, .T. ) ;
#238 = PRESENTATION_STYLE_ASSIGNMENT (( #53 ) ) ;
#239 = MANIFOLD_SOLID_BREP ( 'Fillet1', #209 ) ;
#240 = CARTESIAN_POINT ( 'NONE',  ( 1.835133228522309201E-18, 0.0000000000000000000, 0.01498500000000000006 ) ) ;
#241 = CIRCLE ( 'NONE', #22, 0.01498500000000000006 ) ;
#242 = LENGTH_MEASURE_WITH_UNIT ( LENGTH_MEASURE( 0.02539999999999999897 ), #91 );
#243 = CARTESIAN_POINT ( 'NONE',  ( 0.0000000000000000000, 0.0000000000000000000, 0.0000000000000000000 ) ) ;
#244 = APPLICATION_PROTOCOL_DEFINITION ( 'draft international standard', 'automotive_design', 1998, #27 ) ;
#245 = VERTEX_POINT ( 'NONE', #89 ) ;
#246 = CARTESIAN_POINT ( 'NONE',  ( 4.402249552343988286E-17, 0.0000000000000000000, 0.3594709556591341171 ) ) ;
#247 = ORIENTED_EDGE ( 'NONE', *, *, #198, .F. ) ;
#248 = PRODUCT_DEFINITION ( 'UNKNOWN', '', #265, #292 ) ;
#249 = ORIENTED_EDGE ( 'NONE', *, *, #153, .T. ) ;
#250 = VECTOR ( 'NONE', #125, 39.37007874015748143 ) ;
#251 = PRESENTATION_LAYER_ASSIGNMENT (  '', '', ( #274 ) ) ;
#252 = DIRECTION ( 'NONE',  ( 1.000000000000000000, 0.0000000000000000000, 0.0000000000000000000 ) ) ;
#253 = DIRECTION ( 'NONE',  ( 1.000000000000000000, 0.0000000000000000000, 0.0000000000000000000 ) ) ;
#254 = DIRECTION ( 'NONE',  ( 0.0000000000000000000, 1.000000000000000000, 0.0000000000000000000 ) ) ;
#255 = EDGE_CURVE ( 'NONE', #201, #102, #113, .T. ) ;
#256 = VECTOR ( 'NONE', #259, 39.37007874015748143 ) ;
#257 = LINE ( 'NONE', #232, #10 ) ;
#258 = LINE ( 'NONE', #109, #147 ) ;
#259 = DIRECTION ( 'NONE',  ( -1.224646799147353454E-16, -0.0000000000000000000, -1.000000000000000000 ) ) ;
#260 = SPHERICAL_SURFACE ( 'NONE', #230, 0.01498500000000000006 ) ;
#261 = EDGE_CURVE ( 'NONE', #197, #101, #241, .T. ) ;
#262 = DIRECTION ( 'NONE',  ( 1.000000000000000000, 0.0000000000000000000, 0.0000000000000000000 ) ) ;
#263 = ORIENTED_EDGE ( 'NONE', *, *, #134, .T. ) ;
#264 = DIRECTION ( 'NONE',  ( 1.224646799147353454E-16, 0.0000000000000000000, 1.000000000000000000 ) ) ;
#265 = PRODUCT_DEFINITION_FORMATION_WITH_SPECIFIED_SOURCE ( 'ANY', '', #210, .NOT_KNOWN. ) ;
#266 = EDGE_LOOP ( 'NONE', ( #119, #323, #203, #269 ) ) ;
#267 = UNCERTAINTY_MEASURE_WITH_UNIT (LENGTH_MEASURE( 1.000000000000000082E-05 ), #276, 'distance_accuracy_value', 'NONE');
#268 = EDGE_LOOP ( 'NONE', ( #171, #320 ) ) ;
#269 = ORIENTED_EDGE ( 'NONE', *, *, #45, .F. ) ;
#270 = CARTESIAN_POINT ( 'NONE',  ( 0.0000000000000000000, 0.0000000000000000000, 1.485000000000000764 ) ) ;
#271 = CARTESIAN_POINT ( 'NONE',  ( -0.01498499999999999832, 0.0000000000000000000, 0.01498500000000000353 ) ) ;
#272 = DIRECTION ( 'NONE',  ( -1.000000000000000000, 0.0000000000000000000, 0.0000000000000000000 ) ) ;
#273 = CIRCLE ( 'NONE', #306, 0.01498500000000000006 ) ;
#274 = STYLED_ITEM ( 'NONE', ( #136 ), #48 ) ;
#275 = CARTESIAN_POINT ( 'NONE',  ( 0.0000000000000000000, 0.0000000000000000000, 1.500000000000000222 ) ) ;
#276 =( CONVERSION_BASED_UNIT ( 'INCH', #187 ) LENGTH_UNIT ( ) NAMED_UNIT ( #130 ) );
#277 = EDGE_CURVE ( 'NONE', #101, #197, #236, .T. ) ;
#278 = DIRECTION ( 'NONE',  ( -0.0000000000000000000, -0.0000000000000000000, -1.000000000000000000 ) ) ;
#279 = PRODUCT_DEFINITION_SHAPE ( 'NONE', 'NONE',  #248 ) ;
#280 = LENGTH_MEASURE_WITH_UNIT ( LENGTH_MEASURE( 0.02539999999999999897 ), #309 );
#281 = DIRECTION ( 'NONE',  ( 0.0000000000000000000, 0.0000000000000000000, 1.000000000000000000 ) ) ;
#282 = AXIS2_PLACEMENT_3D ( 'NONE', #215, #5, #311 ) ;
#283 = DIRECTION ( 'NONE',  ( 1.000000000000000000, 0.0000000000000000000, 0.0000000000000000000 ) ) ;
#284 = EDGE_LOOP ( 'NONE', ( #7, #289, #249, #146 ) ) ;
#285 = CYLINDRICAL_SURFACE ( 'NONE', #131, 0.01498500000000000006 ) ;
#286 = DIRECTION ( 'NONE',  ( 1.000000000000000000, 0.0000000000000000000, -0.0000000000000000000 ) ) ;
#287 = CIRCLE ( 'NONE', #83, 0.06250000000000002776 ) ;
#288 = EDGE_CURVE ( 'NONE', #222, #90, #95, .T. ) ;
#289 = ORIENTED_EDGE ( 'NONE', *, *, #288, .T. ) ;
#290 = CARTESIAN_POINT ( 'NONE',  ( 0.0000000000000000000, 0.0000000000000000000, 1.500000000000000222 ) ) ;
#291 = FACE_OUTER_BOUND ( 'NONE', #42, .T. ) ;
#292 = PRODUCT_DEFINITION_CONTEXT ( 'detailed design', #216, 'design' ) ;
#293 = ADVANCED_FACE ( 'NONE', ( #194 ), #285, .T. ) ;
#294 = ORIENTED_EDGE ( 'NONE', *, *, #277, .F. ) ;
#295 = AXIS2_PLACEMENT_3D ( 'NONE', #33, #60, #262 ) ;
#296 = ORIENTED_EDGE ( 'NONE', *, *, #62, .T. ) ;
#297 = EDGE_LOOP ( 'NONE', ( #37, #160, #138 ) ) ;
#298 = DIRECTION ( 'NONE',  ( 1.000000000000000000, 0.0000000000000000000, 0.0000000000000000000 ) ) ;
#299 = MECHANICAL_DESIGN_GEOMETRIC_PRESENTATION_REPRESENTATION (  '', ( #168 ), #58 ) ;
#300 = ADVANCED_FACE ( 'NONE', ( #111 ), #11, .T. ) ;
#301 = CARTESIAN_POINT ( 'NONE',  ( 0.06250000000000002776, 7.654042494670959086E-18, 1.500000000000000222 ) ) ;
#302 = CARTESIAN_POINT ( 'NONE',  ( 1.835133228522309201E-18, 0.0000000000000000000, 0.01498500000000000006 ) ) ;
#303 = CARTESIAN_POINT ( 'NONE',  ( -0.01498500000000000006, 0.0000000000000000000, 1.835133228522309201E-18 ) ) ;
#304 = ADVANCED_FACE ( 'NONE', ( #305 ), #51, .T. ) ;
#305 = FACE_OUTER_BOUND ( 'NONE', #266, .T. ) ;
#306 = AXIS2_PLACEMENT_3D ( 'NONE', #96, #40, #139 ) ;
#307 = DIRECTION ( 'NONE',  ( -0.0000000000000000000, -0.0000000000000000000, -1.000000000000000000 ) ) ;
#308 =( NAMED_UNIT ( * ) SI_UNIT ( $, .STERADIAN. ) SOLID_ANGLE_UNIT ( ) );
#309 =( LENGTH_UNIT ( ) NAMED_UNIT ( * ) SI_UNIT ( $, .METRE. ) );
#310 = VECTOR ( 'NONE', #207, 39.37007874015748143 ) ;
#311 = DIRECTION ( 'NONE',  ( -1.000000000000000000, 0.0000000000000000000, 0.0000000000000000000 ) ) ;
#312 = DIRECTION ( 'NONE',  ( 0.0000000000000000000, 0.0000000000000000000, 1.000000000000000000 ) ) ;
#313 = DIRECTION ( 'NONE',  ( 1.000000000000000000, 0.0000000000000000000, 0.0000000000000000000 ) ) ;
#314 = SHAPE_DEFINITION_REPRESENTATION ( #279, #48 ) ;
#315 = ORIENTED_EDGE ( 'NONE', *, *, #255, .F. ) ;
#316 = SURFACE_STYLE_FILL_AREA ( #38 ) ;
#317 = AXIS2_PLACEMENT_3D ( 'NONE', #243, #114, #159 ) ;
#318 = DIRECTION ( 'NONE',  ( -1.224646799147353454E-16, -0.0000000000000000000, -1.000000000000000000 ) ) ;
#319 = ORIENTED_EDGE ( 'NONE', *, *, #134, .F. ) ;
#320 = ORIENTED_EDGE ( 'NONE', *, *, #200, .T. ) ;
#321 = AXIS2_PLACEMENT_3D ( 'NONE', #36, #281, #283 ) ;
#322 =( GEOMETRIC_REPRESENTATION_CONTEXT ( 3 ) GLOBAL_UNCERTAINTY_ASSIGNED_CONTEXT ( ( #189 ) ) GLOBAL_UNIT_ASSIGNED_CONTEXT ( ( #67, #140, #165 ) ) REPRESENTATION_CONTEXT ( 'NONE', 'WORKASPACE' ) );
#323 = ORIENTED_EDGE ( 'NONE', *, *, #173, .T. ) ;
#324 = DIRECTION ( 'NONE',  ( -1.000000000000000000, 0.0000000000000000000, 0.0000000000000000000 ) ) ;
#325 = CARTESIAN_POINT ( 'NONE',  ( 4.402249552343988286E-17, 0.0000000000000000000, 0.3594709556591341171 ) ) ;
ENDSEC;
END-ISO-10303-21;
