ISO-10303-21;
HEADER;
FILE_DESCRIPTION (( 'STEP AP214' ),
    '1' );
FILE_NAME ('59671.STEP',
    '2023-07-24T15:22:03',
    ( '' ),
    ( '' ),
    'SwSTEP 2.0',
    'SolidWorks 2023',
    '' );
FILE_SCHEMA (( 'AUTOMOTIVE_DESIGN' ));
ENDSEC;

DATA;
#1 = DIRECTION ( 'NONE',  ( 0.000000000000000000, 0.000000000000000000, 1.000000000000000000 ) ) ;
#2 =( NAMED_UNIT ( * ) PLANE_ANGLE_UNIT ( ) SI_UNIT ( $, .RADIAN. ) );
#3 = PRODUCT_DEFINITION_CONTEXT ( 'detailed design', #279, 'design' ) ;
#4 = VERTEX_POINT ( 'NONE', #363 ) ;
#5 = DIRECTION ( 'NONE',  ( 0.000000000000000000, 0.000000000000000000, -1.000000000000000000 ) ) ;
#6 =( GEOMETRIC_REPRESENTATION_CONTEXT ( 3 ) GLOBAL_UNCERTAINTY_ASSIGNED_CONTEXT ( ( #242 ) ) GLOBAL_UNIT_ASSIGNED_CONTEXT ( ( #202, #2, #176 ) ) REPRESENTATION_CONTEXT ( 'NONE', 'WORKASPACE' ) );
#7 = EDGE_LOOP ( 'NONE', ( #313, #326 ) ) ;
#8 =( GEOMETRIC_REPRESENTATION_CONTEXT ( 3 ) GLOBAL_UNCERTAINTY_ASSIGNED_CONTEXT ( ( #59 ) ) GLOBAL_UNIT_ASSIGNED_CONTEXT ( ( #18, #244, #300 ) ) REPRESENTATION_CONTEXT ( 'NONE', 'WORKASPACE' ) );
#9 = DIRECTION ( 'NONE',  ( 0.000000000000000000, -1.000000000000000000, -0.000000000000000000 ) ) ;
#10 = UNCERTAINTY_MEASURE_WITH_UNIT (LENGTH_MEASURE( 1.000000000000000082E-05 ), #186, 'distance_accuracy_value', 'NONE');
#11 = ORIENTED_EDGE ( 'NONE', *, *, #184, .T. ) ;
#12 = SURFACE_STYLE_FILL_AREA ( #91 ) ;
#13 = MECHANICAL_DESIGN_GEOMETRIC_PRESENTATION_REPRESENTATION (  '', ( #145 ), #330 ) ;
#14 = SURFACE_STYLE_USAGE ( .BOTH. , #213 ) ;
#15 =( NAMED_UNIT ( * ) PLANE_ANGLE_UNIT ( ) SI_UNIT ( $, .RADIAN. ) );
#16 = PRESENTATION_STYLE_ASSIGNMENT (( #45 ) ) ;
#17 = SURFACE_SIDE_STYLE ('',( #99 ) ) ;
#18 =( LENGTH_UNIT ( ) NAMED_UNIT ( * ) SI_UNIT ( .MILLI., .METRE. ) );
#19 = PRESENTATION_STYLE_ASSIGNMENT (( #272 ) ) ;
#20 = CIRCLE ( 'NONE', #281, 0.5000000000000004441 ) ;
#21 = CARTESIAN_POINT ( 'NONE',  ( 0.000000000000000000, 0.5000000000000000000, 0.000000000000000000 ) ) ;
#22 = FACE_OUTER_BOUND ( 'NONE', #206, .T. ) ;
#23 = PRESENTATION_LAYER_ASSIGNMENT (  '', '', ( #328 ) ) ;
#24 = PRESENTATION_LAYER_ASSIGNMENT (  '', '', ( #104 ) ) ;
#25 = ORIENTED_EDGE ( 'NONE', *, *, #57, .T. ) ;
#26 = SHAPE_DEFINITION_REPRESENTATION ( #285, #50 ) ;
#27 = DIRECTION ( 'NONE',  ( 0.000000000000000000, 0.000000000000000000, -1.000000000000000000 ) ) ;
#28 = ORIENTED_EDGE ( 'NONE', *, *, #201, .T. ) ;
#29 = MECHANICAL_DESIGN_GEOMETRIC_PRESENTATION_REPRESENTATION (  '', ( #58 ), #8 ) ;
#30 = ORIENTED_EDGE ( 'NONE', *, *, #287, .T. ) ;
#31 = MECHANICAL_DESIGN_GEOMETRIC_PRESENTATION_REPRESENTATION (  '', ( #328 ), #174 ) ;
#32 =( NAMED_UNIT ( * ) PLANE_ANGLE_UNIT ( ) SI_UNIT ( $, .RADIAN. ) );
#33 = AXIS2_PLACEMENT_3D ( 'NONE', #156, #332, #44 ) ;
#34 = PRODUCT ( '59671', '59671', '', ( #343 ) ) ;
#35 = DIRECTION ( 'NONE',  ( -0.000000000000000000, -1.000000000000000000, -0.000000000000000000 ) ) ;
#36 = CYLINDRICAL_SURFACE ( 'NONE', #219, 5.000000000000000888 ) ;
#37 =( NAMED_UNIT ( * ) PLANE_ANGLE_UNIT ( ) SI_UNIT ( $, .RADIAN. ) );
#38 = LINE ( 'NONE', #157, #63 ) ;
#39 = CARTESIAN_POINT ( 'NONE',  ( 6.123233995736762930E-15, 75.00000000000000000, 0.000000000000000000 ) ) ;
#40 = SURFACE_STYLE_USAGE ( .BOTH. , #246 ) ;
#41 = CARTESIAN_POINT ( 'NONE',  ( 6.123233995736762930E-15, 75.00000000000000000, 0.000000000000000000 ) ) ;
#42 = ADVANCED_FACE ( 'NONE', ( #352 ), #100, .T. ) ;
#43 = PLANE ( 'NONE',  #362 ) ;
#44 = DIRECTION ( 'NONE',  ( 0.000000000000000000, 0.000000000000000000, -1.000000000000000000 ) ) ;
#45 = SURFACE_STYLE_USAGE ( .BOTH. , #71 ) ;
#46 = ORIENTED_EDGE ( 'NONE', *, *, #361, .F. ) ;
#47 =( NAMED_UNIT ( * ) PLANE_ANGLE_UNIT ( ) SI_UNIT ( $, .RADIAN. ) );
#48 = AXIS2_PLACEMENT_3D ( 'NONE', #41, #125, #68 ) ;
#49 =( GEOMETRIC_REPRESENTATION_CONTEXT ( 3 ) GLOBAL_UNCERTAINTY_ASSIGNED_CONTEXT ( ( #147 ) ) GLOBAL_UNIT_ASSIGNED_CONTEXT ( ( #298, #47, #135 ) ) REPRESENTATION_CONTEXT ( 'NONE', 'WORKASPACE' ) );
#50 = ADVANCED_BREP_SHAPE_REPRESENTATION ( '59671', ( #218, #83, #309 ), #6 ) ;
#51 =( LENGTH_UNIT ( ) NAMED_UNIT ( * ) SI_UNIT ( .MILLI., .METRE. ) );
#52 = VERTEX_POINT ( 'NONE', #161 ) ;
#53 = APPLICATION_PROTOCOL_DEFINITION ( 'draft international standard', 'automotive_design', 1998, #279 ) ;
#54 =( GEOMETRIC_REPRESENTATION_CONTEXT ( 3 ) GLOBAL_UNCERTAINTY_ASSIGNED_CONTEXT ( ( #10 ) ) GLOBAL_UNIT_ASSIGNED_CONTEXT ( ( #186, #15, #208 ) ) REPRESENTATION_CONTEXT ( 'NONE', 'WORKASPACE' ) );
#55 = ORIENTED_EDGE ( 'NONE', *, *, #307, .F. ) ;
#56 = CARTESIAN_POINT ( 'NONE',  ( 0.000000000000000000, 25.00000000000000000, 0.000000000000000000 ) ) ;
#57 = EDGE_CURVE ( 'NONE', #146, #235, #182, .T. ) ;
#58 = STYLED_ITEM ( 'NONE', ( #96 ), #83 ) ;
#59 = UNCERTAINTY_MEASURE_WITH_UNIT (LENGTH_MEASURE( 1.000000000000000082E-05 ), #18, 'distance_accuracy_value', 'NONE');
#60 = LINE ( 'NONE', #151, #342 ) ;
#61 = DIRECTION ( 'NONE',  ( -1.203966067220177465E-16, 1.000000000000000000, -0.000000000000000000 ) ) ;
#62 = PRODUCT_RELATED_PRODUCT_CATEGORY ( 'part', '', ( #34 ) ) ;
#63 = VECTOR ( 'NONE', #61, 1000.000000000000000 ) ;
#64 = DIRECTION ( 'NONE',  ( -0.000000000000000000, -1.000000000000000000, -0.000000000000000000 ) ) ;
#65 =( NAMED_UNIT ( * ) SI_UNIT ( $, .STERADIAN. ) SOLID_ANGLE_UNIT ( ) );
#66 = CARTESIAN_POINT ( 'NONE',  ( 5.000000000000000888, 25.00000000000000000, 6.123233995736757408E-16 ) ) ;
#67 = DIRECTION ( 'NONE',  ( -1.203966067220177465E-16, 1.000000000000000000, -0.000000000000000000 ) ) ;
#68 = DIRECTION ( 'NONE',  ( -1.000000000000000000, 0.000000000000000000, 0.000000000000000000 ) ) ;
#69 = MECHANICAL_DESIGN_GEOMETRIC_PRESENTATION_REPRESENTATION (  '', ( #104 ), #124 ) ;
#70 = FACE_OUTER_BOUND ( 'NONE', #354, .T. ) ;
#71 = SURFACE_SIDE_STYLE ('',( #154 ) ) ;
#72 = DIRECTION ( 'NONE',  ( -1.000000000000000000, 0.000000000000000000, 0.000000000000000000 ) ) ;
#73 = SURFACE_STYLE_FILL_AREA ( #268 ) ;
#74 = CARTESIAN_POINT ( 'NONE',  ( 6.123233995736762930E-15, 75.00000000000000000, 0.000000000000000000 ) ) ;
#75 = ADVANCED_FACE ( 'NONE', ( #158 ), #215, .T. ) ;
#76 = PRESENTATION_LAYER_ASSIGNMENT (  '', '', ( #58 ) ) ;
#77 = DIRECTION ( 'NONE',  ( -0.000000000000000000, -1.000000000000000000, -0.000000000000000000 ) ) ;
#78 = DIRECTION ( 'NONE',  ( -0.000000000000000000, -1.000000000000000000, -0.000000000000000000 ) ) ;
#79 = DIRECTION ( 'NONE',  ( -1.000000000000000000, 0.000000000000000000, 0.000000000000000000 ) ) ;
#80 = EDGE_LOOP ( 'NONE', ( #262, #108 ) ) ;
#81 = AXIS2_PLACEMENT_3D ( 'NONE', #84, #216, #5 ) ;
#82 = ORIENTED_EDGE ( 'NONE', *, *, #57, .F. ) ;
#83 = MANIFOLD_SOLID_BREP ( 'Revolve - Tool Body (Straight Shanked)', #169 ) ;
#84 = CARTESIAN_POINT ( 'NONE',  ( 0.000000000000000000, 0.5000000000000000000, 0.000000000000000000 ) ) ;
#85 = EDGE_CURVE ( 'NONE', #4, #233, #20, .T. ) ;
#86 = SURFACE_STYLE_USAGE ( .BOTH. , #243 ) ;
#87 = DIRECTION ( 'NONE',  ( 0.000000000000000000, 0.000000000000000000, -1.000000000000000000 ) ) ;
#88 = AXIS2_PLACEMENT_3D ( 'NONE', #39, #67, #297 ) ;
#89 = EDGE_LOOP ( 'NONE', ( #284, #356, #283, #275 ) ) ;
#90 = MECHANICAL_DESIGN_GEOMETRIC_PRESENTATION_REPRESENTATION (  '', ( #152 ), #195 ) ;
#91 = FILL_AREA_STYLE ('',( #133 ) ) ;
#92 = CARTESIAN_POINT ( 'NONE',  ( -4.999999999999976019, 25.00000000000000000, 0.000000000000000000 ) ) ;
#93 = VERTEX_POINT ( 'NONE', #92 ) ;
#94 = DIRECTION ( 'NONE',  ( 0.000000000000000000, 0.000000000000000000, -1.000000000000000000 ) ) ;
#95 = FACE_OUTER_BOUND ( 'NONE', #265, .T. ) ;
#96 = PRESENTATION_STYLE_ASSIGNMENT (( #292 ) ) ;
#97 = AXIS2_PLACEMENT_3D ( 'NONE', #350, #335, #94 ) ;
#98 = FILL_AREA_STYLE ('',( #240 ) ) ;
#99 = SURFACE_STYLE_FILL_AREA ( #138 ) ;
#100 = CYLINDRICAL_SURFACE ( 'NONE', #48, 4.999999999999990230 ) ;
#101 =( LENGTH_UNIT ( ) NAMED_UNIT ( * ) SI_UNIT ( .MILLI., .METRE. ) );
#102 = DIRECTION ( 'NONE',  ( -1.203966067220177465E-16, 1.000000000000000000, -0.000000000000000000 ) ) ;
#103 = DIRECTION ( 'NONE',  ( -1.000000000000000000, 0.000000000000000000, 0.000000000000000000 ) ) ;
#104 = STYLED_ITEM ( 'NONE', ( #318 ), #167 ) ;
#105 = DIRECTION ( 'NONE',  ( -1.203966067220177465E-16, 1.000000000000000000, -0.000000000000000000 ) ) ;
#106 = ADVANCED_FACE ( 'NONE', ( #95 ), #36, .T. ) ;
#107 = DIRECTION ( 'NONE',  ( 0.000000000000000000, -0.000000000000000000, 1.000000000000000000 ) ) ;
#108 = ORIENTED_EDGE ( 'NONE', *, *, #261, .F. ) ;
#109 = COLOUR_RGB ( '',1.000000000000000000, 0.000000000000000000, 0.000000000000000000 ) ;
#110 = DIRECTION ( 'NONE',  ( 1.000000000000000000, 0.000000000000000000, 0.000000000000000000 ) ) ;
#111 = ORIENTED_EDGE ( 'NONE', *, *, #184, .F. ) ;
#112 = DIRECTION ( 'NONE',  ( -0.000000000000000000, -1.000000000000000000, -0.000000000000000000 ) ) ;
#113 = ORIENTED_EDGE ( 'NONE', *, *, #261, .T. ) ;
#114 = FACE_OUTER_BOUND ( 'NONE', #148, .T. ) ;
#115 = MECHANICAL_DESIGN_GEOMETRIC_PRESENTATION_REPRESENTATION (  '', ( #324 ), #49 ) ;
#116 = ADVANCED_FACE ( 'NONE', ( #127 ), #129, .F. ) ;
#117 = CARTESIAN_POINT ( 'NONE',  ( 1.214306433183764966E-14, 25.00000000000000000, 0.000000000000000000 ) ) ;
#118 = LINE ( 'NONE', #263, #274 ) ;
#119 =( NAMED_UNIT ( * ) SI_UNIT ( $, .STERADIAN. ) SOLID_ANGLE_UNIT ( ) );
#120 = UNCERTAINTY_MEASURE_WITH_UNIT (LENGTH_MEASURE( 1.000000000000000082E-05 ), #101, 'distance_accuracy_value', 'NONE');
#121 = ORIENTED_EDGE ( 'NONE', *, *, #136, .F. ) ;
#122 = PRODUCT_DEFINITION_FORMATION_WITH_SPECIFIED_SOURCE ( 'ANY', '', #34, .NOT_KNOWN. ) ;
#123 = SURFACE_STYLE_FILL_AREA ( #214 ) ;
#124 =( GEOMETRIC_REPRESENTATION_CONTEXT ( 3 ) GLOBAL_UNCERTAINTY_ASSIGNED_CONTEXT ( ( #282 ) ) GLOBAL_UNIT_ASSIGNED_CONTEXT ( ( #266, #32, #119 ) ) REPRESENTATION_CONTEXT ( 'NONE', 'WORKASPACE' ) );
#125 = DIRECTION ( 'NONE',  ( -1.203966067220177465E-16, 1.000000000000000000, -0.000000000000000000 ) ) ;
#126 = COLOUR_RGB ( '',1.000000000000000000, 0.000000000000000000, 0.000000000000000000 ) ;
#127 = FACE_OUTER_BOUND ( 'NONE', #80, .T. ) ;
#128 = PRESENTATION_STYLE_ASSIGNMENT (( #14 ) ) ;
#129 = PLANE ( 'NONE',  #134 ) ;
#130 = ORIENTED_EDGE ( 'NONE', *, *, #211, .F. ) ;
#131 = AXIS2_PLACEMENT_3D ( 'NONE', #257, #312, #27 ) ;
#132 = PRESENTATION_STYLE_ASSIGNMENT (( #251 ) ) ;
#133 = FILL_AREA_STYLE_COLOUR ( '', #204 ) ;
#134 = AXIS2_PLACEMENT_3D ( 'NONE', #155, #291, #295 ) ;
#135 =( NAMED_UNIT ( * ) SI_UNIT ( $, .STERADIAN. ) SOLID_ANGLE_UNIT ( ) );
#136 = EDGE_CURVE ( 'NONE', #52, #305, #205, .T. ) ;
#137 = CARTESIAN_POINT ( 'NONE',  ( 6.123233995736762930E-15, 75.00000000000000000, 0.000000000000000000 ) ) ;
#138 = FILL_AREA_STYLE ('',( #165 ) ) ;
#139 = AXIS2_PLACEMENT_3D ( 'NONE', #56, #277, #107 ) ;
#140 =( NAMED_UNIT ( * ) PLANE_ANGLE_UNIT ( ) SI_UNIT ( $, .RADIAN. ) );
#141 = VERTEX_POINT ( 'NONE', #66 ) ;
#142 = CARTESIAN_POINT ( 'NONE',  ( 0.000000000000000000, 0.000000000000000000, 0.000000000000000000 ) ) ;
#143 = ORIENTED_EDGE ( 'NONE', *, *, #149, .F. ) ;
#144 = EDGE_CURVE ( 'NONE', #93, #235, #118, .T. ) ;
#145 = STYLED_ITEM ( 'NONE', ( #128 ), #75 ) ;
#146 = VERTEX_POINT ( 'NONE', #293 ) ;
#147 = UNCERTAINTY_MEASURE_WITH_UNIT (LENGTH_MEASURE( 1.000000000000000082E-05 ), #298, 'distance_accuracy_value', 'NONE');
#148 = EDGE_LOOP ( 'NONE', ( #183, #25 ) ) ;
#149 = EDGE_CURVE ( 'NONE', #141, #146, #38, .T. ) ;
#150 = AXIS2_PLACEMENT_3D ( 'NONE', #223, #340, #250 ) ;
#151 = CARTESIAN_POINT ( 'NONE',  ( 6.123233995736767268E-16, 0.000000000000000000, 5.000000000000000888 ) ) ;
#152 = STYLED_ITEM ( 'NONE', ( #19 ), #218 ) ;
#153 = UNCERTAINTY_MEASURE_WITH_UNIT (LENGTH_MEASURE( 1.000000000000000082E-05 ), #334, 'distance_accuracy_value', 'NONE');
#154 = SURFACE_STYLE_FILL_AREA ( #98 ) ;
#155 = CARTESIAN_POINT ( 'NONE',  ( 1.214306433183764966E-14, 25.00000000000000000, 0.000000000000000000 ) ) ;
#156 = CARTESIAN_POINT ( 'NONE',  ( 0.000000000000000000, 0.000000000000000000, 0.000000000000000000 ) ) ;
#157 = CARTESIAN_POINT ( 'NONE',  ( 4.999999999999996447, 75.00000000000000000, 6.123233995736754449E-16 ) ) ;
#158 = FACE_OUTER_BOUND ( 'NONE', #178, .T. ) ;
#159 = CIRCLE ( 'NONE', #150, 4.500000000000000888 ) ;
#160 = CIRCLE ( 'NONE', #97, 5.000000000000000000 ) ;
#161 = CARTESIAN_POINT ( 'NONE',  ( 6.123233995736766282E-16, 0.5000000000000000000, 5.000000000000000888 ) ) ;
#162 = CARTESIAN_POINT ( 'NONE',  ( 0.000000000000000000, 0.000000000000000000, 0.000000000000000000 ) ) ;
#163 = ORIENTED_EDGE ( 'NONE', *, *, #211, .T. ) ;
#164 = FILL_AREA_STYLE_COLOUR ( '', #256 ) ;
#165 = FILL_AREA_STYLE_COLOUR ( '', #168 ) ;
#166 = ORIENTED_EDGE ( 'NONE', *, *, #307, .T. ) ;
#167 = ADVANCED_FACE ( 'NONE', ( #185 ), #43, .T. ) ;
#168 = COLOUR_RGB ( '',1.000000000000000000, 0.000000000000000000, 0.000000000000000000 ) ;
#169 = CLOSED_SHELL ( 'NONE', ( #42, #116, #317, #190 ) ) ;
#170 = AXIS2_PLACEMENT_3D ( 'NONE', #247, #188, #210 ) ;
#171 = AXIS2_PLACEMENT_3D ( 'NONE', #269, #336, #338 ) ;
#172 = PLANE ( 'NONE',  #139 ) ;
#173 = CARTESIAN_POINT ( 'NONE',  ( 5.817072295949928412E-16, 0.000000000000000000, 4.500000000000000888 ) ) ;
#174 =( GEOMETRIC_REPRESENTATION_CONTEXT ( 3 ) GLOBAL_UNCERTAINTY_ASSIGNED_CONTEXT ( ( #288 ) ) GLOBAL_UNIT_ASSIGNED_CONTEXT ( ( #51, #140, #367 ) ) REPRESENTATION_CONTEXT ( 'NONE', 'WORKASPACE' ) );
#175 = CIRCLE ( 'NONE', #200, 4.999999999999987566 ) ;
#176 =( NAMED_UNIT ( * ) SI_UNIT ( $, .STERADIAN. ) SOLID_ANGLE_UNIT ( ) );
#177 = PRODUCT_DEFINITION ( 'UNKNOWN', '', #122, #3 ) ;
#178 = EDGE_LOOP ( 'NONE', ( #28, #163, #254, #111 ) ) ;
#179 = CARTESIAN_POINT ( 'NONE',  ( 0.000000000000000000, 25.00000000000000000, 0.000000000000000000 ) ) ;
#180 = TOROIDAL_SURFACE ( 'NONE', #322, 4.500000000000000888, 0.5000000000000002220 ) ;
#181 = ORIENTED_EDGE ( 'NONE', *, *, #201, .F. ) ;
#182 = CIRCLE ( 'NONE', #88, 4.999999999999993783 ) ;
#183 = ORIENTED_EDGE ( 'NONE', *, *, #234, .T. ) ;
#184 = EDGE_CURVE ( 'NONE', #209, #4, #357, .T. ) ;
#185 = FACE_OUTER_BOUND ( 'NONE', #7, .T. ) ;
#186 =( LENGTH_UNIT ( ) NAMED_UNIT ( * ) SI_UNIT ( .MILLI., .METRE. ) );
#187 = UNCERTAINTY_MEASURE_WITH_UNIT (LENGTH_MEASURE( 1.000000000000000082E-05 ), #222, 'distance_accuracy_value', 'NONE');
#188 = DIRECTION ( 'NONE',  ( 1.000000000000000000, 0.000000000000000000, -1.224646799147353207E-16 ) ) ;
#189 = AXIS2_PLACEMENT_3D ( 'NONE', #117, #241, #207 ) ;
#190 = ADVANCED_FACE ( 'NONE', ( #114 ), #302, .F. ) ;
#191 = DIRECTION ( 'NONE',  ( 0.000000000000000000, 0.000000000000000000, 1.000000000000000000 ) ) ;
#192 = AXIS2_PLACEMENT_3D ( 'NONE', #179, #112, #229 ) ;
#193 = CARTESIAN_POINT ( 'NONE',  ( 1.214306433183764966E-14, 25.00000000000000000, 0.000000000000000000 ) ) ;
#194 = PRESENTATION_LAYER_ASSIGNMENT (  '', '', ( #145 ) ) ;
#195 =( GEOMETRIC_REPRESENTATION_CONTEXT ( 3 ) GLOBAL_UNCERTAINTY_ASSIGNED_CONTEXT ( ( #120 ) ) GLOBAL_UNIT_ASSIGNED_CONTEXT ( ( #101, #347, #286 ) ) REPRESENTATION_CONTEXT ( 'NONE', 'WORKASPACE' ) );
#196 = DIRECTION ( 'NONE',  ( 0.000000000000000000, 0.000000000000000000, -1.000000000000000000 ) ) ;
#197 = CARTESIAN_POINT ( 'NONE',  ( 0.000000000000000000, 0.5000000000000000000, 0.000000000000000000 ) ) ;
#198 = DIRECTION ( 'NONE',  ( -1.203966067220177465E-16, 1.000000000000000000, -0.000000000000000000 ) ) ;
#199 = PRESENTATION_LAYER_ASSIGNMENT (  '', '', ( #152 ) ) ;
#200 = AXIS2_PLACEMENT_3D ( 'NONE', #193, #105, #366 ) ;
#201 = EDGE_CURVE ( 'NONE', #209, #203, #160, .T. ) ;
#202 =( LENGTH_UNIT ( ) NAMED_UNIT ( * ) SI_UNIT ( .MILLI., .METRE. ) );
#203 = VERTEX_POINT ( 'NONE', #296 ) ;
#204 = COLOUR_RGB ( '',1.000000000000000000, 0.000000000000000000, 0.000000000000000000 ) ;
#205 = CIRCLE ( 'NONE', #170, 0.5000000000000004441 ) ;
#206 = EDGE_LOOP ( 'NONE', ( #143, #113, #369, #82 ) ) ;
#207 = DIRECTION ( 'NONE',  ( -1.000000000000000000, 0.000000000000000000, 0.000000000000000000 ) ) ;
#208 =( NAMED_UNIT ( * ) SI_UNIT ( $, .STERADIAN. ) SOLID_ANGLE_UNIT ( ) );
#209 = VERTEX_POINT ( 'NONE', #249 ) ;
#210 = DIRECTION ( 'NONE',  ( -1.224646799147353454E-16, 0.000000000000000000, -1.000000000000000000 ) ) ;
#211 = EDGE_CURVE ( 'NONE', #203, #52, #60, .T. ) ;
#212 = FILL_AREA_STYLE_COLOUR ( '', #225 ) ;
#213 = SURFACE_SIDE_STYLE ('',( #12 ) ) ;
#214 = FILL_AREA_STYLE ('',( #260 ) ) ;
#215 = CYLINDRICAL_SURFACE ( 'NONE', #33, 5.000000000000000888 ) ;
#216 = DIRECTION ( 'NONE',  ( -0.000000000000000000, -1.000000000000000000, -0.000000000000000000 ) ) ;
#217 = ADVANCED_FACE ( 'NONE', ( #70 ), #253, .T. ) ;
#218 = MANIFOLD_SOLID_BREP ( 'Revolve - Cutting Edge', #315 ) ;
#219 = AXIS2_PLACEMENT_3D ( 'NONE', #353, #64, #87 ) ;
#220 = CIRCLE ( 'NONE', #171, 5.000000000000000888 ) ;
#221 = SURFACE_SIDE_STYLE ('',( #303 ) ) ;
#222 =( LENGTH_UNIT ( ) NAMED_UNIT ( * ) SI_UNIT ( .MILLI., .METRE. ) );
#223 = CARTESIAN_POINT ( 'NONE',  ( 0.000000000000000000, 0.000000000000000000, 0.000000000000000000 ) ) ;
#224 = CARTESIAN_POINT ( 'NONE',  ( 0.000000000000000000, 0.000000000000000000, -4.500000000000000888 ) ) ;
#225 = COLOUR_RGB ( '',0.7921568627450980005, 0.8196078431372548767, 0.9333333333333333481 ) ;
#226 = CARTESIAN_POINT ( 'NONE',  ( -4.999999999999987566, 75.00000000000000000, 0.000000000000000000 ) ) ;
#227 = FILL_AREA_STYLE ('',( #306 ) ) ;
#228 = EDGE_CURVE ( 'NONE', #93, #141, #345, .T. ) ;
#229 = DIRECTION ( 'NONE',  ( 0.000000000000000000, 0.000000000000000000, -1.000000000000000000 ) ) ;
#230 = PRESENTATION_LAYER_ASSIGNMENT (  '', '', ( #370 ) ) ;
#231 = ORIENTED_EDGE ( 'NONE', *, *, #85, .T. ) ;
#232 = MECHANICAL_DESIGN_GEOMETRIC_PRESENTATION_REPRESENTATION (  '', ( #339 ), #54 ) ;
#233 = VERTEX_POINT ( 'NONE', #224 ) ;
#234 = EDGE_CURVE ( 'NONE', #235, #146, #239, .T. ) ;
#235 = VERTEX_POINT ( 'NONE', #226 ) ;
#236 = COLOUR_RGB ( '',1.000000000000000000, 0.000000000000000000, 0.000000000000000000 ) ;
#237 = CIRCLE ( 'NONE', #131, 4.500000000000000888 ) ;
#238 = ORIENTED_EDGE ( 'NONE', *, *, #85, .F. ) ;
#239 = CIRCLE ( 'NONE', #331, 4.999999999999993783 ) ;
#240 = FILL_AREA_STYLE_COLOUR ( '', #109 ) ;
#241 = DIRECTION ( 'NONE',  ( -1.203966067220177465E-16, 1.000000000000000000, -0.000000000000000000 ) ) ;
#242 = UNCERTAINTY_MEASURE_WITH_UNIT (LENGTH_MEASURE( 1.000000000000000082E-05 ), #202, 'distance_accuracy_value', 'NONE');
#243 = SURFACE_SIDE_STYLE ('',( #325 ) ) ;
#244 =( NAMED_UNIT ( * ) PLANE_ANGLE_UNIT ( ) SI_UNIT ( $, .RADIAN. ) );
#245 = MECHANICAL_DESIGN_GEOMETRIC_PRESENTATION_REPRESENTATION (  '', ( #370 ), #252 ) ;
#246 = SURFACE_SIDE_STYLE ('',( #123 ) ) ;
#247 = CARTESIAN_POINT ( 'NONE',  ( 5.510910596163089556E-16, 0.5000000000000000000, 4.500000000000000888 ) ) ;
#248 = COLOUR_RGB ( '',1.000000000000000000, 0.000000000000000000, 0.000000000000000000 ) ;
#249 = CARTESIAN_POINT ( 'NONE',  ( 0.000000000000000000, 25.00000000000000000, -5.000000000000000000 ) ) ;
#250 = DIRECTION ( 'NONE',  ( 0.000000000000000000, 0.000000000000000000, -1.000000000000000000 ) ) ;
#251 = SURFACE_STYLE_USAGE ( .BOTH. , #17 ) ;
#252 =( GEOMETRIC_REPRESENTATION_CONTEXT ( 3 ) GLOBAL_UNCERTAINTY_ASSIGNED_CONTEXT ( ( #153 ) ) GLOBAL_UNIT_ASSIGNED_CONTEXT ( ( #334, #299, #368 ) ) REPRESENTATION_CONTEXT ( 'NONE', 'WORKASPACE' ) );
#253 = TOROIDAL_SURFACE ( 'NONE', #81, 4.500000000000000888, 0.5000000000000002220 ) ;
#254 = ORIENTED_EDGE ( 'NONE', *, *, #287, .F. ) ;
#255 = APPLICATION_PROTOCOL_DEFINITION ( 'draft international standard', 'automotive_design', 1998, #311 ) ;
#256 = COLOUR_RGB ( '',0.7921568627450980005, 0.8196078431372548767, 0.9333333333333333481 ) ;
#257 = CARTESIAN_POINT ( 'NONE',  ( 0.000000000000000000, 0.000000000000000000, 0.000000000000000000 ) ) ;
#258 = ORIENTED_EDGE ( 'NONE', *, *, #365, .F. ) ;
#259 = PRESENTATION_LAYER_ASSIGNMENT (  '', '', ( #339 ) ) ;
#260 = FILL_AREA_STYLE_COLOUR ( '', #248 ) ;
#261 = EDGE_CURVE ( 'NONE', #141, #93, #175, .T. ) ;
#262 = ORIENTED_EDGE ( 'NONE', *, *, #228, .F. ) ;
#263 = CARTESIAN_POINT ( 'NONE',  ( -4.999999999999984901, 75.00000000000000000, 0.000000000000000000 ) ) ;
#264 = SURFACE_STYLE_FILL_AREA ( #267 ) ;
#265 = EDGE_LOOP ( 'NONE', ( #130, #327, #11, #55 ) ) ;
#266 =( LENGTH_UNIT ( ) NAMED_UNIT ( * ) SI_UNIT ( .MILLI., .METRE. ) );
#267 = FILL_AREA_STYLE ('',( #212 ) ) ;
#268 = FILL_AREA_STYLE ('',( #164 ) ) ;
#269 = CARTESIAN_POINT ( 'NONE',  ( 0.000000000000000000, 0.5000000000000000000, 0.000000000000000000 ) ) ;
#270 = CARTESIAN_POINT ( 'NONE',  ( 0.000000000000000000, 0.5000000000000000000, -4.500000000000000888 ) ) ;
#271 = CIRCLE ( 'NONE', #320, 5.000000000000000888 ) ;
#272 = SURFACE_STYLE_USAGE ( .BOTH. , #360 ) ;
#273 = SURFACE_STYLE_USAGE ( .BOTH. , #221 ) ;
#274 = VECTOR ( 'NONE', #321, 1000.000000000000000 ) ;
#275 = ORIENTED_EDGE ( 'NONE', *, *, #144, .F. ) ;
#276 = PRESENTATION_STYLE_ASSIGNMENT (( #273 ) ) ;
#277 = DIRECTION ( 'NONE',  ( 0.000000000000000000, 1.000000000000000000, 0.000000000000000000 ) ) ;
#278 = EDGE_LOOP ( 'NONE', ( #121, #166, #231, #46 ) ) ;
#279 = APPLICATION_CONTEXT ( 'automotive_design' ) ;
#280 = ORIENTED_EDGE ( 'NONE', *, *, #136, .T. ) ;
#281 = AXIS2_PLACEMENT_3D ( 'NONE', #270, #72, #191 ) ;
#282 = UNCERTAINTY_MEASURE_WITH_UNIT (LENGTH_MEASURE( 1.000000000000000082E-05 ), #266, 'distance_accuracy_value', 'NONE');
#283 = ORIENTED_EDGE ( 'NONE', *, *, #234, .F. ) ;
#284 = ORIENTED_EDGE ( 'NONE', *, *, #228, .T. ) ;
#285 = PRODUCT_DEFINITION_SHAPE ( 'NONE', 'NONE',  #177 ) ;
#286 =( NAMED_UNIT ( * ) SI_UNIT ( $, .STERADIAN. ) SOLID_ANGLE_UNIT ( ) );
#287 = EDGE_CURVE ( 'NONE', #4, #52, #220, .T. ) ;
#288 = UNCERTAINTY_MEASURE_WITH_UNIT (LENGTH_MEASURE( 1.000000000000000082E-05 ), #51, 'distance_accuracy_value', 'NONE');
#289 = DIRECTION ( 'NONE',  ( -0.000000000000000000, -1.000000000000000000, -0.000000000000000000 ) ) ;
#290 = FILL_AREA_STYLE ('',( #349 ) ) ;
#291 = DIRECTION ( 'NONE',  ( -1.203966067220177465E-16, 1.000000000000000000, 0.000000000000000000 ) ) ;
#292 = SURFACE_STYLE_USAGE ( .BOTH. , #359 ) ;
#293 = CARTESIAN_POINT ( 'NONE',  ( 5.000000000000000888, 75.00000000000000000, 6.123233995736757408E-16 ) ) ;
#294 = EDGE_LOOP ( 'NONE', ( #181, #258 ) ) ;
#295 = DIRECTION ( 'NONE',  ( -1.000000000000000000, -1.203966067220177465E-16, 0.000000000000000000 ) ) ;
#296 = CARTESIAN_POINT ( 'NONE',  ( 6.123233995736766282E-16, 25.00000000000000000, 5.000000000000000000 ) ) ;
#297 = DIRECTION ( 'NONE',  ( -1.000000000000000000, 0.000000000000000000, 0.000000000000000000 ) ) ;
#298 =( LENGTH_UNIT ( ) NAMED_UNIT ( * ) SI_UNIT ( .MILLI., .METRE. ) );
#299 =( NAMED_UNIT ( * ) PLANE_ANGLE_UNIT ( ) SI_UNIT ( $, .RADIAN. ) );
#300 =( NAMED_UNIT ( * ) SI_UNIT ( $, .STERADIAN. ) SOLID_ANGLE_UNIT ( ) );
#301 = EDGE_CURVE ( 'NONE', #233, #305, #159, .T. ) ;
#302 = PLANE ( 'NONE',  #316 ) ;
#303 = SURFACE_STYLE_FILL_AREA ( #227 ) ;
#304 = PRESENTATION_LAYER_ASSIGNMENT (  '', '', ( #324 ) ) ;
#305 = VERTEX_POINT ( 'NONE', #173 ) ;
#306 = FILL_AREA_STYLE_COLOUR ( '', #236 ) ;
#307 = EDGE_CURVE ( 'NONE', #52, #4, #271, .T. ) ;
#308 = FACE_OUTER_BOUND ( 'NONE', #278, .T. ) ;
#309 = AXIS2_PLACEMENT_3D ( 'NONE', #142, #1, #110 ) ;
#310 = FACE_OUTER_BOUND ( 'NONE', #294, .T. ) ;
#311 = APPLICATION_CONTEXT ( 'automotive_design' ) ;
#312 = DIRECTION ( 'NONE',  ( -0.000000000000000000, -1.000000000000000000, -0.000000000000000000 ) ) ;
#313 = ORIENTED_EDGE ( 'NONE', *, *, #301, .T. ) ;
#314 = CIRCLE ( 'NONE', #192, 5.000000000000000000 ) ;
#315 = CLOSED_SHELL ( 'NONE', ( #75, #217, #167, #344, #106, #346 ) ) ;
#316 = AXIS2_PLACEMENT_3D ( 'NONE', #329, #333, #348 ) ;
#317 = ADVANCED_FACE ( 'NONE', ( #22 ), #364, .T. ) ;
#318 = PRESENTATION_STYLE_ASSIGNMENT (( #40 ) ) ;
#319 = CARTESIAN_POINT ( 'NONE',  ( 0.000000000000000000, 0.000000000000000000, -5.000000000000000888 ) ) ;
#320 = AXIS2_PLACEMENT_3D ( 'NONE', #197, #78, #196 ) ;
#321 = DIRECTION ( 'NONE',  ( -1.203966067220177465E-16, 1.000000000000000000, -0.000000000000000000 ) ) ;
#322 = AXIS2_PLACEMENT_3D ( 'NONE', #21, #77, #341 ) ;
#323 = ORIENTED_EDGE ( 'NONE', *, *, #301, .F. ) ;
#324 = STYLED_ITEM ( 'NONE', ( #16 ), #217 ) ;
#325 = SURFACE_STYLE_FILL_AREA ( #290 ) ;
#326 = ORIENTED_EDGE ( 'NONE', *, *, #361, .T. ) ;
#327 = ORIENTED_EDGE ( 'NONE', *, *, #365, .T. ) ;
#328 = STYLED_ITEM ( 'NONE', ( #276 ), #344 ) ;
#329 = CARTESIAN_POINT ( 'NONE',  ( 5.000000000000000000, 75.00000000000000000, 0.000000000000000000 ) ) ;
#330 =( GEOMETRIC_REPRESENTATION_CONTEXT ( 3 ) GLOBAL_UNCERTAINTY_ASSIGNED_CONTEXT ( ( #187 ) ) GLOBAL_UNIT_ASSIGNED_CONTEXT ( ( #222, #37, #65 ) ) REPRESENTATION_CONTEXT ( 'NONE', 'WORKASPACE' ) );
#331 = AXIS2_PLACEMENT_3D ( 'NONE', #137, #102, #79 ) ;
#332 = DIRECTION ( 'NONE',  ( -0.000000000000000000, -1.000000000000000000, -0.000000000000000000 ) ) ;
#333 = DIRECTION ( 'NONE',  ( 1.203966067220177465E-16, -1.000000000000000000, 0.000000000000000000 ) ) ;
#334 =( LENGTH_UNIT ( ) NAMED_UNIT ( * ) SI_UNIT ( .MILLI., .METRE. ) );
#335 = DIRECTION ( 'NONE',  ( -0.000000000000000000, -1.000000000000000000, -0.000000000000000000 ) ) ;
#336 = DIRECTION ( 'NONE',  ( -0.000000000000000000, -1.000000000000000000, -0.000000000000000000 ) ) ;
#337 = VECTOR ( 'NONE', #289, 1000.000000000000000 ) ;
#338 = DIRECTION ( 'NONE',  ( 0.000000000000000000, 0.000000000000000000, -1.000000000000000000 ) ) ;
#339 = STYLED_ITEM ( 'NONE', ( #351 ), #106 ) ;
#340 = DIRECTION ( 'NONE',  ( -0.000000000000000000, -1.000000000000000000, -0.000000000000000000 ) ) ;
#341 = DIRECTION ( 'NONE',  ( 0.000000000000000000, 0.000000000000000000, -1.000000000000000000 ) ) ;
#342 = VECTOR ( 'NONE', #35, 1000.000000000000000 ) ;
#343 = PRODUCT_CONTEXT ( 'NONE', #311, 'mechanical' ) ;
#344 = ADVANCED_FACE ( 'NONE', ( #308 ), #180, .T. ) ;
#345 = CIRCLE ( 'NONE', #189, 4.999999999999987566 ) ;
#346 = ADVANCED_FACE ( 'NONE', ( #310 ), #172, .T. ) ;
#347 =( NAMED_UNIT ( * ) PLANE_ANGLE_UNIT ( ) SI_UNIT ( $, .RADIAN. ) );
#348 = DIRECTION ( 'NONE',  ( 1.000000000000000000, 1.203966067220177465E-16, 0.000000000000000000 ) ) ;
#349 = FILL_AREA_STYLE_COLOUR ( '', #126 ) ;
#350 = CARTESIAN_POINT ( 'NONE',  ( 0.000000000000000000, 25.00000000000000000, 0.000000000000000000 ) ) ;
#351 = PRESENTATION_STYLE_ASSIGNMENT (( #86 ) ) ;
#352 = FACE_OUTER_BOUND ( 'NONE', #89, .T. ) ;
#353 = CARTESIAN_POINT ( 'NONE',  ( 0.000000000000000000, 0.000000000000000000, 0.000000000000000000 ) ) ;
#354 = EDGE_LOOP ( 'NONE', ( #30, #280, #323, #238 ) ) ;
#355 = DIRECTION ( 'NONE',  ( 0.000000000000000000, 0.000000000000000000, -1.000000000000000000 ) ) ;
#356 = ORIENTED_EDGE ( 'NONE', *, *, #149, .T. ) ;
#357 = LINE ( 'NONE', #319, #337 ) ;
#358 = AXIS2_PLACEMENT_3D ( 'NONE', #74, #198, #103 ) ;
#359 = SURFACE_SIDE_STYLE ('',( #264 ) ) ;
#360 = SURFACE_SIDE_STYLE ('',( #73 ) ) ;
#361 = EDGE_CURVE ( 'NONE', #305, #233, #237, .T. ) ;
#362 = AXIS2_PLACEMENT_3D ( 'NONE', #162, #9, #355 ) ;
#363 = CARTESIAN_POINT ( 'NONE',  ( 0.000000000000000000, 0.5000000000000000000, -5.000000000000000888 ) ) ;
#364 = CYLINDRICAL_SURFACE ( 'NONE', #358, 4.999999999999990230 ) ;
#365 = EDGE_CURVE ( 'NONE', #203, #209, #314, .T. ) ;
#366 = DIRECTION ( 'NONE',  ( -1.000000000000000000, 0.000000000000000000, 0.000000000000000000 ) ) ;
#367 =( NAMED_UNIT ( * ) SI_UNIT ( $, .STERADIAN. ) SOLID_ANGLE_UNIT ( ) );
#368 =( NAMED_UNIT ( * ) SI_UNIT ( $, .STERADIAN. ) SOLID_ANGLE_UNIT ( ) );
#369 = ORIENTED_EDGE ( 'NONE', *, *, #144, .T. ) ;
#370 = STYLED_ITEM ( 'NONE', ( #132 ), #346 ) ;
ENDSEC;
END-ISO-10303-21;
