ISO-10303-21;
HEADER;
FILE_DESCRIPTION (( 'STEP AP214' ),
    '1' );
FILE_NAME ('59845W.STEP',
    '2023-06-22T23:19:43',
    ( '' ),
    ( '' ),
    'SwSTEP 2.0',
    'SolidWorks 2023',
    '' );
FILE_SCHEMA (( 'AUTOMOTIVE_DESIGN' ));
ENDSEC;

DATA;
#1 = DIRECTION ( 'NONE',  ( 0.000000000000000000, 0.000000000000000000, -1.000000000000000000 ) ) ;
#2 = SURFACE_SIDE_STYLE ('',( #262 ) ) ;
#3 = FACE_OUTER_BOUND ( 'NONE', #257, .T. ) ;
#4 = DIRECTION ( 'NONE',  ( 3.265724797726278260E-17, 1.000000000000000000, -0.000000000000000000 ) ) ;
#5 = CARTESIAN_POINT ( 'NONE',  ( 0.2500000000000000000, 0.6250000000000000000, 3.061616997868382402E-17 ) ) ;
#6 = AXIS2_PLACEMENT_3D ( 'NONE', #98, #69, #269 ) ;
#7 = AXIS2_PLACEMENT_3D ( 'NONE', #95, #148, #123 ) ;
#8 = CARTESIAN_POINT ( 'NONE',  ( -0.2499999999999998890, 2.500000000000000000, 0.000000000000000000 ) ) ;
#9 = SURFACE_STYLE_FILL_AREA ( #224 ) ;
#10 = COLOUR_RGB ( '',1.000000000000000000, 0.000000000000000000, 0.000000000000000000 ) ;
#11 = FACE_OUTER_BOUND ( 'NONE', #38, .T. ) ;
#12 = ORIENTED_EDGE ( 'NONE', *, *, #268, .T. ) ;
#13 = ADVANCED_FACE ( 'NONE', ( #68 ), #283, .T. ) ;
#14 = ORIENTED_EDGE ( 'NONE', *, *, #100, .T. ) ;
#15 = DIRECTION ( 'NONE',  ( 3.265724797726278260E-17, 1.000000000000000000, -0.000000000000000000 ) ) ;
#16 = EDGE_LOOP ( 'NONE', ( #206, #182 ) ) ;
#17 = VERTEX_POINT ( 'NONE', #216 ) ;
#18 = AXIS2_PLACEMENT_3D ( 'NONE', #263, #42, #1 ) ;
#19 = SURFACE_SIDE_STYLE ('',( #244 ) ) ;
#20 = SHAPE_DEFINITION_REPRESENTATION ( #290, #265 ) ;
#21 = SURFACE_SIDE_STYLE ('',( #306 ) ) ;
#22 = SURFACE_STYLE_FILL_AREA ( #209 ) ;
#23 = UNCERTAINTY_MEASURE_WITH_UNIT (LENGTH_MEASURE( 1.000000000000000082E-05 ), #291, 'distance_accuracy_value', 'NONE');
#24 = PRESENTATION_STYLE_ASSIGNMENT (( #211 ) ) ;
#25 = DIRECTION ( 'NONE',  ( -0.000000000000000000, -1.000000000000000000, -0.000000000000000000 ) ) ;
#26 = EDGE_CURVE ( 'NONE', #17, #138, #219, .T. ) ;
#27 = AXIS2_PLACEMENT_3D ( 'NONE', #155, #73, #136 ) ;
#28 = FILL_AREA_STYLE_COLOUR ( '', #278 ) ;
#29 =( GEOMETRIC_REPRESENTATION_CONTEXT ( 3 ) GLOBAL_UNCERTAINTY_ASSIGNED_CONTEXT ( ( #23 ) ) GLOBAL_UNIT_ASSIGNED_CONTEXT ( ( #291, #152, #276 ) ) REPRESENTATION_CONTEXT ( 'NONE', 'WORKASPACE' ) );
#30 =( CONVERSION_BASED_UNIT ( 'INCH', #150 ) LENGTH_UNIT ( ) NAMED_UNIT ( #35 ) );
#31 = EDGE_LOOP ( 'NONE', ( #109, #113, #133, #185 ) ) ;
#32 = VERTEX_POINT ( 'NONE', #163 ) ;
#33 = CIRCLE ( 'NONE', #249, 0.2500000000000000000 ) ;
#34 = PRESENTATION_STYLE_ASSIGNMENT (( #37 ) ) ;
#35 = DIMENSIONAL_EXPONENTS ( 1.000000000000000000, 0.000000000000000000, 0.000000000000000000, 0.000000000000000000, 0.000000000000000000, 0.000000000000000000, 0.000000000000000000 ) ;
#36 = VERTEX_POINT ( 'NONE', #94 ) ;
#37 = SURFACE_STYLE_USAGE ( .BOTH. , #108 ) ;
#38 = EDGE_LOOP ( 'NONE', ( #63, #156, #279, #83 ) ) ;
#39 = MECHANICAL_DESIGN_GEOMETRIC_PRESENTATION_REPRESENTATION (  '', ( #178 ), #71 ) ;
#40 = COLOUR_RGB ( '',0.7921568627450980005, 0.8196078431372548767, 0.9333333333333333481 ) ;
#41 = APPLICATION_PROTOCOL_DEFINITION ( 'draft international standard', 'automotive_design', 1998, #202 ) ;
#42 = DIRECTION ( 'NONE',  ( -0.000000000000000000, -1.000000000000000000, -0.000000000000000000 ) ) ;
#43 = EDGE_CURVE ( 'NONE', #138, #36, #214, .T. ) ;
#44 = LENGTH_MEASURE_WITH_UNIT ( LENGTH_MEASURE( 0.02539999999999999897 ), #194 );
#45 = MECHANICAL_DESIGN_GEOMETRIC_PRESENTATION_REPRESENTATION (  '', ( #307 ), #215 ) ;
#46 = CARTESIAN_POINT ( 'NONE',  ( 0.000000000000000000, 0.000000000000000000, 0.000000000000000000 ) ) ;
#47 = CARTESIAN_POINT ( 'NONE',  ( 0.000000000000000000, 0.6250000000000000000, -0.2500000000000000000 ) ) ;
#48 = AXIS2_PLACEMENT_3D ( 'NONE', #195, #286, #161 ) ;
#49 = CARTESIAN_POINT ( 'NONE',  ( 0.2500000000000000555, 2.500000000000000000, 3.061616997868382402E-17 ) ) ;
#50 = EDGE_CURVE ( 'NONE', #32, #302, #79, .T. ) ;
#51 =( LENGTH_UNIT ( ) NAMED_UNIT ( * ) SI_UNIT ( $, .METRE. ) );
#52 =( CONVERSION_BASED_UNIT ( 'INCH', #146 ) LENGTH_UNIT ( ) NAMED_UNIT ( #184 ) );
#53 = PLANE ( 'NONE',  #147 ) ;
#54 = PRODUCT_DEFINITION_CONTEXT ( 'detailed design', #202, 'design' ) ;
#55 = DIMENSIONAL_EXPONENTS ( 1.000000000000000000, 0.000000000000000000, 0.000000000000000000, 0.000000000000000000, 0.000000000000000000, 0.000000000000000000, 0.000000000000000000 ) ;
#56 = ADVANCED_FACE ( 'NONE', ( #88 ), #96, .F. ) ;
#57 = ORIENTED_EDGE ( 'NONE', *, *, #271, .F. ) ;
#58 = FACE_OUTER_BOUND ( 'NONE', #31, .T. ) ;
#59 = ORIENTED_EDGE ( 'NONE', *, *, #26, .F. ) ;
#60 =( CONVERSION_BASED_UNIT ( 'INCH', #251 ) LENGTH_UNIT ( ) NAMED_UNIT ( #235 ) );
#61 = LENGTH_MEASURE_WITH_UNIT ( LENGTH_MEASURE( 0.02539999999999999897 ), #277 );
#62 = EDGE_CURVE ( 'NONE', #111, #158, #196, .T. ) ;
#63 = ORIENTED_EDGE ( 'NONE', *, *, #100, .F. ) ;
#64 = DIRECTION ( 'NONE',  ( 0.000000000000000000, 0.000000000000000000, -1.000000000000000000 ) ) ;
#65 = VECTOR ( 'NONE', #175, 39.37007874015748143 ) ;
#66 = CIRCLE ( 'NONE', #294, 0.2500000000000000000 ) ;
#67 = UNCERTAINTY_MEASURE_WITH_UNIT (LENGTH_MEASURE( 1.000000000000000082E-05 ), #246, 'distance_accuracy_value', 'NONE');
#68 = FACE_OUTER_BOUND ( 'NONE', #187, .T. ) ;
#69 = DIRECTION ( 'NONE',  ( 0.000000000000000000, 1.000000000000000000, 0.000000000000000000 ) ) ;
#70 = CARTESIAN_POINT ( 'NONE',  ( -0.2499999999999998612, 2.500000000000000000, 0.000000000000000000 ) ) ;
#71 =( GEOMETRIC_REPRESENTATION_CONTEXT ( 3 ) GLOBAL_UNCERTAINTY_ASSIGNED_CONTEXT ( ( #119 ) ) GLOBAL_UNIT_ASSIGNED_CONTEXT ( ( #288, #159, #242 ) ) REPRESENTATION_CONTEXT ( 'NONE', 'WORKASPACE' ) );
#72 =( NAMED_UNIT ( * ) SI_UNIT ( $, .STERADIAN. ) SOLID_ANGLE_UNIT ( ) );
#73 = DIRECTION ( 'NONE',  ( 3.265724797726278260E-17, 1.000000000000000000, -0.000000000000000000 ) ) ;
#74 = PRESENTATION_STYLE_ASSIGNMENT (( #295 ) ) ;
#75 = CYLINDRICAL_SURFACE ( 'NONE', #27, 0.2499999999999999722 ) ;
#76 = DIRECTION ( 'NONE',  ( -0.000000000000000000, -1.000000000000000000, -0.000000000000000000 ) ) ;
#77 = EDGE_CURVE ( 'NONE', #81, #36, #33, .T. ) ;
#78 = ORIENTED_EDGE ( 'NONE', *, *, #154, .T. ) ;
#79 = CIRCLE ( 'NONE', #107, 0.2500000000000000000 ) ;
#80 = FILL_AREA_STYLE ('',( #131 ) ) ;
#81 = VERTEX_POINT ( 'NONE', #118 ) ;
#82 = EDGE_CURVE ( 'NONE', #138, #17, #233, .T. ) ;
#83 = ORIENTED_EDGE ( 'NONE', *, *, #77, .F. ) ;
#84 = APPLICATION_CONTEXT ( 'automotive_design' ) ;
#85 = PRESENTATION_LAYER_ASSIGNMENT (  '', '', ( #229 ) ) ;
#86 = EDGE_LOOP ( 'NONE', ( #258, #254 ) ) ;
#87 = MANIFOLD_SOLID_BREP ( 'Revolve - Tool Body (Straight Shanked)', #191 ) ;
#88 = FACE_OUTER_BOUND ( 'NONE', #252, .T. ) ;
#89 = DIRECTION ( 'NONE',  ( 1.000000000000000000, 0.000000000000000000, 0.000000000000000000 ) ) ;
#90 = PRESENTATION_STYLE_ASSIGNMENT (( #189 ) ) ;
#91 = CYLINDRICAL_SURFACE ( 'NONE', #7, 0.2499999999999999722 ) ;
#92 = COLOUR_RGB ( '',0.7921568627450980005, 0.8196078431372548767, 0.9333333333333333481 ) ;
#93 = CARTESIAN_POINT ( 'NONE',  ( 0.000000000000000000, 0.6250000000000000000, 0.000000000000000000 ) ) ;
#94 = CARTESIAN_POINT ( 'NONE',  ( 0.000000000000000000, 0.000000000000000000, -0.2500000000000000000 ) ) ;
#95 = CARTESIAN_POINT ( 'NONE',  ( 6.123233995736772199E-17, 2.500000000000000000, 0.000000000000000000 ) ) ;
#96 = PLANE ( 'NONE',  #274 ) ;
#97 = ADVANCED_FACE ( 'NONE', ( #58 ), #75, .T. ) ;
#98 = CARTESIAN_POINT ( 'NONE',  ( 0.000000000000000000, 0.6250000000000000000, 0.000000000000000000 ) ) ;
#99 = STYLED_ITEM ( 'NONE', ( #90 ), #87 ) ;
#100 = EDGE_CURVE ( 'NONE', #17, #81, #297, .T. ) ;
#101 = SURFACE_STYLE_USAGE ( .BOTH. , #2 ) ;
#102 = DIRECTION ( 'NONE',  ( 3.265724797726278260E-17, 1.000000000000000000, -0.000000000000000000 ) ) ;
#103 = AXIS2_PLACEMENT_3D ( 'NONE', #124, #198, #245 ) ;
#104 = DIRECTION ( 'NONE',  ( 0.000000000000000000, -1.000000000000000000, -0.000000000000000000 ) ) ;
#105 = CARTESIAN_POINT ( 'NONE',  ( 0.2500000000000000000, 2.500000000000000000, 3.061616997868382402E-17 ) ) ;
#106 = ORIENTED_EDGE ( 'NONE', *, *, #43, .F. ) ;
#107 = AXIS2_PLACEMENT_3D ( 'NONE', #122, #4, #145 ) ;
#108 = SURFACE_SIDE_STYLE ('',( #203 ) ) ;
#109 = ORIENTED_EDGE ( 'NONE', *, *, #50, .T. ) ;
#110 = LENGTH_MEASURE_WITH_UNIT ( LENGTH_MEASURE( 0.02539999999999999897 ), #225 );
#111 = VERTEX_POINT ( 'NONE', #105 ) ;
#112 =( LENGTH_UNIT ( ) NAMED_UNIT ( * ) SI_UNIT ( $, .METRE. ) );
#113 = ORIENTED_EDGE ( 'NONE', *, *, #127, .T. ) ;
#114 =( NAMED_UNIT ( * ) PLANE_ANGLE_UNIT ( ) SI_UNIT ( $, .RADIAN. ) );
#115 =( NAMED_UNIT ( * ) PLANE_ANGLE_UNIT ( ) SI_UNIT ( $, .RADIAN. ) );
#116 = AXIS2_PLACEMENT_3D ( 'NONE', #93, #305, #64 ) ;
#117 = DIRECTION ( 'NONE',  ( 0.000000000000000000, 0.000000000000000000, -1.000000000000000000 ) ) ;
#118 = CARTESIAN_POINT ( 'NONE',  ( 3.061616997868383018E-17, 0.000000000000000000, 0.2500000000000000000 ) ) ;
#119 = UNCERTAINTY_MEASURE_WITH_UNIT (LENGTH_MEASURE( 1.000000000000000082E-05 ), #288, 'distance_accuracy_value', 'NONE');
#120 = PRESENTATION_LAYER_ASSIGNMENT (  '', '', ( #303 ) ) ;
#121 = AXIS2_PLACEMENT_3D ( 'NONE', #272, #104, #296 ) ;
#122 = CARTESIAN_POINT ( 'NONE',  ( 0.000000000000000000, 0.6250000000000000000, 0.000000000000000000 ) ) ;
#123 = DIRECTION ( 'NONE',  ( -1.000000000000000000, 0.000000000000000000, 0.000000000000000000 ) ) ;
#124 = CARTESIAN_POINT ( 'NONE',  ( 6.123233995736772199E-17, 2.500000000000000000, 0.000000000000000000 ) ) ;
#125 = PRESENTATION_LAYER_ASSIGNMENT (  '', '', ( #307 ) ) ;
#126 =( NAMED_UNIT ( * ) SI_UNIT ( $, .STERADIAN. ) SOLID_ANGLE_UNIT ( ) );
#127 = EDGE_CURVE ( 'NONE', #302, #111, #177, .T. ) ;
#128 = FACE_OUTER_BOUND ( 'NONE', #86, .T. ) ;
#129 =( LENGTH_UNIT ( ) NAMED_UNIT ( * ) SI_UNIT ( $, .METRE. ) );
#130 = CYLINDRICAL_SURFACE ( 'NONE', #207, 0.2500000000000000000 ) ;
#131 = FILL_AREA_STYLE_COLOUR ( '', #40 ) ;
#132 = ORIENTED_EDGE ( 'NONE', *, *, #127, .F. ) ;
#133 = ORIENTED_EDGE ( 'NONE', *, *, #154, .F. ) ;
#134 = PRESENTATION_LAYER_ASSIGNMENT (  '', '', ( #186 ) ) ;
#135 = ADVANCED_FACE ( 'NONE', ( #151 ), #256, .T. ) ;
#136 = DIRECTION ( 'NONE',  ( -1.000000000000000000, 0.000000000000000000, 0.000000000000000000 ) ) ;
#137 =( NAMED_UNIT ( * ) PLANE_ANGLE_UNIT ( ) SI_UNIT ( $, .RADIAN. ) );
#138 = VERTEX_POINT ( 'NONE', #47 ) ;
#139 = DIRECTION ( 'NONE',  ( 1.000000000000000000, -3.265724797726278260E-17, 0.000000000000000000 ) ) ;
#140 = COLOUR_RGB ( '',1.000000000000000000, 0.000000000000000000, 0.000000000000000000 ) ;
#141 = MECHANICAL_DESIGN_GEOMETRIC_PRESENTATION_REPRESENTATION (  '', ( #186 ), #253 ) ;
#142 =( GEOMETRIC_REPRESENTATION_CONTEXT ( 3 ) GLOBAL_UNCERTAINTY_ASSIGNED_CONTEXT ( ( #261 ) ) GLOBAL_UNIT_ASSIGNED_CONTEXT ( ( #60, #114, #126 ) ) REPRESENTATION_CONTEXT ( 'NONE', 'WORKASPACE' ) );
#143 = DIRECTION ( 'NONE',  ( -3.265724797726278260E-17, -1.000000000000000000, 0.000000000000000000 ) ) ;
#144 = DIRECTION ( 'NONE',  ( -1.000000000000000000, 0.000000000000000000, 0.000000000000000000 ) ) ;
#145 = DIRECTION ( 'NONE',  ( -1.000000000000000000, 0.000000000000000000, 0.000000000000000000 ) ) ;
#146 = LENGTH_MEASURE_WITH_UNIT ( LENGTH_MEASURE( 0.02539999999999999897 ), #129 );
#147 = AXIS2_PLACEMENT_3D ( 'NONE', #222, #15, #281 ) ;
#148 = DIRECTION ( 'NONE',  ( 3.265724797726278260E-17, 1.000000000000000000, -0.000000000000000000 ) ) ;
#149 = LENGTH_MEASURE_WITH_UNIT ( LENGTH_MEASURE( 0.02539999999999999897 ), #51 );
#150 = LENGTH_MEASURE_WITH_UNIT ( LENGTH_MEASURE( 0.02539999999999999897 ), #169 );
#151 = FACE_OUTER_BOUND ( 'NONE', #204, .T. ) ;
#152 =( NAMED_UNIT ( * ) PLANE_ANGLE_UNIT ( ) SI_UNIT ( $, .RADIAN. ) );
#153 =( CONVERSION_BASED_UNIT ( 'INCH', #61 ) LENGTH_UNIT ( ) NAMED_UNIT ( #231 ) );
#154 = EDGE_CURVE ( 'NONE', #158, #111, #179, .T. ) ;
#155 = CARTESIAN_POINT ( 'NONE',  ( 6.123233995736772199E-17, 2.500000000000000000, 0.000000000000000000 ) ) ;
#156 = ORIENTED_EDGE ( 'NONE', *, *, #26, .T. ) ;
#157 = AXIS2_PLACEMENT_3D ( 'NONE', #238, #162, #89 ) ;
#158 = VERTEX_POINT ( 'NONE', #70 ) ;
#159 =( NAMED_UNIT ( * ) PLANE_ANGLE_UNIT ( ) SI_UNIT ( $, .RADIAN. ) );
#160 = MECHANICAL_DESIGN_GEOMETRIC_PRESENTATION_REPRESENTATION (  '', ( #303 ), #29 ) ;
#161 = DIRECTION ( 'NONE',  ( -1.000000000000000000, 0.000000000000000000, 0.000000000000000000 ) ) ;
#162 = DIRECTION ( 'NONE',  ( 0.000000000000000000, 0.000000000000000000, 1.000000000000000000 ) ) ;
#163 = CARTESIAN_POINT ( 'NONE',  ( -0.2500000000000000000, 0.6250000000000000000, 0.000000000000000000 ) ) ;
#164 = PRODUCT_RELATED_PRODUCT_CATEGORY ( 'part', '', ( #168 ) ) ;
#165 = FILL_AREA_STYLE_COLOUR ( '', #140 ) ;
#166 = VECTOR ( 'NONE', #218, 39.37007874015748143 ) ;
#167 = DIRECTION ( 'NONE',  ( -0.000000000000000000, -1.000000000000000000, -0.000000000000000000 ) ) ;
#168 = PRODUCT ( '59845W', '59845W', '', ( #210 ) ) ;
#169 =( LENGTH_UNIT ( ) NAMED_UNIT ( * ) SI_UNIT ( $, .METRE. ) );
#170 = FILL_AREA_STYLE_COLOUR ( '', #299 ) ;
#171 = DIRECTION ( 'NONE',  ( 3.265724797726278260E-17, 1.000000000000000000, -0.000000000000000000 ) ) ;
#172 =( NAMED_UNIT ( * ) PLANE_ANGLE_UNIT ( ) SI_UNIT ( $, .RADIAN. ) );
#173 = CARTESIAN_POINT ( 'NONE',  ( 3.061616997868383018E-17, 0.000000000000000000, 0.2500000000000000000 ) ) ;
#174 = EDGE_CURVE ( 'NONE', #302, #32, #192, .T. ) ;
#175 = DIRECTION ( 'NONE',  ( -0.000000000000000000, -1.000000000000000000, -0.000000000000000000 ) ) ;
#176 =( NAMED_UNIT ( * ) PLANE_ANGLE_UNIT ( ) SI_UNIT ( $, .RADIAN. ) );
#177 = LINE ( 'NONE', #49, #247 ) ;
#178 = STYLED_ITEM ( 'NONE', ( #24 ), #13 ) ;
#179 = CIRCLE ( 'NONE', #103, 0.2499999999999999167 ) ;
#180 =( NAMED_UNIT ( * ) SI_UNIT ( $, .STERADIAN. ) SOLID_ANGLE_UNIT ( ) );
#181 = PRODUCT_DEFINITION_FORMATION_WITH_SPECIFIED_SOURCE ( 'ANY', '', #168, .NOT_KNOWN. ) ;
#182 = ORIENTED_EDGE ( 'NONE', *, *, #77, .T. ) ;
#183 = UNCERTAINTY_MEASURE_WITH_UNIT (LENGTH_MEASURE( 1.000000000000000082E-05 ), #153, 'distance_accuracy_value', 'NONE');
#184 = DIMENSIONAL_EXPONENTS ( 1.000000000000000000, 0.000000000000000000, 0.000000000000000000, 0.000000000000000000, 0.000000000000000000, 0.000000000000000000, 0.000000000000000000 ) ;
#185 = ORIENTED_EDGE ( 'NONE', *, *, #268, .F. ) ;
#186 = STYLED_ITEM ( 'NONE', ( #74 ), #135 ) ;
#187 = EDGE_LOOP ( 'NONE', ( #232, #14, #57, #106 ) ) ;
#188 = FILL_AREA_STYLE ('',( #165 ) ) ;
#189 = SURFACE_STYLE_USAGE ( .BOTH. , #21 ) ;
#190 = SURFACE_SIDE_STYLE ('',( #22 ) ) ;
#191 = CLOSED_SHELL ( 'NONE', ( #97, #255, #298, #56 ) ) ;
#192 = CIRCLE ( 'NONE', #293, 0.2500000000000000000 ) ;
#193 = FILL_AREA_STYLE_COLOUR ( '', #92 ) ;
#194 =( LENGTH_UNIT ( ) NAMED_UNIT ( * ) SI_UNIT ( $, .METRE. ) );
#195 = CARTESIAN_POINT ( 'NONE',  ( 6.123233995736772199E-17, 2.500000000000000000, 0.000000000000000000 ) ) ;
#196 = CIRCLE ( 'NONE', #48, 0.2499999999999999167 ) ;
#197 = DIRECTION ( 'NONE',  ( 0.000000000000000000, 0.000000000000000000, -1.000000000000000000 ) ) ;
#198 = DIRECTION ( 'NONE',  ( 3.265724797726278260E-17, 1.000000000000000000, -0.000000000000000000 ) ) ;
#199 = MANIFOLD_SOLID_BREP ( 'Revolve - Cutting Edge', #237 ) ;
#200 = SURFACE_SIDE_STYLE ('',( #9 ) ) ;
#201 =( GEOMETRIC_REPRESENTATION_CONTEXT ( 3 ) GLOBAL_UNCERTAINTY_ASSIGNED_CONTEXT ( ( #183 ) ) GLOBAL_UNIT_ASSIGNED_CONTEXT ( ( #153, #115, #287 ) ) REPRESENTATION_CONTEXT ( 'NONE', 'WORKASPACE' ) );
#202 = APPLICATION_CONTEXT ( 'automotive_design' ) ;
#203 = SURFACE_STYLE_FILL_AREA ( #80 ) ;
#204 = EDGE_LOOP ( 'NONE', ( #300, #59 ) ) ;
#205 = MECHANICAL_DESIGN_GEOMETRIC_PRESENTATION_REPRESENTATION (  '', ( #99 ), #260 ) ;
#206 = ORIENTED_EDGE ( 'NONE', *, *, #271, .T. ) ;
#207 = AXIS2_PLACEMENT_3D ( 'NONE', #228, #76, #248 ) ;
#208 = ORIENTED_EDGE ( 'NONE', *, *, #62, .T. ) ;
#209 = FILL_AREA_STYLE ('',( #284 ) ) ;
#210 = PRODUCT_CONTEXT ( 'NONE', #84, 'mechanical' ) ;
#211 = SURFACE_STYLE_USAGE ( .BOTH. , #19 ) ;
#212 = CARTESIAN_POINT ( 'NONE',  ( 0.000000000000000000, 0.000000000000000000, -0.2500000000000000000 ) ) ;
#213 = ADVANCED_FACE ( 'NONE', ( #11 ), #130, .T. ) ;
#214 = LINE ( 'NONE', #212, #285 ) ;
#215 =( GEOMETRIC_REPRESENTATION_CONTEXT ( 3 ) GLOBAL_UNCERTAINTY_ASSIGNED_CONTEXT ( ( #301 ) ) GLOBAL_UNIT_ASSIGNED_CONTEXT ( ( #52, #172, #72 ) ) REPRESENTATION_CONTEXT ( 'NONE', 'WORKASPACE' ) );
#216 = CARTESIAN_POINT ( 'NONE',  ( 3.061616997868383018E-17, 0.6250000000000000000, 0.2500000000000000000 ) ) ;
#217 = DIRECTION ( 'NONE',  ( -0.000000000000000000, -1.000000000000000000, -0.000000000000000000 ) ) ;
#218 = DIRECTION ( 'NONE',  ( 3.265724797726278260E-17, 1.000000000000000000, -0.000000000000000000 ) ) ;
#219 = CIRCLE ( 'NONE', #18, 0.2500000000000000000 ) ;
#220 = CARTESIAN_POINT ( 'NONE',  ( 0.000000000000000000, 0.6250000000000000000, 0.000000000000000000 ) ) ;
#221 = FILL_AREA_STYLE ('',( #170 ) ) ;
#222 = CARTESIAN_POINT ( 'NONE',  ( 1.333119806810542605E-34, 0.6250000000000000000, 0.000000000000000000 ) ) ;
#223 = PRODUCT_DEFINITION ( 'UNKNOWN', '', #181, #54 ) ;
#224 = FILL_AREA_STYLE ('',( #28 ) ) ;
#225 =( LENGTH_UNIT ( ) NAMED_UNIT ( * ) SI_UNIT ( $, .METRE. ) );
#226 = PLANE ( 'NONE',  #121 ) ;
#227 = PRESENTATION_STYLE_ASSIGNMENT (( #101 ) ) ;
#228 = CARTESIAN_POINT ( 'NONE',  ( 0.000000000000000000, 0.000000000000000000, 0.000000000000000000 ) ) ;
#229 = STYLED_ITEM ( 'NONE', ( #234 ), #259 ) ;
#230 = ORIENTED_EDGE ( 'NONE', *, *, #174, .T. ) ;
#231 = DIMENSIONAL_EXPONENTS ( 1.000000000000000000, 0.000000000000000000, 0.000000000000000000, 0.000000000000000000, 0.000000000000000000, 0.000000000000000000, 0.000000000000000000 ) ;
#232 = ORIENTED_EDGE ( 'NONE', *, *, #82, .T. ) ;
#233 = CIRCLE ( 'NONE', #116, 0.2500000000000000000 ) ;
#234 = PRESENTATION_STYLE_ASSIGNMENT (( #280 ) ) ;
#235 = DIMENSIONAL_EXPONENTS ( 1.000000000000000000, 0.000000000000000000, 0.000000000000000000, 0.000000000000000000, 0.000000000000000000, 0.000000000000000000, 0.000000000000000000 ) ;
#236 = ORIENTED_EDGE ( 'NONE', *, *, #62, .F. ) ;
#237 = CLOSED_SHELL ( 'NONE', ( #13, #135, #213, #259 ) ) ;
#238 = CARTESIAN_POINT ( 'NONE',  ( 0.000000000000000000, 0.000000000000000000, 0.000000000000000000 ) ) ;
#239 = DIRECTION ( 'NONE',  ( -0.000000000000000000, -1.000000000000000000, -0.000000000000000000 ) ) ;
#240 = APPLICATION_PROTOCOL_DEFINITION ( 'draft international standard', 'automotive_design', 1998, #84 ) ;
#241 = FILL_AREA_STYLE ('',( #193 ) ) ;
#242 =( NAMED_UNIT ( * ) SI_UNIT ( $, .STERADIAN. ) SOLID_ANGLE_UNIT ( ) );
#243 = FACE_OUTER_BOUND ( 'NONE', #16, .T. ) ;
#244 = SURFACE_STYLE_FILL_AREA ( #188 ) ;
#245 = DIRECTION ( 'NONE',  ( -1.000000000000000000, 0.000000000000000000, 0.000000000000000000 ) ) ;
#246 =( CONVERSION_BASED_UNIT ( 'INCH', #149 ) LENGTH_UNIT ( ) NAMED_UNIT ( #282 ) );
#247 = VECTOR ( 'NONE', #102, 39.37007874015748143 ) ;
#248 = DIRECTION ( 'NONE',  ( 0.000000000000000000, 0.000000000000000000, -1.000000000000000000 ) ) ;
#249 = AXIS2_PLACEMENT_3D ( 'NONE', #270, #239, #117 ) ;
#250 =( NAMED_UNIT ( * ) SI_UNIT ( $, .STERADIAN. ) SOLID_ANGLE_UNIT ( ) );
#251 = LENGTH_MEASURE_WITH_UNIT ( LENGTH_MEASURE( 0.02539999999999999897 ), #112 );
#252 = EDGE_LOOP ( 'NONE', ( #78, #208 ) ) ;
#253 =( GEOMETRIC_REPRESENTATION_CONTEXT ( 3 ) GLOBAL_UNCERTAINTY_ASSIGNED_CONTEXT ( ( #67 ) ) GLOBAL_UNIT_ASSIGNED_CONTEXT ( ( #246, #176, #180 ) ) REPRESENTATION_CONTEXT ( 'NONE', 'WORKASPACE' ) );
#254 = ORIENTED_EDGE ( 'NONE', *, *, #174, .F. ) ;
#255 = ADVANCED_FACE ( 'NONE', ( #128 ), #53, .F. ) ;
#256 = PLANE ( 'NONE',  #6 ) ;
#257 = EDGE_LOOP ( 'NONE', ( #132, #230, #12, #236 ) ) ;
#258 = ORIENTED_EDGE ( 'NONE', *, *, #50, .F. ) ;
#259 = ADVANCED_FACE ( 'NONE', ( #243 ), #226, .T. ) ;
#260 =( GEOMETRIC_REPRESENTATION_CONTEXT ( 3 ) GLOBAL_UNCERTAINTY_ASSIGNED_CONTEXT ( ( #309 ) ) GLOBAL_UNIT_ASSIGNED_CONTEXT ( ( #30, #137, #250 ) ) REPRESENTATION_CONTEXT ( 'NONE', 'WORKASPACE' ) );
#261 = UNCERTAINTY_MEASURE_WITH_UNIT (LENGTH_MEASURE( 1.000000000000000082E-05 ), #60, 'distance_accuracy_value', 'NONE');
#262 = SURFACE_STYLE_FILL_AREA ( #221 ) ;
#263 = CARTESIAN_POINT ( 'NONE',  ( 0.000000000000000000, 0.6250000000000000000, 0.000000000000000000 ) ) ;
#264 = DIRECTION ( 'NONE',  ( 0.000000000000000000, 0.000000000000000000, -1.000000000000000000 ) ) ;
#265 = ADVANCED_BREP_SHAPE_REPRESENTATION ( '59845W', ( #199, #87, #157 ), #201 ) ;
#266 = AXIS2_PLACEMENT_3D ( 'NONE', #46, #167, #264 ) ;
#267 = MECHANICAL_DESIGN_GEOMETRIC_PRESENTATION_REPRESENTATION (  '', ( #229 ), #142 ) ;
#268 = EDGE_CURVE ( 'NONE', #32, #158, #275, .T. ) ;
#269 = DIRECTION ( 'NONE',  ( 0.000000000000000000, -0.000000000000000000, 1.000000000000000000 ) ) ;
#270 = CARTESIAN_POINT ( 'NONE',  ( 0.000000000000000000, 0.000000000000000000, 0.000000000000000000 ) ) ;
#271 = EDGE_CURVE ( 'NONE', #36, #81, #66, .T. ) ;
#272 = CARTESIAN_POINT ( 'NONE',  ( 0.000000000000000000, 0.000000000000000000, 0.000000000000000000 ) ) ;
#273 = PRESENTATION_LAYER_ASSIGNMENT (  '', '', ( #178 ) ) ;
#274 = AXIS2_PLACEMENT_3D ( 'NONE', #308, #143, #139 ) ;
#275 = LINE ( 'NONE', #8, #166 ) ;
#276 =( NAMED_UNIT ( * ) SI_UNIT ( $, .STERADIAN. ) SOLID_ANGLE_UNIT ( ) );
#277 =( LENGTH_UNIT ( ) NAMED_UNIT ( * ) SI_UNIT ( $, .METRE. ) );
#278 = COLOUR_RGB ( '',1.000000000000000000, 0.000000000000000000, 0.000000000000000000 ) ;
#279 = ORIENTED_EDGE ( 'NONE', *, *, #43, .T. ) ;
#280 = SURFACE_STYLE_USAGE ( .BOTH. , #190 ) ;
#281 = DIRECTION ( 'NONE',  ( -1.000000000000000000, 3.265724797726278260E-17, 0.000000000000000000 ) ) ;
#282 = DIMENSIONAL_EXPONENTS ( 1.000000000000000000, 0.000000000000000000, 0.000000000000000000, 0.000000000000000000, 0.000000000000000000, 0.000000000000000000, 0.000000000000000000 ) ;
#283 = CYLINDRICAL_SURFACE ( 'NONE', #266, 0.2500000000000000000 ) ;
#284 = FILL_AREA_STYLE_COLOUR ( '', #10 ) ;
#285 = VECTOR ( 'NONE', #25, 39.37007874015748143 ) ;
#286 = DIRECTION ( 'NONE',  ( 3.265724797726278260E-17, 1.000000000000000000, -0.000000000000000000 ) ) ;
#287 =( NAMED_UNIT ( * ) SI_UNIT ( $, .STERADIAN. ) SOLID_ANGLE_UNIT ( ) );
#288 =( CONVERSION_BASED_UNIT ( 'INCH', #44 ) LENGTH_UNIT ( ) NAMED_UNIT ( #55 ) );
#289 = PRESENTATION_LAYER_ASSIGNMENT (  '', '', ( #99 ) ) ;
#290 = PRODUCT_DEFINITION_SHAPE ( 'NONE', 'NONE',  #223 ) ;
#291 =( CONVERSION_BASED_UNIT ( 'INCH', #110 ) LENGTH_UNIT ( ) NAMED_UNIT ( #304 ) );
#292 = CARTESIAN_POINT ( 'NONE',  ( 0.000000000000000000, 0.000000000000000000, 0.000000000000000000 ) ) ;
#293 = AXIS2_PLACEMENT_3D ( 'NONE', #220, #171, #144 ) ;
#294 = AXIS2_PLACEMENT_3D ( 'NONE', #292, #217, #197 ) ;
#295 = SURFACE_STYLE_USAGE ( .BOTH. , #200 ) ;
#296 = DIRECTION ( 'NONE',  ( 0.000000000000000000, 0.000000000000000000, -1.000000000000000000 ) ) ;
#297 = LINE ( 'NONE', #173, #65 ) ;
#298 = ADVANCED_FACE ( 'NONE', ( #3 ), #91, .T. ) ;
#299 = COLOUR_RGB ( '',1.000000000000000000, 0.000000000000000000, 0.000000000000000000 ) ;
#300 = ORIENTED_EDGE ( 'NONE', *, *, #82, .F. ) ;
#301 = UNCERTAINTY_MEASURE_WITH_UNIT (LENGTH_MEASURE( 1.000000000000000082E-05 ), #52, 'distance_accuracy_value', 'NONE');
#302 = VERTEX_POINT ( 'NONE', #5 ) ;
#303 = STYLED_ITEM ( 'NONE', ( #227 ), #213 ) ;
#304 = DIMENSIONAL_EXPONENTS ( 1.000000000000000000, 0.000000000000000000, 0.000000000000000000, 0.000000000000000000, 0.000000000000000000, 0.000000000000000000, 0.000000000000000000 ) ;
#305 = DIRECTION ( 'NONE',  ( -0.000000000000000000, -1.000000000000000000, -0.000000000000000000 ) ) ;
#306 = SURFACE_STYLE_FILL_AREA ( #241 ) ;
#307 = STYLED_ITEM ( 'NONE', ( #34 ), #199 ) ;
#308 = CARTESIAN_POINT ( 'NONE',  ( 0.2500000000000000000, 2.500000000000000000, 0.000000000000000000 ) ) ;
#309 = UNCERTAINTY_MEASURE_WITH_UNIT (LENGTH_MEASURE( 1.000000000000000082E-05 ), #30, 'distance_accuracy_value', 'NONE');
ENDSEC;
END-ISO-10303-21;
