ISO-10303-21;
HEADER;
FILE_DESCRIPTION (( 'STEP AP214' ),
    '1' );
FILE_NAME ('56542.STEP',
    '2023-06-30T22:10:08',
    ( '' ),
    ( '' ),
    'SwSTEP 2.0',
    'SolidWorks 2023',
    '' );
FILE_SCHEMA (( 'AUTOMOTIVE_DESIGN' ));
ENDSEC;

DATA;
#1 = UNCERTAINTY_MEASURE_WITH_UNIT (LENGTH_MEASURE( 1.000000000000000082E-05 ), #313, 'distance_accuracy_value', 'NONE');
#2 = STYLED_ITEM ( 'NONE', ( #102 ), #70 ) ;
#3 = COLOUR_RGB ( '',1.000000000000000000, 0.000000000000000000, 0.000000000000000000 ) ;
#4 =( NAMED_UNIT ( * ) SI_UNIT ( $, .STERADIAN. ) SOLID_ANGLE_UNIT ( ) );
#5 = CARTESIAN_POINT ( 'NONE',  ( 0.000000000000000000, 1.625000000000000000, 0.000000000000000000 ) ) ;
#6 = EDGE_CURVE ( 'NONE', #317, #29, #343, .T. ) ;
#7 = CARTESIAN_POINT ( 'NONE',  ( -3.061616997868383018E-17, 0.2500000000000000000, 0.000000000000000000 ) ) ;
#8 = SURFACE_SIDE_STYLE ('',( #114 ) ) ;
#9 = DIRECTION ( 'NONE',  ( 0.000000000000000000, 0.000000000000000000, -1.000000000000000000 ) ) ;
#10 = AXIS2_PLACEMENT_3D ( 'NONE', #7, #34, #329 ) ;
#11 = CIRCLE ( 'NONE', #26, 0.2499999999999996669 ) ;
#12 =( NAMED_UNIT ( * ) SI_UNIT ( $, .STERADIAN. ) SOLID_ANGLE_UNIT ( ) );
#13 = CARTESIAN_POINT ( 'NONE',  ( -0.2499999999999994726, 1.625000000000000000, 0.000000000000000000 ) ) ;
#14 = MECHANICAL_DESIGN_GEOMETRIC_PRESENTATION_REPRESENTATION (  '', ( #128 ), #201 ) ;
#15 = DIRECTION ( 'NONE',  ( -1.224646799147353207E-16, 1.000000000000000000, -0.000000000000000000 ) ) ;
#16 = AXIS2_PLACEMENT_3D ( 'NONE', #294, #118, #318 ) ;
#17 = DIRECTION ( 'NONE',  ( -1.224646799147353207E-16, 1.000000000000000000, -0.000000000000000000 ) ) ;
#18 = DIRECTION ( 'NONE',  ( 0.000000000000000000, 0.000000000000000000, 1.000000000000000000 ) ) ;
#19 =( NAMED_UNIT ( * ) SI_UNIT ( $, .STERADIAN. ) SOLID_ANGLE_UNIT ( ) );
#20 =( GEOMETRIC_REPRESENTATION_CONTEXT ( 3 ) GLOBAL_UNCERTAINTY_ASSIGNED_CONTEXT ( ( #59 ) ) GLOBAL_UNIT_ASSIGNED_CONTEXT ( ( #324, #58, #293 ) ) REPRESENTATION_CONTEXT ( 'NONE', 'WORKASPACE' ) );
#21 = ADVANCED_FACE ( 'NONE', ( #212 ), #347, .T. ) ;
#22 = VERTEX_POINT ( 'NONE', #119 ) ;
#23 = CARTESIAN_POINT ( 'NONE',  ( 0.000000000000000000, 0.2500000000000000000, 0.000000000000000000 ) ) ;
#24 = ORIENTED_EDGE ( 'NONE', *, *, #298, .F. ) ;
#25 = CLOSED_SHELL ( 'NONE', ( #54, #248, #64, #134 ) ) ;
#26 = AXIS2_PLACEMENT_3D ( 'NONE', #107, #160, #28 ) ;
#27 = ORIENTED_EDGE ( 'NONE', *, *, #200, .F. ) ;
#28 = DIRECTION ( 'NONE',  ( -1.000000000000000000, 0.000000000000000000, 0.000000000000000000 ) ) ;
#29 = VERTEX_POINT ( 'NONE', #99 ) ;
#30 = DIRECTION ( 'NONE',  ( -1.000000000000000000, 0.000000000000000000, 0.000000000000000000 ) ) ;
#31 = EDGE_CURVE ( 'NONE', #365, #345, #363, .T. ) ;
#32 = STYLED_ITEM ( 'NONE', ( #86 ), #321 ) ;
#33 = SURFACE_STYLE_FILL_AREA ( #208 ) ;
#34 = DIRECTION ( 'NONE',  ( 0.000000000000000000, 0.000000000000000000, 1.000000000000000000 ) ) ;
#35 = SURFACE_SIDE_STYLE ('',( #33 ) ) ;
#36 = SURFACE_STYLE_FILL_AREA ( #323 ) ;
#37 = FILL_AREA_STYLE_COLOUR ( '', #300 ) ;
#38 =( NAMED_UNIT ( * ) SI_UNIT ( $, .STERADIAN. ) SOLID_ANGLE_UNIT ( ) );
#39 = AXIS2_PLACEMENT_3D ( 'NONE', #312, #192, #309 ) ;
#40 = FILL_AREA_STYLE ('',( #272 ) ) ;
#41 = SURFACE_STYLE_USAGE ( .BOTH. , #222 ) ;
#42 = SPHERICAL_SURFACE ( 'NONE', #235, 0.2500000000000000000 ) ;
#43 = CARTESIAN_POINT ( 'NONE',  ( -1.224646799147352714E-16, 4.000000000000000000, 0.000000000000000000 ) ) ;
#44 = DIMENSIONAL_EXPONENTS ( 1.000000000000000000, 0.000000000000000000, 0.000000000000000000, 0.000000000000000000, 0.000000000000000000, 0.000000000000000000, 0.000000000000000000 ) ;
#45 = VECTOR ( 'NONE', #185, 39.37007874015748143 ) ;
#46 = SURFACE_STYLE_USAGE ( .BOTH. , #330 ) ;
#47 = PRESENTATION_LAYER_ASSIGNMENT (  '', '', ( #2 ) ) ;
#48 = AXIS2_PLACEMENT_3D ( 'NONE', #171, #350, #176 ) ;
#49 = DIRECTION ( 'NONE',  ( -1.000000000000000000, 0.000000000000000000, 0.000000000000000000 ) ) ;
#50 = ADVANCED_FACE ( 'NONE', ( #91 ), #292, .T. ) ;
#51 = VERTEX_POINT ( 'NONE', #130 ) ;
#52 = CARTESIAN_POINT ( 'NONE',  ( -0.2499999999999999167, 4.000000000000000000, 0.000000000000000000 ) ) ;
#53 = SURFACE_STYLE_FILL_AREA ( #231 ) ;
#54 = ADVANCED_FACE ( 'NONE', ( #220 ), #74, .T. ) ;
#55 = VERTEX_POINT ( 'NONE', #100 ) ;
#56 = CARTESIAN_POINT ( 'NONE',  ( 3.061616997868381785E-17, 1.625000000000000000, 0.2499999999999998335 ) ) ;
#57 = AXIS2_PLACEMENT_3D ( 'NONE', #366, #234, #49 ) ;
#58 =( NAMED_UNIT ( * ) PLANE_ANGLE_UNIT ( ) SI_UNIT ( $, .RADIAN. ) );
#59 = UNCERTAINTY_MEASURE_WITH_UNIT (LENGTH_MEASURE( 1.000000000000000082E-05 ), #324, 'distance_accuracy_value', 'NONE');
#60 = ORIENTED_EDGE ( 'NONE', *, *, #161, .T. ) ;
#61 = FILL_AREA_STYLE_COLOUR ( '', #3 ) ;
#62 = FILL_AREA_STYLE ('',( #319 ) ) ;
#63 = CARTESIAN_POINT ( 'NONE',  ( -1.530808498934191509E-17, 0.000000000000000000, 0.000000000000000000 ) ) ;
#64 = ADVANCED_FACE ( 'NONE', ( #303 ), #72, .T. ) ;
#65 = AXIS2_PLACEMENT_3D ( 'NONE', #94, #115, #325 ) ;
#66 = DIRECTION ( 'NONE',  ( -0.000000000000000000, -1.000000000000000000, -0.000000000000000000 ) ) ;
#67 = PRESENTATION_STYLE_ASSIGNMENT (( #211 ) ) ;
#68 = DIRECTION ( 'NONE',  ( 0.000000000000000000, 0.000000000000000000, -1.000000000000000000 ) ) ;
#69 = CYLINDRICAL_SURFACE ( 'NONE', #16, 0.2499999999999999167 ) ;
#70 = MANIFOLD_SOLID_BREP ( 'Revolve - Cutting Edge', #154 ) ;
#71 = FILL_AREA_STYLE_COLOUR ( '', #352 ) ;
#72 = CYLINDRICAL_SURFACE ( 'NONE', #158, 0.2499999999999998057 ) ;
#73 = EDGE_CURVE ( 'NONE', #55, #283, #78, .T. ) ;
#74 = CYLINDRICAL_SURFACE ( 'NONE', #359, 0.2499999999999998057 ) ;
#75 = DIRECTION ( 'NONE',  ( 1.000000000000000000, 0.000000000000000000, 0.000000000000000000 ) ) ;
#76 = CIRCLE ( 'NONE', #125, 0.2500000000000000000 ) ;
#77 = PLANE ( 'NONE',  #344 ) ;
#78 = LINE ( 'NONE', #152, #45 ) ;
#79 = PRODUCT_DEFINITION_SHAPE ( 'NONE', 'NONE',  #189 ) ;
#80 = FACE_OUTER_BOUND ( 'NONE', #194, .T. ) ;
#81 = ORIENTED_EDGE ( 'NONE', *, *, #214, .F. ) ;
#82 = AXIS2_PLACEMENT_3D ( 'NONE', #5, #93, #354 ) ;
#83 = VERTEX_POINT ( 'NONE', #13 ) ;
#84 = CARTESIAN_POINT ( 'NONE',  ( 0.000000000000000000, 0.2500000000000000000, 0.000000000000000000 ) ) ;
#85 = EDGE_LOOP ( 'NONE', ( #81, #256, #260, #371 ) ) ;
#86 = PRESENTATION_STYLE_ASSIGNMENT (( #281 ) ) ;
#87 = COLOUR_RGB ( '',0.7921568627450980005, 0.8196078431372548767, 0.9333333333333333481 ) ;
#88 = STYLED_ITEM ( 'NONE', ( #67 ), #370 ) ;
#89 = ORIENTED_EDGE ( 'NONE', *, *, #6, .F. ) ;
#90 =( NAMED_UNIT ( * ) SI_UNIT ( $, .STERADIAN. ) SOLID_ANGLE_UNIT ( ) );
#91 = FACE_OUTER_BOUND ( 'NONE', #198, .T. ) ;
#92 =( LENGTH_UNIT ( ) NAMED_UNIT ( * ) SI_UNIT ( $, .METRE. ) );
#93 = DIRECTION ( 'NONE',  ( -0.000000000000000000, -1.000000000000000000, -0.000000000000000000 ) ) ;
#94 = CARTESIAN_POINT ( 'NONE',  ( -1.224646799147352714E-16, 4.000000000000000000, 0.000000000000000000 ) ) ;
#95 = STYLED_ITEM ( 'NONE', ( #269 ), #50 ) ;
#96 = APPLICATION_CONTEXT ( 'automotive_design' ) ;
#97 = PRODUCT_CONTEXT ( 'NONE', #96, 'mechanical' ) ;
#98 = DIRECTION ( 'NONE',  ( -0.000000000000000000, -1.000000000000000000, -0.000000000000000000 ) ) ;
#99 = CARTESIAN_POINT ( 'NONE',  ( -0.2500000000000000000, 0.2500000000000000000, 3.061616997868382402E-17 ) ) ;
#100 = CARTESIAN_POINT ( 'NONE',  ( 0.2499999999999998335, 1.625000000000000000, 3.061616997868381785E-17 ) ) ;
#101 = DIMENSIONAL_EXPONENTS ( 1.000000000000000000, 0.000000000000000000, 0.000000000000000000, 0.000000000000000000, 0.000000000000000000, 0.000000000000000000, 0.000000000000000000 ) ;
#102 = PRESENTATION_STYLE_ASSIGNMENT (( #41 ) ) ;
#103 = LINE ( 'NONE', #229, #129 ) ;
#104 = DIRECTION ( 'NONE',  ( -1.000000000000000000, 0.000000000000000000, 0.000000000000000000 ) ) ;
#105 =( GEOMETRIC_REPRESENTATION_CONTEXT ( 3 ) GLOBAL_UNCERTAINTY_ASSIGNED_CONTEXT ( ( #1 ) ) GLOBAL_UNIT_ASSIGNED_CONTEXT ( ( #313, #369, #19 ) ) REPRESENTATION_CONTEXT ( 'NONE', 'WORKASPACE' ) );
#106 = ORIENTED_EDGE ( 'NONE', *, *, #224, .F. ) ;
#107 = CARTESIAN_POINT ( 'NONE',  ( 1.683889348827610999E-16, 1.625000000000000000, 0.000000000000000000 ) ) ;
#108 = COLOUR_RGB ( '',1.000000000000000000, 0.000000000000000000, 0.000000000000000000 ) ;
#109 = ORIENTED_EDGE ( 'NONE', *, *, #316, .F. ) ;
#110 = COLOUR_RGB ( '',0.7921568627450980005, 0.8196078431372548767, 0.9333333333333333481 ) ;
#111 = ORIENTED_EDGE ( 'NONE', *, *, #259, .T. ) ;
#112 = ORIENTED_EDGE ( 'NONE', *, *, #31, .F. ) ;
#113 = ORIENTED_EDGE ( 'NONE', *, *, #331, .T. ) ;
#114 = SURFACE_STYLE_FILL_AREA ( #243 ) ;
#115 = DIRECTION ( 'NONE',  ( -1.224646799147353207E-16, 1.000000000000000000, -0.000000000000000000 ) ) ;
#116 = CARTESIAN_POINT ( 'NONE',  ( 0.000000000000000000, 1.625000000000000000, 0.000000000000000000 ) ) ;
#117 = FACE_OUTER_BOUND ( 'NONE', #164, .T. ) ;
#118 = DIRECTION ( 'NONE',  ( -0.000000000000000000, -1.000000000000000000, -0.000000000000000000 ) ) ;
#119 = CARTESIAN_POINT ( 'NONE',  ( -0.2500000000000001110, 4.000000000000000000, 0.000000000000000000 ) ) ;
#120 = PRESENTATION_STYLE_ASSIGNMENT (( #144 ) ) ;
#121 = MECHANICAL_DESIGN_GEOMETRIC_PRESENTATION_REPRESENTATION (  '', ( #357 ), #364 ) ;
#122 = FILL_AREA_STYLE_COLOUR ( '', #108 ) ;
#123 = CARTESIAN_POINT ( 'NONE',  ( -3.061616997868383018E-17, 0.2500000000000000000, 0.000000000000000000 ) ) ;
#124 = DIMENSIONAL_EXPONENTS ( 1.000000000000000000, 0.000000000000000000, 0.000000000000000000, 0.000000000000000000, 0.000000000000000000, 0.000000000000000000, 0.000000000000000000 ) ;
#125 = AXIS2_PLACEMENT_3D ( 'NONE', #373, #213, #327 ) ;
#126 = ORIENTED_EDGE ( 'NONE', *, *, #349, .F. ) ;
#127 = DIRECTION ( 'NONE',  ( -1.000000000000000000, 0.000000000000000000, 0.000000000000000000 ) ) ;
#128 = STYLED_ITEM ( 'NONE', ( #295 ), #21 ) ;
#129 = VECTOR ( 'NONE', #163, 39.37007874015748143 ) ;
#130 = CARTESIAN_POINT ( 'NONE',  ( 0.000000000000000000, 1.625000000000000000, -0.2499999999999998335 ) ) ;
#131 = LINE ( 'NONE', #255, #253 ) ;
#132 =( NAMED_UNIT ( * ) PLANE_ANGLE_UNIT ( ) SI_UNIT ( $, .RADIAN. ) );
#133 = ORIENTED_EDGE ( 'NONE', *, *, #6, .T. ) ;
#134 = ADVANCED_FACE ( 'NONE', ( #302 ), #77, .F. ) ;
#135 = PRESENTATION_LAYER_ASSIGNMENT (  '', '', ( #128 ) ) ;
#136 =( GEOMETRIC_REPRESENTATION_CONTEXT ( 3 ) GLOBAL_UNCERTAINTY_ASSIGNED_CONTEXT ( ( #177 ) ) GLOBAL_UNIT_ASSIGNED_CONTEXT ( ( #186, #150, #157 ) ) REPRESENTATION_CONTEXT ( 'NONE', 'WORKASPACE' ) );
#137 = ORIENTED_EDGE ( 'NONE', *, *, #298, .T. ) ;
#138 = STYLED_ITEM ( 'NONE', ( #120 ), #207 ) ;
#139 = FILL_AREA_STYLE_COLOUR ( '', #110 ) ;
#140 = PLANE ( 'NONE',  #39 ) ;
#141 = APPLICATION_PROTOCOL_DEFINITION ( 'draft international standard', 'automotive_design', 1998, #232 ) ;
#142 =( GEOMETRIC_REPRESENTATION_CONTEXT ( 3 ) GLOBAL_UNCERTAINTY_ASSIGNED_CONTEXT ( ( #367 ) ) GLOBAL_UNIT_ASSIGNED_CONTEXT ( ( #353, #178, #12 ) ) REPRESENTATION_CONTEXT ( 'NONE', 'WORKASPACE' ) );
#143 =( GEOMETRIC_REPRESENTATION_CONTEXT ( 3 ) GLOBAL_UNCERTAINTY_ASSIGNED_CONTEXT ( ( #267 ) ) GLOBAL_UNIT_ASSIGNED_CONTEXT ( ( #170, #205, #90 ) ) REPRESENTATION_CONTEXT ( 'NONE', 'WORKASPACE' ) );
#144 = SURFACE_STYLE_USAGE ( .BOTH. , #35 ) ;
#145 = SURFACE_STYLE_USAGE ( .BOTH. , #240 ) ;
#146 = CARTESIAN_POINT ( 'NONE',  ( 0.2500000000000000000, 0.2500000000000000000, 0.000000000000000000 ) ) ;
#147 = MECHANICAL_DESIGN_GEOMETRIC_PRESENTATION_REPRESENTATION (  '', ( #138 ), #136 ) ;
#148 =( CONVERSION_BASED_UNIT ( 'INCH', #326 ) LENGTH_UNIT ( ) NAMED_UNIT ( #249 ) );
#149 =( CONVERSION_BASED_UNIT ( 'INCH', #301 ) LENGTH_UNIT ( ) NAMED_UNIT ( #239 ) );
#150 =( NAMED_UNIT ( * ) PLANE_ANGLE_UNIT ( ) SI_UNIT ( $, .RADIAN. ) );
#151 = ADVANCED_FACE ( 'NONE', ( #218 ), #69, .T. ) ;
#152 = CARTESIAN_POINT ( 'NONE',  ( 0.2499999999999996669, 4.000000000000000000, 3.061616997868380553E-17 ) ) ;
#153 = ORIENTED_EDGE ( 'NONE', *, *, #214, .T. ) ;
#154 = CLOSED_SHELL ( 'NONE', ( #207, #151, #370, #50, #21 ) ) ;
#155 = SURFACE_STYLE_FILL_AREA ( #356 ) ;
#156 = DIRECTION ( 'NONE',  ( 1.224646799147353207E-16, -1.000000000000000000, 0.000000000000000000 ) ) ;
#157 =( NAMED_UNIT ( * ) SI_UNIT ( $, .STERADIAN. ) SOLID_ANGLE_UNIT ( ) );
#158 = AXIS2_PLACEMENT_3D ( 'NONE', #43, #17, #127 ) ;
#159 = PRESENTATION_LAYER_ASSIGNMENT (  '', '', ( #88 ) ) ;
#160 = DIRECTION ( 'NONE',  ( -1.224646799147353207E-16, 1.000000000000000000, -0.000000000000000000 ) ) ;
#161 = EDGE_CURVE ( 'NONE', #257, #51, #175, .T. ) ;
#162 = ORIENTED_EDGE ( 'NONE', *, *, #196, .T. ) ;
#163 = DIRECTION ( 'NONE',  ( -0.000000000000000000, -1.000000000000000000, -0.000000000000000000 ) ) ;
#164 = EDGE_LOOP ( 'NONE', ( #126, #274 ) ) ;
#165 = SURFACE_SIDE_STYLE ('',( #53 ) ) ;
#166 = PRESENTATION_LAYER_ASSIGNMENT (  '', '', ( #138 ) ) ;
#167 = ORIENTED_EDGE ( 'NONE', *, *, #331, .F. ) ;
#168 = EDGE_LOOP ( 'NONE', ( #340, #233, #109, #204, #167 ) ) ;
#169 = CARTESIAN_POINT ( 'NONE',  ( -3.061616997868383018E-17, 0.2500000000000000000, 0.000000000000000000 ) ) ;
#170 =( CONVERSION_BASED_UNIT ( 'INCH', #346 ) LENGTH_UNIT ( ) NAMED_UNIT ( #101 ) );
#171 = CARTESIAN_POINT ( 'NONE',  ( 1.683889348827610999E-16, 1.625000000000000000, 0.000000000000000000 ) ) ;
#172 = SURFACE_STYLE_FILL_AREA ( #62 ) ;
#173 = AXIS2_PLACEMENT_3D ( 'NONE', #179, #245, #68 ) ;
#174 =( LENGTH_UNIT ( ) NAMED_UNIT ( * ) SI_UNIT ( $, .METRE. ) );
#175 = CIRCLE ( 'NONE', #258, 0.2499999999999998335 ) ;
#176 = DIRECTION ( 'NONE',  ( -1.000000000000000000, 0.000000000000000000, 0.000000000000000000 ) ) ;
#177 = UNCERTAINTY_MEASURE_WITH_UNIT (LENGTH_MEASURE( 1.000000000000000082E-05 ), #186, 'distance_accuracy_value', 'NONE');
#178 =( NAMED_UNIT ( * ) PLANE_ANGLE_UNIT ( ) SI_UNIT ( $, .RADIAN. ) );
#179 = CARTESIAN_POINT ( 'NONE',  ( 0.000000000000000000, 0.2500000000000000000, 0.000000000000000000 ) ) ;
#180 = AXIS2_PLACEMENT_3D ( 'NONE', #169, #288, #30 ) ;
#181 = FACE_OUTER_BOUND ( 'NONE', #225, .T. ) ;
#182 =( GEOMETRIC_REPRESENTATION_CONTEXT ( 3 ) GLOBAL_UNCERTAINTY_ASSIGNED_CONTEXT ( ( #203 ) ) GLOBAL_UNIT_ASSIGNED_CONTEXT ( ( #149, #190, #336 ) ) REPRESENTATION_CONTEXT ( 'NONE', 'WORKASPACE' ) );
#183 = EDGE_CURVE ( 'NONE', #361, #365, #76, .T. ) ;
#184 =( LENGTH_UNIT ( ) NAMED_UNIT ( * ) SI_UNIT ( $, .METRE. ) );
#185 = DIRECTION ( 'NONE',  ( -1.224646799147353207E-16, 1.000000000000000000, -0.000000000000000000 ) ) ;
#186 =( CONVERSION_BASED_UNIT ( 'INCH', #334 ) LENGTH_UNIT ( ) NAMED_UNIT ( #124 ) );
#187 = CARTESIAN_POINT ( 'NONE',  ( -1.224646799147352714E-16, 4.000000000000000000, 0.000000000000000000 ) ) ;
#188 = CIRCLE ( 'NONE', #351, 0.2500000000000000000 ) ;
#189 = PRODUCT_DEFINITION ( 'UNKNOWN', '', #335, #287 ) ;
#190 =( NAMED_UNIT ( * ) PLANE_ANGLE_UNIT ( ) SI_UNIT ( $, .RADIAN. ) );
#191 = LENGTH_MEASURE_WITH_UNIT ( LENGTH_MEASURE( 0.02539999999999999897 ), #358 );
#192 = DIRECTION ( 'NONE',  ( -1.224646799147353207E-16, 1.000000000000000000, 0.000000000000000000 ) ) ;
#193 = CIRCLE ( 'NONE', #57, 0.2499999999999999722 ) ;
#194 = EDGE_LOOP ( 'NONE', ( #285, #250 ) ) ;
#195 = DIRECTION ( 'NONE',  ( 0.000000000000000000, 0.000000000000000000, -1.000000000000000000 ) ) ;
#196 = EDGE_CURVE ( 'NONE', #83, #55, #209, .T. ) ;
#197 = ORIENTED_EDGE ( 'NONE', *, *, #271, .T. ) ;
#198 = EDGE_LOOP ( 'NONE', ( #106, #60, #113, #261, #89 ) ) ;
#199 = LENGTH_MEASURE_WITH_UNIT ( LENGTH_MEASURE( 0.02539999999999999897 ), #307 );
#200 = EDGE_CURVE ( 'NONE', #22, #283, #221, .T. ) ;
#201 =( GEOMETRIC_REPRESENTATION_CONTEXT ( 3 ) GLOBAL_UNCERTAINTY_ASSIGNED_CONTEXT ( ( #314 ) ) GLOBAL_UNIT_ASSIGNED_CONTEXT ( ( #148, #210, #4 ) ) REPRESENTATION_CONTEXT ( 'NONE', 'WORKASPACE' ) );
#202 = AXIS2_PLACEMENT_3D ( 'NONE', #23, #98, #262 ) ;
#203 = UNCERTAINTY_MEASURE_WITH_UNIT (LENGTH_MEASURE( 1.000000000000000082E-05 ), #149, 'distance_accuracy_value', 'NONE');
#204 = ORIENTED_EDGE ( 'NONE', *, *, #183, .F. ) ;
#205 =( NAMED_UNIT ( * ) PLANE_ANGLE_UNIT ( ) SI_UNIT ( $, .RADIAN. ) );
#206 = SHAPE_DEFINITION_REPRESENTATION ( #79, #333 ) ;
#207 = ADVANCED_FACE ( 'NONE', ( #181 ), #42, .T. ) ;
#208 = FILL_AREA_STYLE ('',( #61 ) ) ;
#209 = CIRCLE ( 'NONE', #48, 0.2499999999999996669 ) ;
#210 =( NAMED_UNIT ( * ) PLANE_ANGLE_UNIT ( ) SI_UNIT ( $, .RADIAN. ) );
#211 = SURFACE_STYLE_USAGE ( .BOTH. , #8 ) ;
#212 = FACE_OUTER_BOUND ( 'NONE', #85, .T. ) ;
#213 = DIRECTION ( 'NONE',  ( -0.000000000000000000, -1.000000000000000000, -0.000000000000000000 ) ) ;
#214 = EDGE_CURVE ( 'NONE', #29, #345, #188, .T. ) ;
#215 = AXIS2_PLACEMENT_3D ( 'NONE', #219, #305, #332 ) ;
#216 = UNCERTAINTY_MEASURE_WITH_UNIT (LENGTH_MEASURE( 1.000000000000000082E-05 ), #306, 'distance_accuracy_value', 'NONE');
#217 = MECHANICAL_DESIGN_GEOMETRIC_PRESENTATION_REPRESENTATION (  '', ( #88 ), #143 ) ;
#218 = FACE_OUTER_BOUND ( 'NONE', #168, .T. ) ;
#219 = CARTESIAN_POINT ( 'NONE',  ( 0.000000000000000000, 0.000000000000000000, 0.000000000000000000 ) ) ;
#220 = FACE_OUTER_BOUND ( 'NONE', #362, .T. ) ;
#221 = CIRCLE ( 'NONE', #65, 0.2499999999999999722 ) ;
#222 = SURFACE_SIDE_STYLE ('',( #254 ) ) ;
#223 =( LENGTH_UNIT ( ) NAMED_UNIT ( * ) SI_UNIT ( $, .METRE. ) );
#224 = EDGE_CURVE ( 'NONE', #257, #317, #103, .T. ) ;
#225 = EDGE_LOOP ( 'NONE', ( #133, #153, #112, #311 ) ) ;
#226 = CARTESIAN_POINT ( 'NONE',  ( 0.2499999999999998335, 4.000000000000000000, 3.061616997868381785E-17 ) ) ;
#227 = COLOUR_RGB ( '',1.000000000000000000, 0.000000000000000000, 0.000000000000000000 ) ;
#228 = PRESENTATION_LAYER_ASSIGNMENT (  '', '', ( #357 ) ) ;
#229 = CARTESIAN_POINT ( 'NONE',  ( 3.061616997868382402E-17, 0.000000000000000000, 0.2499999999999999167 ) ) ;
#230 = EDGE_LOOP ( 'NONE', ( #368, #197 ) ) ;
#231 = FILL_AREA_STYLE ('',( #139 ) ) ;
#232 = APPLICATION_CONTEXT ( 'automotive_design' ) ;
#233 = ORIENTED_EDGE ( 'NONE', *, *, #224, .T. ) ;
#234 = DIRECTION ( 'NONE',  ( -1.224646799147353207E-16, 1.000000000000000000, -0.000000000000000000 ) ) ;
#235 = AXIS2_PLACEMENT_3D ( 'NONE', #123, #18, #75 ) ;
#236 =( LENGTH_UNIT ( ) NAMED_UNIT ( * ) SI_UNIT ( $, .METRE. ) );
#237 = PRODUCT ( '56542', '56542', '', ( #97 ) ) ;
#238 = LENGTH_MEASURE_WITH_UNIT ( LENGTH_MEASURE( 0.02539999999999999897 ), #174 );
#239 = DIMENSIONAL_EXPONENTS ( 1.000000000000000000, 0.000000000000000000, 0.000000000000000000, 0.000000000000000000, 0.000000000000000000, 0.000000000000000000, 0.000000000000000000 ) ;
#240 = SURFACE_SIDE_STYLE ('',( #172 ) ) ;
#241 = LENGTH_MEASURE_WITH_UNIT ( LENGTH_MEASURE( 0.02539999999999999897 ), #348 );
#242 = VECTOR ( 'NONE', #338, 39.37007874015748143 ) ;
#243 = FILL_AREA_STYLE ('',( #37 ) ) ;
#244 = PLANE ( 'NONE',  #291 ) ;
#245 = DIRECTION ( 'NONE',  ( -0.000000000000000000, -1.000000000000000000, -0.000000000000000000 ) ) ;
#246 = DIRECTION ( 'NONE',  ( 1.224646799147353207E-16, -0.000000000000000000, 1.000000000000000000 ) ) ;
#247 = PRESENTATION_LAYER_ASSIGNMENT (  '', '', ( #32 ) ) ;
#248 = ADVANCED_FACE ( 'NONE', ( #80 ), #140, .F. ) ;
#249 = DIMENSIONAL_EXPONENTS ( 1.000000000000000000, 0.000000000000000000, 0.000000000000000000, 0.000000000000000000, 0.000000000000000000, 0.000000000000000000, 0.000000000000000000 ) ;
#250 = ORIENTED_EDGE ( 'NONE', *, *, #259, .F. ) ;
#251 = DIRECTION ( 'NONE',  ( 1.000000000000000000, 1.224646799147353207E-16, 0.000000000000000000 ) ) ;
#252 = DIRECTION ( 'NONE',  ( 1.000000000000000000, 0.000000000000000000, -1.224646799147353207E-16 ) ) ;
#253 = VECTOR ( 'NONE', #289, 39.37007874015748143 ) ;
#254 = SURFACE_STYLE_FILL_AREA ( #40 ) ;
#255 = CARTESIAN_POINT ( 'NONE',  ( 0.000000000000000000, 0.000000000000000000, -0.2499999999999999167 ) ) ;
#256 = ORIENTED_EDGE ( 'NONE', *, *, #337, .T. ) ;
#257 = VERTEX_POINT ( 'NONE', #56 ) ;
#258 = AXIS2_PLACEMENT_3D ( 'NONE', #290, #66, #9 ) ;
#259 = EDGE_CURVE ( 'NONE', #55, #83, #11, .T. ) ;
#260 = ORIENTED_EDGE ( 'NONE', *, *, #183, .T. ) ;
#261 = ORIENTED_EDGE ( 'NONE', *, *, #337, .F. ) ;
#262 = DIRECTION ( 'NONE',  ( 0.000000000000000000, 0.000000000000000000, -1.000000000000000000 ) ) ;
#263 = MECHANICAL_DESIGN_GEOMETRIC_PRESENTATION_REPRESENTATION (  '', ( #2 ), #182 ) ;
#264 = SURFACE_SIDE_STYLE ('',( #36 ) ) ;
#265 = SURFACE_STYLE_USAGE ( .BOTH. , #264 ) ;
#266 = DIRECTION ( 'NONE',  ( 1.000000000000000000, 0.000000000000000000, 0.000000000000000000 ) ) ;
#267 = UNCERTAINTY_MEASURE_WITH_UNIT (LENGTH_MEASURE( 1.000000000000000082E-05 ), #170, 'distance_accuracy_value', 'NONE');
#268 = MECHANICAL_DESIGN_GEOMETRIC_PRESENTATION_REPRESENTATION (  '', ( #95 ), #142 ) ;
#269 = PRESENTATION_STYLE_ASSIGNMENT (( #145 ) ) ;
#270 = DIRECTION ( 'NONE',  ( 0.000000000000000000, 0.000000000000000000, 1.000000000000000000 ) ) ;
#271 = EDGE_CURVE ( 'NONE', #283, #22, #193, .T. ) ;
#272 = FILL_AREA_STYLE_COLOUR ( '', #87 ) ;
#273 = CARTESIAN_POINT ( 'NONE',  ( 0.2499999999999998335, 4.000000000000000000, 0.000000000000000000 ) ) ;
#274 = ORIENTED_EDGE ( 'NONE', *, *, #161, .F. ) ;
#275 = DIMENSIONAL_EXPONENTS ( 1.000000000000000000, 0.000000000000000000, 0.000000000000000000, 0.000000000000000000, 0.000000000000000000, 0.000000000000000000, 0.000000000000000000 ) ;
#276 = PRESENTATION_STYLE_ASSIGNMENT (( #46 ) ) ;
#277 = CIRCLE ( 'NONE', #82, 0.2499999999999998335 ) ;
#278 = ORIENTED_EDGE ( 'NONE', *, *, #73, .T. ) ;
#279 = CARTESIAN_POINT ( 'NONE',  ( 3.061616997868383018E-17, 0.2500000000000000000, 0.2500000000000000000 ) ) ;
#280 = ORIENTED_EDGE ( 'NONE', *, *, #271, .F. ) ;
#281 = SURFACE_STYLE_USAGE ( .BOTH. , #165 ) ;
#282 = CIRCLE ( 'NONE', #360, 0.2500000000000000000 ) ;
#283 = VERTEX_POINT ( 'NONE', #226 ) ;
#284 = LINE ( 'NONE', #52, #242 ) ;
#285 = ORIENTED_EDGE ( 'NONE', *, *, #196, .F. ) ;
#286 = APPLICATION_PROTOCOL_DEFINITION ( 'draft international standard', 'automotive_design', 1998, #96 ) ;
#287 = PRODUCT_DEFINITION_CONTEXT ( 'detailed design', #232, 'design' ) ;
#288 = DIRECTION ( 'NONE',  ( 0.000000000000000000, 0.000000000000000000, -1.000000000000000000 ) ) ;
#289 = DIRECTION ( 'NONE',  ( -0.000000000000000000, -1.000000000000000000, -0.000000000000000000 ) ) ;
#290 = CARTESIAN_POINT ( 'NONE',  ( 0.000000000000000000, 1.625000000000000000, 0.000000000000000000 ) ) ;
#291 = AXIS2_PLACEMENT_3D ( 'NONE', #116, #320, #372 ) ;
#292 = CYLINDRICAL_SURFACE ( 'NONE', #215, 0.2499999999999999167 ) ;
#293 =( NAMED_UNIT ( * ) SI_UNIT ( $, .STERADIAN. ) SOLID_ANGLE_UNIT ( ) );
#294 = CARTESIAN_POINT ( 'NONE',  ( 0.000000000000000000, 0.000000000000000000, 0.000000000000000000 ) ) ;
#295 = PRESENTATION_STYLE_ASSIGNMENT (( #265 ) ) ;
#296 = CARTESIAN_POINT ( 'NONE',  ( 0.000000000000000000, 0.2500000000000000000, -0.2500000000000000000 ) ) ;
#297 = CARTESIAN_POINT ( 'NONE',  ( -3.061616997868383018E-17, 0.2500000000000000000, 0.000000000000000000 ) ) ;
#298 = EDGE_CURVE ( 'NONE', #83, #22, #284, .T. ) ;
#299 = CARTESIAN_POINT ( 'NONE',  ( 0.000000000000000000, 0.000000000000000000, 0.000000000000000000 ) ) ;
#300 = COLOUR_RGB ( '',1.000000000000000000, 0.000000000000000000, 0.000000000000000000 ) ;
#301 = LENGTH_MEASURE_WITH_UNIT ( LENGTH_MEASURE( 0.02539999999999999897 ), #223 );
#302 = FACE_OUTER_BOUND ( 'NONE', #230, .T. ) ;
#303 = FACE_OUTER_BOUND ( 'NONE', #342, .T. ) ;
#304 = PRESENTATION_LAYER_ASSIGNMENT (  '', '', ( #95 ) ) ;
#305 = DIRECTION ( 'NONE',  ( -0.000000000000000000, -1.000000000000000000, -0.000000000000000000 ) ) ;
#306 =( CONVERSION_BASED_UNIT ( 'INCH', #191 ) LENGTH_UNIT ( ) NAMED_UNIT ( #328 ) );
#307 =( LENGTH_UNIT ( ) NAMED_UNIT ( * ) SI_UNIT ( $, .METRE. ) );
#308 = ORIENTED_EDGE ( 'NONE', *, *, #73, .F. ) ;
#309 = DIRECTION ( 'NONE',  ( -1.000000000000000000, -1.224646799147353207E-16, 0.000000000000000000 ) ) ;
#310 = PRODUCT_RELATED_PRODUCT_CATEGORY ( 'part', '', ( #237 ) ) ;
#311 = ORIENTED_EDGE ( 'NONE', *, *, #316, .T. ) ;
#312 = CARTESIAN_POINT ( 'NONE',  ( 1.683889348827610752E-16, 1.625000000000000000, 0.000000000000000000 ) ) ;
#313 =( CONVERSION_BASED_UNIT ( 'INCH', #199 ) LENGTH_UNIT ( ) NAMED_UNIT ( #44 ) );
#314 = UNCERTAINTY_MEASURE_WITH_UNIT (LENGTH_MEASURE( 1.000000000000000082E-05 ), #148, 'distance_accuracy_value', 'NONE');
#315 = CIRCLE ( 'NONE', #202, 0.2500000000000000000 ) ;
#316 = EDGE_CURVE ( 'NONE', #365, #317, #282, .T. ) ;
#317 = VERTEX_POINT ( 'NONE', #279 ) ;
#318 = DIRECTION ( 'NONE',  ( 0.000000000000000000, 0.000000000000000000, -1.000000000000000000 ) ) ;
#319 = FILL_AREA_STYLE_COLOUR ( '', #227 ) ;
#320 = DIRECTION ( 'NONE',  ( 0.000000000000000000, 1.000000000000000000, 0.000000000000000000 ) ) ;
#321 = MANIFOLD_SOLID_BREP ( 'Revolve - Tool Body (Straight Shanked)', #25 ) ;
#322 = MECHANICAL_DESIGN_GEOMETRIC_PRESENTATION_REPRESENTATION (  '', ( #32 ), #105 ) ;
#323 = FILL_AREA_STYLE ('',( #122 ) ) ;
#324 =( CONVERSION_BASED_UNIT ( 'INCH', #238 ) LENGTH_UNIT ( ) NAMED_UNIT ( #355 ) );
#325 = DIRECTION ( 'NONE',  ( -1.000000000000000000, 0.000000000000000000, 0.000000000000000000 ) ) ;
#326 = LENGTH_MEASURE_WITH_UNIT ( LENGTH_MEASURE( 0.02539999999999999897 ), #92 );
#327 = DIRECTION ( 'NONE',  ( 0.000000000000000000, 0.000000000000000000, -1.000000000000000000 ) ) ;
#328 = DIMENSIONAL_EXPONENTS ( 1.000000000000000000, 0.000000000000000000, 0.000000000000000000, 0.000000000000000000, 0.000000000000000000, 0.000000000000000000, 0.000000000000000000 ) ;
#329 = DIRECTION ( 'NONE',  ( 1.000000000000000000, 0.000000000000000000, 0.000000000000000000 ) ) ;
#330 = SURFACE_SIDE_STYLE ('',( #155 ) ) ;
#331 = EDGE_CURVE ( 'NONE', #51, #361, #131, .T. ) ;
#332 = DIRECTION ( 'NONE',  ( 0.000000000000000000, 0.000000000000000000, -1.000000000000000000 ) ) ;
#333 = ADVANCED_BREP_SHAPE_REPRESENTATION ( '56542', ( #70, #321, #339 ), #20 ) ;
#334 = LENGTH_MEASURE_WITH_UNIT ( LENGTH_MEASURE( 0.02539999999999999897 ), #184 );
#335 = PRODUCT_DEFINITION_FORMATION_WITH_SPECIFIED_SOURCE ( 'ANY', '', #237, .NOT_KNOWN. ) ;
#336 =( NAMED_UNIT ( * ) SI_UNIT ( $, .STERADIAN. ) SOLID_ANGLE_UNIT ( ) );
#337 = EDGE_CURVE ( 'NONE', #29, #361, #315, .T. ) ;
#338 = DIRECTION ( 'NONE',  ( -1.224646799147353207E-16, 1.000000000000000000, -0.000000000000000000 ) ) ;
#339 = AXIS2_PLACEMENT_3D ( 'NONE', #299, #270, #266 ) ;
#340 = ORIENTED_EDGE ( 'NONE', *, *, #349, .T. ) ;
#341 = DIRECTION ( 'NONE',  ( -0.000000000000000000, -1.000000000000000000, -0.000000000000000000 ) ) ;
#342 = EDGE_LOOP ( 'NONE', ( #308, #111, #137, #280 ) ) ;
#343 = CIRCLE ( 'NONE', #173, 0.2500000000000000000 ) ;
#344 = AXIS2_PLACEMENT_3D ( 'NONE', #273, #156, #251 ) ;
#345 = VERTEX_POINT ( 'NONE', #63 ) ;
#346 = LENGTH_MEASURE_WITH_UNIT ( LENGTH_MEASURE( 0.02539999999999999897 ), #236 );
#347 = SPHERICAL_SURFACE ( 'NONE', #10, 0.2500000000000000000 ) ;
#348 =( LENGTH_UNIT ( ) NAMED_UNIT ( * ) SI_UNIT ( $, .METRE. ) );
#349 = EDGE_CURVE ( 'NONE', #51, #257, #277, .T. ) ;
#350 = DIRECTION ( 'NONE',  ( -1.224646799147353207E-16, 1.000000000000000000, -0.000000000000000000 ) ) ;
#351 = AXIS2_PLACEMENT_3D ( 'NONE', #297, #246, #252 ) ;
#352 = COLOUR_RGB ( '',1.000000000000000000, 0.000000000000000000, 0.000000000000000000 ) ;
#353 =( CONVERSION_BASED_UNIT ( 'INCH', #241 ) LENGTH_UNIT ( ) NAMED_UNIT ( #275 ) );
#354 = DIRECTION ( 'NONE',  ( 0.000000000000000000, 0.000000000000000000, -1.000000000000000000 ) ) ;
#355 = DIMENSIONAL_EXPONENTS ( 1.000000000000000000, 0.000000000000000000, 0.000000000000000000, 0.000000000000000000, 0.000000000000000000, 0.000000000000000000, 0.000000000000000000 ) ;
#356 = FILL_AREA_STYLE ('',( #71 ) ) ;
#357 = STYLED_ITEM ( 'NONE', ( #276 ), #151 ) ;
#358 =( LENGTH_UNIT ( ) NAMED_UNIT ( * ) SI_UNIT ( $, .METRE. ) );
#359 = AXIS2_PLACEMENT_3D ( 'NONE', #187, #15, #104 ) ;
#360 = AXIS2_PLACEMENT_3D ( 'NONE', #84, #341, #195 ) ;
#361 = VERTEX_POINT ( 'NONE', #296 ) ;
#362 = EDGE_LOOP ( 'NONE', ( #162, #278, #27, #24 ) ) ;
#363 = CIRCLE ( 'NONE', #180, 0.2500000000000000000 ) ;
#364 =( GEOMETRIC_REPRESENTATION_CONTEXT ( 3 ) GLOBAL_UNCERTAINTY_ASSIGNED_CONTEXT ( ( #216 ) ) GLOBAL_UNIT_ASSIGNED_CONTEXT ( ( #306, #132, #38 ) ) REPRESENTATION_CONTEXT ( 'NONE', 'WORKASPACE' ) );
#365 = VERTEX_POINT ( 'NONE', #146 ) ;
#366 = CARTESIAN_POINT ( 'NONE',  ( -1.224646799147352714E-16, 4.000000000000000000, 0.000000000000000000 ) ) ;
#367 = UNCERTAINTY_MEASURE_WITH_UNIT (LENGTH_MEASURE( 1.000000000000000082E-05 ), #353, 'distance_accuracy_value', 'NONE');
#368 = ORIENTED_EDGE ( 'NONE', *, *, #200, .T. ) ;
#369 =( NAMED_UNIT ( * ) PLANE_ANGLE_UNIT ( ) SI_UNIT ( $, .RADIAN. ) );
#370 = ADVANCED_FACE ( 'NONE', ( #117 ), #244, .T. ) ;
#371 = ORIENTED_EDGE ( 'NONE', *, *, #31, .T. ) ;
#372 = DIRECTION ( 'NONE',  ( 0.000000000000000000, -0.000000000000000000, 1.000000000000000000 ) ) ;
#373 = CARTESIAN_POINT ( 'NONE',  ( 0.000000000000000000, 0.2500000000000000000, 0.000000000000000000 ) ) ;
ENDSEC;
END-ISO-10303-21;
