ISO-10303-21;
HEADER;
FILE_DESCRIPTION (( 'STEP AP214' ),
    '1' );
FILE_NAME ('06255.STEP',
    '2023-07-05T16:01:20',
    ( '' ),
    ( '' ),
    'SwSTEP 2.0',
    'SolidWorks 2023',
    '' );
FILE_SCHEMA (( 'AUTOMOTIVE_DESIGN' ));
ENDSEC;

DATA;
#1 = CARTESIAN_POINT ( 'NONE',  ( 0.000000000000000000, 39.37007874015748143, 0.000000000000000000 ) ) ;
#2 = DIMENSIONAL_EXPONENTS ( 1.000000000000000000, 0.000000000000000000, 0.000000000000000000, 0.000000000000000000, 0.000000000000000000, 0.000000000000000000, 0.000000000000000000 ) ;
#3 =( LENGTH_UNIT ( ) NAMED_UNIT ( * ) SI_UNIT ( $, .METRE. ) );
#4 =( LENGTH_UNIT ( ) NAMED_UNIT ( * ) SI_UNIT ( $, .METRE. ) );
#5 = AXIS2_PLACEMENT_3D ( 'NONE', #218, #119, #179 ) ;
#6 = CARTESIAN_POINT ( 'NONE',  ( 0.1249999999999999445, 2.500000000000000000, 1.530808498934190893E-17 ) ) ;
#7 =( NAMED_UNIT ( * ) SI_UNIT ( $, .STERADIAN. ) SOLID_ANGLE_UNIT ( ) );
#8 =( NAMED_UNIT ( * ) PLANE_ANGLE_UNIT ( ) SI_UNIT ( $, .RADIAN. ) );
#9 = EDGE_LOOP ( 'NONE', ( #235, #201, #41 ) ) ;
#10 = UNCERTAINTY_MEASURE_WITH_UNIT (LENGTH_MEASURE( 1.000000000000000082E-05 ), #143, 'distance_accuracy_value', 'NONE');
#11 =( CONVERSION_BASED_UNIT ( 'INCH', #192 ) LENGTH_UNIT ( ) NAMED_UNIT ( #58 ) );
#12 = EDGE_CURVE ( 'NONE', #244, #210, #74, .T. ) ;
#13 = PRODUCT_CONTEXT ( 'NONE', #228, 'mechanical' ) ;
#14 = PRODUCT_DEFINITION_SHAPE ( 'NONE', 'NONE',  #220 ) ;
#15 =( NAMED_UNIT ( * ) PLANE_ANGLE_UNIT ( ) SI_UNIT ( $, .RADIAN. ) );
#16 = STYLED_ITEM ( 'NONE', ( #170 ), #212 ) ;
#17 = AXIS2_PLACEMENT_3D ( 'NONE', #1, #130, #249 ) ;
#18 = CARTESIAN_POINT ( 'NONE',  ( -6.123233995736766036E-17, 2.500000000000000000, 0.000000000000000000 ) ) ;
#19 = FACE_OUTER_BOUND ( 'NONE', #174, .T. ) ;
#20 = AXIS2_PLACEMENT_3D ( 'NONE', #18, #75, #38 ) ;
#21 = FILL_AREA_STYLE ('',( #165 ) ) ;
#22 =( GEOMETRIC_REPRESENTATION_CONTEXT ( 3 ) GLOBAL_UNCERTAINTY_ASSIGNED_CONTEXT ( ( #33 ) ) GLOBAL_UNIT_ASSIGNED_CONTEXT ( ( #144, #226, #204 ) ) REPRESENTATION_CONTEXT ( 'NONE', 'WORKASPACE' ) );
#23 = SURFACE_STYLE_FILL_AREA ( #186 ) ;
#24 = SURFACE_SIDE_STYLE ('',( #57 ) ) ;
#25 = DIMENSIONAL_EXPONENTS ( 1.000000000000000000, 0.000000000000000000, 0.000000000000000000, 0.000000000000000000, 0.000000000000000000, 0.000000000000000000, 0.000000000000000000 ) ;
#26 = PRESENTATION_STYLE_ASSIGNMENT (( #208 ) ) ;
#27 = FILL_AREA_STYLE_COLOUR ( '', #69 ) ;
#28 = STYLED_ITEM ( 'NONE', ( #26 ), #253 ) ;
#29 = MECHANICAL_DESIGN_GEOMETRIC_PRESENTATION_REPRESENTATION (  '', ( #28 ), #188 ) ;
#30 = ORIENTED_EDGE ( 'NONE', *, *, #241, .F. ) ;
#31 = PLANE ( 'NONE',  #221 ) ;
#32 = SURFACE_SIDE_STYLE ('',( #63 ) ) ;
#33 = UNCERTAINTY_MEASURE_WITH_UNIT (LENGTH_MEASURE( 1.000000000000000082E-05 ), #144, 'distance_accuracy_value', 'NONE');
#34 = ORIENTED_EDGE ( 'NONE', *, *, #200, .T. ) ;
#35 = DIRECTION ( 'NONE',  ( 0.000000000000000000, 1.000000000000000000, 0.000000000000000000 ) ) ;
#36 = EDGE_CURVE ( 'NONE', #263, #195, #223, .T. ) ;
#37 = DIRECTION ( 'NONE',  ( -1.000000000000000000, 0.000000000000000000, 0.000000000000000000 ) ) ;
#38 = DIRECTION ( 'NONE',  ( -1.000000000000000000, 0.000000000000000000, 0.000000000000000000 ) ) ;
#39 =( NAMED_UNIT ( * ) PLANE_ANGLE_UNIT ( ) SI_UNIT ( $, .RADIAN. ) );
#40 = LENGTH_MEASURE_WITH_UNIT ( LENGTH_MEASURE( 0.02539999999999999897 ), #118 );
#41 = ORIENTED_EDGE ( 'NONE', *, *, #90, .T. ) ;
#42 =( NAMED_UNIT ( * ) SI_UNIT ( $, .STERADIAN. ) SOLID_ANGLE_UNIT ( ) );
#43 = ADVANCED_FACE ( 'NONE', ( #70 ), #31, .F. ) ;
#44 = LINE ( 'NONE', #245, #52 ) ;
#45 = CARTESIAN_POINT ( 'NONE',  ( -0.1250000000000001110, 2.500000000000000000, 0.000000000000000000 ) ) ;
#46 = COLOUR_RGB ( '',0.7921568627450980005, 0.8196078431372548767, 0.9333333333333333481 ) ;
#47 = ORIENTED_EDGE ( 'NONE', *, *, #241, .T. ) ;
#48 = FACE_OUTER_BOUND ( 'NONE', #9, .T. ) ;
#49 = CLOSED_SHELL ( 'NONE', ( #85, #212, #253 ) ) ;
#50 = CARTESIAN_POINT ( 'NONE',  ( 0.000000000000000000, 0.2165063509461090385, 0.000000000000000000 ) ) ;
#51 = FACE_OUTER_BOUND ( 'NONE', #256, .T. ) ;
#52 = VECTOR ( 'NONE', #125, 39.37007874015748143 ) ;
#53 = CARTESIAN_POINT ( 'NONE',  ( -0.1249999999999995559, 0.2165063509461089553, 0.000000000000000000 ) ) ;
#54 = DIRECTION ( 'NONE',  ( 0.000000000000000000, 0.000000000000000000, 1.000000000000000000 ) ) ;
#55 = AXIS2_PLACEMENT_3D ( 'NONE', #255, #176, #194 ) ;
#56 = SURFACE_SIDE_STYLE ('',( #23 ) ) ;
#57 = SURFACE_STYLE_FILL_AREA ( #227 ) ;
#58 = DIMENSIONAL_EXPONENTS ( 1.000000000000000000, 0.000000000000000000, 0.000000000000000000, 0.000000000000000000, 0.000000000000000000, 0.000000000000000000, 0.000000000000000000 ) ;
#59 = MECHANICAL_DESIGN_GEOMETRIC_PRESENTATION_REPRESENTATION (  '', ( #16 ), #22 ) ;
#60 = SHAPE_DEFINITION_REPRESENTATION ( #14, #72 ) ;
#61 =( NAMED_UNIT ( * ) SI_UNIT ( $, .STERADIAN. ) SOLID_ANGLE_UNIT ( ) );
#62 = STYLED_ITEM ( 'NONE', ( #148 ), #239 ) ;
#63 = SURFACE_STYLE_FILL_AREA ( #92 ) ;
#64 = CARTESIAN_POINT ( 'NONE',  ( 0.1249999999999998335, 2.500000000000000000, 1.530808498934190276E-17 ) ) ;
#65 =( LENGTH_UNIT ( ) NAMED_UNIT ( * ) SI_UNIT ( $, .METRE. ) );
#66 = ORIENTED_EDGE ( 'NONE', *, *, #185, .F. ) ;
#67 = ORIENTED_EDGE ( 'NONE', *, *, #115, .T. ) ;
#68 = AXIS2_PLACEMENT_3D ( 'NONE', #162, #240, #202 ) ;
#69 = COLOUR_RGB ( '',0.7921568627450980005, 0.8196078431372548767, 0.9333333333333333481 ) ;
#70 = FACE_OUTER_BOUND ( 'NONE', #171, .T. ) ;
#71 = DIRECTION ( 'NONE',  ( -1.221490049109858028E-16, 1.000000000000000000, -0.000000000000000000 ) ) ;
#72 = ADVANCED_BREP_SHAPE_REPRESENTATION ( '06255', ( #163, #239, #150 ), #238 ) ;
#73 = SURFACE_STYLE_FILL_AREA ( #21 ) ;
#74 = CIRCLE ( 'NONE', #55, 0.1249999999999997780 ) ;
#75 = DIRECTION ( 'NONE',  ( -1.221490049109858028E-16, 1.000000000000000000, -0.000000000000000000 ) ) ;
#76 = CARTESIAN_POINT ( 'NONE',  ( 0.000000000000000000, 0.2165063509461090385, 0.000000000000000000 ) ) ;
#77 = ORIENTED_EDGE ( 'NONE', *, *, #12, .F. ) ;
#78 = CYLINDRICAL_SURFACE ( 'NONE', #20, 0.1249999999999999029 ) ;
#79 = VERTEX_POINT ( 'NONE', #214 ) ;
#80 = VECTOR ( 'NONE', #110, 39.37007874015748143 ) ;
#81 = PRODUCT_DEFINITION_FORMATION_WITH_SPECIFIED_SOURCE ( 'ANY', '', #95, .NOT_KNOWN. ) ;
#82 = EDGE_CURVE ( 'NONE', #244, #225, #254, .T. ) ;
#83 = DIMENSIONAL_EXPONENTS ( 1.000000000000000000, 0.000000000000000000, 0.000000000000000000, 0.000000000000000000, 0.000000000000000000, 0.000000000000000000, 0.000000000000000000 ) ;
#84 = DIRECTION ( 'NONE',  ( 0.000000000000000000, -0.000000000000000000, 1.000000000000000000 ) ) ;
#85 = ADVANCED_FACE ( 'NONE', ( #48 ), #156, .T. ) ;
#86 = COLOUR_RGB ( '',1.000000000000000000, 0.000000000000000000, 0.000000000000000000 ) ;
#87 =( CONVERSION_BASED_UNIT ( 'INCH', #189 ) LENGTH_UNIT ( ) NAMED_UNIT ( #246 ) );
#88 = AXIS2_PLACEMENT_3D ( 'NONE', #258, #71, #37 ) ;
#89 = ORIENTED_EDGE ( 'NONE', *, *, #115, .F. ) ;
#90 = EDGE_CURVE ( 'NONE', #195, #263, #111, .T. ) ;
#91 = CARTESIAN_POINT ( 'NONE',  ( 0.000000000000000000, 0.000000000000000000, 0.000000000000000000 ) ) ;
#92 = FILL_AREA_STYLE ('',( #134 ) ) ;
#93 = APPLICATION_CONTEXT ( 'automotive_design' ) ;
#94 = ORIENTED_EDGE ( 'NONE', *, *, #12, .T. ) ;
#95 = PRODUCT ( '06255', '06255', '', ( #13 ) ) ;
#96 = DIRECTION ( 'NONE',  ( -1.000000000000000000, 0.000000000000000000, 0.000000000000000000 ) ) ;
#97 = PLANE ( 'NONE',  #175 ) ;
#98 = AXIS2_PLACEMENT_3D ( 'NONE', #132, #35, #54 ) ;
#99 = SURFACE_STYLE_FILL_AREA ( #180 ) ;
#100 = ORIENTED_EDGE ( 'NONE', *, *, #129, .T. ) ;
#101 = CARTESIAN_POINT ( 'NONE',  ( 0.000000000000000000, 0.000000000000000000, 0.000000000000000000 ) ) ;
#102 = FILL_AREA_STYLE_COLOUR ( '', #205 ) ;
#103 =( GEOMETRIC_REPRESENTATION_CONTEXT ( 3 ) GLOBAL_UNCERTAINTY_ASSIGNED_CONTEXT ( ( #112 ) ) GLOBAL_UNIT_ASSIGNED_CONTEXT ( ( #140, #39, #197 ) ) REPRESENTATION_CONTEXT ( 'NONE', 'WORKASPACE' ) );
#104 =( LENGTH_UNIT ( ) NAMED_UNIT ( * ) SI_UNIT ( $, .METRE. ) );
#105 = LENGTH_MEASURE_WITH_UNIT ( LENGTH_MEASURE( 0.02539999999999999897 ), #3 );
#106 = CONICAL_SURFACE ( 'NONE', #17, 22.73032555864674364, 0.5235987755983000369 ) ;
#107 = CARTESIAN_POINT ( 'NONE',  ( 0.000000000000000000, 0.2165063509461090385, 0.000000000000000000 ) ) ;
#108 = DIRECTION ( 'NONE',  ( 0.000000000000000000, 0.000000000000000000, 1.000000000000000000 ) ) ;
#109 = DIRECTION ( 'NONE',  ( 0.000000000000000000, 0.000000000000000000, -1.000000000000000000 ) ) ;
#110 = DIRECTION ( 'NONE',  ( -1.221490049109858028E-16, 1.000000000000000000, -0.000000000000000000 ) ) ;
#111 = CIRCLE ( 'NONE', #209, 0.1249999999999999861 ) ;
#112 = UNCERTAINTY_MEASURE_WITH_UNIT (LENGTH_MEASURE( 1.000000000000000082E-05 ), #140, 'distance_accuracy_value', 'NONE');
#113 = EDGE_LOOP ( 'NONE', ( #160, #34, #131 ) ) ;
#114 = LENGTH_MEASURE_WITH_UNIT ( LENGTH_MEASURE( 0.02539999999999999897 ), #230 );
#115 = EDGE_CURVE ( 'NONE', #234, #225, #260, .T. ) ;
#116 =( NAMED_UNIT ( * ) PLANE_ANGLE_UNIT ( ) SI_UNIT ( $, .RADIAN. ) );
#117 = VECTOR ( 'NONE', #137, 39.37007874015748143 ) ;
#118 =( LENGTH_UNIT ( ) NAMED_UNIT ( * ) SI_UNIT ( $, .METRE. ) );
#119 = DIRECTION ( 'NONE',  ( -1.221490049109858028E-16, 1.000000000000000000, -0.000000000000000000 ) ) ;
#120 = CARTESIAN_POINT ( 'NONE',  ( -6.123233995736766036E-17, 2.500000000000000000, 0.000000000000000000 ) ) ;
#121 = STYLED_ITEM ( 'NONE', ( #136 ), #163 ) ;
#122 = FACE_OUTER_BOUND ( 'NONE', #155, .T. ) ;
#123 = SURFACE_STYLE_USAGE ( .BOTH. , #182 ) ;
#124 = PRESENTATION_LAYER_ASSIGNMENT (  '', '', ( #16 ) ) ;
#125 = DIRECTION ( 'NONE',  ( -1.221490049109858028E-16, 1.000000000000000000, -0.000000000000000000 ) ) ;
#126 = SURFACE_STYLE_USAGE ( .BOTH. , #56 ) ;
#127 = MECHANICAL_DESIGN_GEOMETRIC_PRESENTATION_REPRESENTATION (  '', ( #121 ), #103 ) ;
#128 = ORIENTED_EDGE ( 'NONE', *, *, #185, .T. ) ;
#129 = EDGE_CURVE ( 'NONE', #225, #234, #133, .T. ) ;
#130 = DIRECTION ( 'NONE',  ( 0.000000000000000000, 1.000000000000000000, 0.000000000000000000 ) ) ;
#131 = ORIENTED_EDGE ( 'NONE', *, *, #36, .T. ) ;
#132 = CARTESIAN_POINT ( 'NONE',  ( 0.000000000000000000, 39.37007874015748143, 0.000000000000000000 ) ) ;
#133 = CIRCLE ( 'NONE', #232, 0.1250000000000000278 ) ;
#134 = FILL_AREA_STYLE_COLOUR ( '', #86 ) ;
#135 = CARTESIAN_POINT ( 'NONE',  ( 0.1249999999999999584, 2.500000000000000000, 0.000000000000000000 ) ) ;
#136 = PRESENTATION_STYLE_ASSIGNMENT (( #262 ) ) ;
#137 = DIRECTION ( 'NONE',  ( 6.123233995736778362E-17, 0.8660254037844380415, -0.5000000000000009992 ) ) ;
#138 = MECHANICAL_DESIGN_GEOMETRIC_PRESENTATION_REPRESENTATION (  '', ( #62 ), #142 ) ;
#139 = EDGE_CURVE ( 'NONE', #79, #195, #141, .T. ) ;
#140 =( CONVERSION_BASED_UNIT ( 'INCH', #40 ) LENGTH_UNIT ( ) NAMED_UNIT ( #25 ) );
#141 = LINE ( 'NONE', #101, #117 ) ;
#142 =( GEOMETRIC_REPRESENTATION_CONTEXT ( 3 ) GLOBAL_UNCERTAINTY_ASSIGNED_CONTEXT ( ( #193 ) ) GLOBAL_UNIT_ASSIGNED_CONTEXT ( ( #87, #147, #42 ) ) REPRESENTATION_CONTEXT ( 'NONE', 'WORKASPACE' ) );
#143 =( CONVERSION_BASED_UNIT ( 'INCH', #169 ) LENGTH_UNIT ( ) NAMED_UNIT ( #2 ) );
#144 =( CONVERSION_BASED_UNIT ( 'INCH', #105 ) LENGTH_UNIT ( ) NAMED_UNIT ( #224 ) );
#145 = UNCERTAINTY_MEASURE_WITH_UNIT (LENGTH_MEASURE( 1.000000000000000082E-05 ), #173, 'distance_accuracy_value', 'NONE');
#146 = PRESENTATION_LAYER_ASSIGNMENT (  '', '', ( #121 ) ) ;
#147 =( NAMED_UNIT ( * ) PLANE_ANGLE_UNIT ( ) SI_UNIT ( $, .RADIAN. ) );
#148 = PRESENTATION_STYLE_ASSIGNMENT (( #126 ) ) ;
#149 = COLOUR_RGB ( '',1.000000000000000000, 0.000000000000000000, 0.000000000000000000 ) ;
#150 = AXIS2_PLACEMENT_3D ( 'NONE', #91, #108, #190 ) ;
#151 = SURFACE_STYLE_USAGE ( .BOTH. , #32 ) ;
#152 = CARTESIAN_POINT ( 'NONE',  ( 0.000000000000000000, 0.2165063509461090385, 0.1249999999999999861 ) ) ;
#153 = ORIENTED_EDGE ( 'NONE', *, *, #129, .F. ) ;
#154 =( NAMED_UNIT ( * ) SI_UNIT ( $, .STERADIAN. ) SOLID_ANGLE_UNIT ( ) );
#155 = EDGE_LOOP ( 'NONE', ( #66, #77 ) ) ;
#156 = CONICAL_SURFACE ( 'NONE', #98, 22.73032555864674364, 0.5235987755983000369 ) ;
#157 = PRODUCT_DEFINITION_CONTEXT ( 'detailed design', #93, 'design' ) ;
#158 = ADVANCED_FACE ( 'NONE', ( #219 ), #78, .T. ) ;
#159 = EDGE_LOOP ( 'NONE', ( #211, #94, #47, #153 ) ) ;
#160 = ORIENTED_EDGE ( 'NONE', *, *, #139, .F. ) ;
#161 = PRODUCT_RELATED_PRODUCT_CATEGORY ( 'part', '', ( #95 ) ) ;
#162 = CARTESIAN_POINT ( 'NONE',  ( 2.176941369951209721E-16, 0.2165063509461090385, 0.000000000000000000 ) ) ;
#163 = MANIFOLD_SOLID_BREP ( 'Revolve - Cutting Edge', #49 ) ;
#164 = CARTESIAN_POINT ( 'NONE',  ( 1.530808498934191201E-17, 0.2165063509461090385, -0.1249999999999999861 ) ) ;
#165 = FILL_AREA_STYLE_COLOUR ( '', #46 ) ;
#166 = DIRECTION ( 'NONE',  ( -1.221490049109858028E-16, 1.000000000000000000, -0.000000000000000000 ) ) ;
#167 =( GEOMETRIC_REPRESENTATION_CONTEXT ( 3 ) GLOBAL_UNCERTAINTY_ASSIGNED_CONTEXT ( ( #145 ) ) GLOBAL_UNIT_ASSIGNED_CONTEXT ( ( #173, #15, #7 ) ) REPRESENTATION_CONTEXT ( 'NONE', 'WORKASPACE' ) );
#168 = ORIENTED_EDGE ( 'NONE', *, *, #36, .F. ) ;
#169 = LENGTH_MEASURE_WITH_UNIT ( LENGTH_MEASURE( 0.02539999999999999897 ), #4 );
#170 = PRESENTATION_STYLE_ASSIGNMENT (( #123 ) ) ;
#171 = EDGE_LOOP ( 'NONE', ( #67, #100 ) ) ;
#172 = UNCERTAINTY_MEASURE_WITH_UNIT (LENGTH_MEASURE( 1.000000000000000082E-05 ), #11, 'distance_accuracy_value', 'NONE');
#173 =( CONVERSION_BASED_UNIT ( 'INCH', #114 ) LENGTH_UNIT ( ) NAMED_UNIT ( #83 ) );
#174 = EDGE_LOOP ( 'NONE', ( #168, #265 ) ) ;
#175 = AXIS2_PLACEMENT_3D ( 'NONE', #107, #184, #84 ) ;
#176 = DIRECTION ( 'NONE',  ( -1.221490049109858028E-16, 1.000000000000000000, -0.000000000000000000 ) ) ;
#177 = DIRECTION ( 'NONE',  ( -0.000000000000000000, -1.000000000000000000, -0.000000000000000000 ) ) ;
#178 = ADVANCED_FACE ( 'NONE', ( #51 ), #236, .T. ) ;
#179 = DIRECTION ( 'NONE',  ( -1.000000000000000000, 0.000000000000000000, 0.000000000000000000 ) ) ;
#180 = FILL_AREA_STYLE ('',( #199 ) ) ;
#181 = CIRCLE ( 'NONE', #5, 0.1249999999999997780 ) ;
#182 = SURFACE_SIDE_STYLE ('',( #99 ) ) ;
#183 = SURFACE_SIDE_STYLE ('',( #73 ) ) ;
#184 = DIRECTION ( 'NONE',  ( 0.000000000000000000, 1.000000000000000000, 0.000000000000000000 ) ) ;
#185 = EDGE_CURVE ( 'NONE', #210, #244, #181, .T. ) ;
#186 = FILL_AREA_STYLE ('',( #27 ) ) ;
#187 = VECTOR ( 'NONE', #242, 39.37007874015748143 ) ;
#188 =( GEOMETRIC_REPRESENTATION_CONTEXT ( 3 ) GLOBAL_UNCERTAINTY_ASSIGNED_CONTEXT ( ( #10 ) ) GLOBAL_UNIT_ASSIGNED_CONTEXT ( ( #143, #8, #61 ) ) REPRESENTATION_CONTEXT ( 'NONE', 'WORKASPACE' ) );
#189 = LENGTH_MEASURE_WITH_UNIT ( LENGTH_MEASURE( 0.02539999999999999897 ), #104 );
#190 = DIRECTION ( 'NONE',  ( 1.000000000000000000, 0.000000000000000000, 0.000000000000000000 ) ) ;
#191 = CLOSED_SHELL ( 'NONE', ( #178, #203, #158, #43 ) ) ;
#192 = LENGTH_MEASURE_WITH_UNIT ( LENGTH_MEASURE( 0.02539999999999999897 ), #65 );
#193 = UNCERTAINTY_MEASURE_WITH_UNIT (LENGTH_MEASURE( 1.000000000000000082E-05 ), #87, 'distance_accuracy_value', 'NONE');
#194 = DIRECTION ( 'NONE',  ( -1.000000000000000000, 0.000000000000000000, 0.000000000000000000 ) ) ;
#195 = VERTEX_POINT ( 'NONE', #164 ) ;
#196 = DIRECTION ( 'NONE',  ( 0.000000000000000000, 0.000000000000000000, -1.000000000000000000 ) ) ;
#197 =( NAMED_UNIT ( * ) SI_UNIT ( $, .STERADIAN. ) SOLID_ANGLE_UNIT ( ) );
#198 = PLANE ( 'NONE',  #68 ) ;
#199 = FILL_AREA_STYLE_COLOUR ( '', #149 ) ;
#200 = EDGE_CURVE ( 'NONE', #79, #263, #259, .T. ) ;
#201 = ORIENTED_EDGE ( 'NONE', *, *, #139, .T. ) ;
#202 = DIRECTION ( 'NONE',  ( -1.000000000000000000, -1.221490049109858028E-16, 0.000000000000000000 ) ) ;
#203 = ADVANCED_FACE ( 'NONE', ( #122 ), #198, .F. ) ;
#204 =( NAMED_UNIT ( * ) SI_UNIT ( $, .STERADIAN. ) SOLID_ANGLE_UNIT ( ) );
#205 = COLOUR_RGB ( '',1.000000000000000000, 0.000000000000000000, 0.000000000000000000 ) ;
#206 = PRESENTATION_LAYER_ASSIGNMENT (  '', '', ( #28 ) ) ;
#207 = FACE_OUTER_BOUND ( 'NONE', #113, .T. ) ;
#208 = SURFACE_STYLE_USAGE ( .BOTH. , #24 ) ;
#209 = AXIS2_PLACEMENT_3D ( 'NONE', #76, #177, #196 ) ;
#210 = VERTEX_POINT ( 'NONE', #53 ) ;
#211 = ORIENTED_EDGE ( 'NONE', *, *, #82, .F. ) ;
#212 = ADVANCED_FACE ( 'NONE', ( #19 ), #97, .T. ) ;
#213 = ORIENTED_EDGE ( 'NONE', *, *, #82, .T. ) ;
#214 = CARTESIAN_POINT ( 'NONE',  ( 0.000000000000000000, 0.000000000000000000, 0.000000000000000000 ) ) ;
#215 = DIRECTION ( 'NONE',  ( 1.000000000000000000, 1.221490049109858028E-16, 0.000000000000000000 ) ) ;
#216 = MECHANICAL_DESIGN_GEOMETRIC_PRESENTATION_REPRESENTATION (  '', ( #229 ), #167 ) ;
#217 = DIRECTION ( 'NONE',  ( -1.221490049109858028E-16, 1.000000000000000000, -0.000000000000000000 ) ) ;
#218 = CARTESIAN_POINT ( 'NONE',  ( 2.176941369951209721E-16, 0.2165063509461089553, 0.000000000000000000 ) ) ;
#219 = FACE_OUTER_BOUND ( 'NONE', #159, .T. ) ;
#220 = PRODUCT_DEFINITION ( 'UNKNOWN', '', #81, #157 ) ;
#221 = AXIS2_PLACEMENT_3D ( 'NONE', #135, #231, #215 ) ;
#222 = CARTESIAN_POINT ( 'NONE',  ( 0.000000000000000000, 0.000000000000000000, 0.000000000000000000 ) ) ;
#223 = CIRCLE ( 'NONE', #248, 0.1249999999999999861 ) ;
#224 = DIMENSIONAL_EXPONENTS ( 1.000000000000000000, 0.000000000000000000, 0.000000000000000000, 0.000000000000000000, 0.000000000000000000, 0.000000000000000000, 0.000000000000000000 ) ;
#225 = VERTEX_POINT ( 'NONE', #6 ) ;
#226 =( NAMED_UNIT ( * ) PLANE_ANGLE_UNIT ( ) SI_UNIT ( $, .RADIAN. ) );
#227 = FILL_AREA_STYLE ('',( #102 ) ) ;
#228 = APPLICATION_CONTEXT ( 'automotive_design' ) ;
#229 = STYLED_ITEM ( 'NONE', ( #251 ), #85 ) ;
#230 =( LENGTH_UNIT ( ) NAMED_UNIT ( * ) SI_UNIT ( $, .METRE. ) );
#231 = DIRECTION ( 'NONE',  ( 1.221490049109858028E-16, -1.000000000000000000, 0.000000000000000000 ) ) ;
#232 = AXIS2_PLACEMENT_3D ( 'NONE', #261, #166, #264 ) ;
#233 = APPLICATION_PROTOCOL_DEFINITION ( 'draft international standard', 'automotive_design', 1998, #228 ) ;
#234 = VERTEX_POINT ( 'NONE', #45 ) ;
#235 = ORIENTED_EDGE ( 'NONE', *, *, #200, .F. ) ;
#236 = CYLINDRICAL_SURFACE ( 'NONE', #237, 0.1249999999999999029 ) ;
#237 = AXIS2_PLACEMENT_3D ( 'NONE', #120, #217, #96 ) ;
#238 =( GEOMETRIC_REPRESENTATION_CONTEXT ( 3 ) GLOBAL_UNCERTAINTY_ASSIGNED_CONTEXT ( ( #172 ) ) GLOBAL_UNIT_ASSIGNED_CONTEXT ( ( #11, #116, #154 ) ) REPRESENTATION_CONTEXT ( 'NONE', 'WORKASPACE' ) );
#239 = MANIFOLD_SOLID_BREP ( 'Revolve - Tool Body (Pointed)', #191 ) ;
#240 = DIRECTION ( 'NONE',  ( -1.221490049109858028E-16, 1.000000000000000000, 0.000000000000000000 ) ) ;
#241 = EDGE_CURVE ( 'NONE', #210, #234, #44, .T. ) ;
#242 = DIRECTION ( 'NONE',  ( 0.000000000000000000, 0.8660254037844380415, 0.5000000000000009992 ) ) ;
#243 = PRESENTATION_LAYER_ASSIGNMENT (  '', '', ( #229 ) ) ;
#244 = VERTEX_POINT ( 'NONE', #247 ) ;
#245 = CARTESIAN_POINT ( 'NONE',  ( -0.1249999999999999584, 2.500000000000000000, 0.000000000000000000 ) ) ;
#246 = DIMENSIONAL_EXPONENTS ( 1.000000000000000000, 0.000000000000000000, 0.000000000000000000, 0.000000000000000000, 0.000000000000000000, 0.000000000000000000, 0.000000000000000000 ) ;
#247 = CARTESIAN_POINT ( 'NONE',  ( 0.1250000000000000000, 0.2165063509461089553, 1.530808498934191201E-17 ) ) ;
#248 = AXIS2_PLACEMENT_3D ( 'NONE', #50, #257, #109 ) ;
#249 = DIRECTION ( 'NONE',  ( 0.000000000000000000, 0.000000000000000000, 1.000000000000000000 ) ) ;
#250 = APPLICATION_PROTOCOL_DEFINITION ( 'draft international standard', 'automotive_design', 1998, #93 ) ;
#251 = PRESENTATION_STYLE_ASSIGNMENT (( #151 ) ) ;
#252 = PRESENTATION_LAYER_ASSIGNMENT (  '', '', ( #62 ) ) ;
#253 = ADVANCED_FACE ( 'NONE', ( #207 ), #106, .T. ) ;
#254 = LINE ( 'NONE', #64, #80 ) ;
#255 = CARTESIAN_POINT ( 'NONE',  ( 2.176941369951209721E-16, 0.2165063509461089553, 0.000000000000000000 ) ) ;
#256 = EDGE_LOOP ( 'NONE', ( #128, #213, #89, #30 ) ) ;
#257 = DIRECTION ( 'NONE',  ( -0.000000000000000000, -1.000000000000000000, -0.000000000000000000 ) ) ;
#258 = CARTESIAN_POINT ( 'NONE',  ( -6.123233995736766036E-17, 2.500000000000000000, 0.000000000000000000 ) ) ;
#259 = LINE ( 'NONE', #222, #187 ) ;
#260 = CIRCLE ( 'NONE', #88, 0.1250000000000000278 ) ;
#261 = CARTESIAN_POINT ( 'NONE',  ( -6.123233995736766036E-17, 2.500000000000000000, 0.000000000000000000 ) ) ;
#262 = SURFACE_STYLE_USAGE ( .BOTH. , #183 ) ;
#263 = VERTEX_POINT ( 'NONE', #152 ) ;
#264 = DIRECTION ( 'NONE',  ( -1.000000000000000000, 0.000000000000000000, 0.000000000000000000 ) ) ;
#265 = ORIENTED_EDGE ( 'NONE', *, *, #90, .F. ) ;
ENDSEC;
END-ISO-10303-21;
