ISO-10303-21;
HEADER;
FILE_DESCRIPTION (( 'STEP AP214' ),
    '1' );
FILE_NAME ('81706.STEP',
    '2023-06-23T02:42:27',
    ( '' ),
    ( '' ),
    'SwSTEP 2.0',
    'SolidWorks 2023',
    '' );
FILE_SCHEMA (( 'AUTOMOTIVE_DESIGN' ));
ENDSEC;

DATA;
#1 = CIRCLE ( 'NONE', #169, 0.09374999999999991673 ) ;
#2 = UNCERTAINTY_MEASURE_WITH_UNIT (LENGTH_MEASURE( 1.000000000000000082E-05 ), #81, 'distance_accuracy_value', 'NONE');
#3 = ORIENTED_EDGE ( 'NONE', *, *, #99, .F. ) ;
#4 = PRESENTATION_LAYER_ASSIGNMENT (  '', '', ( #38 ) ) ;
#5 = DIRECTION ( 'NONE',  ( -0.000000000000000000, -1.000000000000000000, -0.000000000000000000 ) ) ;
#6 = ORIENTED_EDGE ( 'NONE', *, *, #84, .T. ) ;
#7 = EDGE_LOOP ( 'NONE', ( #163, #242, #78, #286 ) ) ;
#8 = PLANE ( 'NONE',  #227 ) ;
#9 = CARTESIAN_POINT ( 'NONE',  ( 1.148106374200643555E-17, 0.000000000000000000, 0.09375000000000001388 ) ) ;
#10 = EDGE_CURVE ( 'NONE', #77, #244, #92, .T. ) ;
#11 =( LENGTH_UNIT ( ) NAMED_UNIT ( * ) SI_UNIT ( $, .METRE. ) );
#12 = AXIS2_PLACEMENT_3D ( 'NONE', #157, #237, #121 ) ;
#13 = DIRECTION ( 'NONE',  ( 3.918869757271530214E-17, 1.000000000000000000, -0.000000000000000000 ) ) ;
#14 = AXIS2_PLACEMENT_3D ( 'NONE', #182, #239, #154 ) ;
#15 = DIRECTION ( 'NONE',  ( -0.000000000000000000, -1.000000000000000000, -0.000000000000000000 ) ) ;
#16 = SURFACE_STYLE_FILL_AREA ( #256 ) ;
#17 = PRODUCT_DEFINITION_SHAPE ( 'NONE', 'NONE',  #202 ) ;
#18 = DIRECTION ( 'NONE',  ( 0.000000000000000000, -1.000000000000000000, -0.000000000000000000 ) ) ;
#19 = PLANE ( 'NONE',  #160 ) ;
#20 = DIRECTION ( 'NONE',  ( 3.918869757271530214E-17, 1.000000000000000000, -0.000000000000000000 ) ) ;
#21 = MECHANICAL_DESIGN_GEOMETRIC_PRESENTATION_REPRESENTATION (  '', ( #155 ), #79 ) ;
#22 = FILL_AREA_STYLE_COLOUR ( '', #126 ) ;
#23 = UNCERTAINTY_MEASURE_WITH_UNIT (LENGTH_MEASURE( 1.000000000000000082E-05 ), #228, 'distance_accuracy_value', 'NONE');
#24 = ORIENTED_EDGE ( 'NONE', *, *, #301, .F. ) ;
#25 = EDGE_CURVE ( 'NONE', #47, #291, #54, .T. ) ;
#26 = PRODUCT_CONTEXT ( 'NONE', #193, 'mechanical' ) ;
#27 = EDGE_LOOP ( 'NONE', ( #122, #290 ) ) ;
#28 = PRESENTATION_LAYER_ASSIGNMENT (  '', '', ( #155 ) ) ;
#29 = ORIENTED_EDGE ( 'NONE', *, *, #10, .T. ) ;
#30 = PLANE ( 'NONE',  #181 ) ;
#31 = DIRECTION ( 'NONE',  ( -1.000000000000000000, 0.000000000000000000, 0.000000000000000000 ) ) ;
#32 = AXIS2_PLACEMENT_3D ( 'NONE', #260, #74, #49 ) ;
#33 = AXIS2_PLACEMENT_3D ( 'NONE', #234, #189, #164 ) ;
#34 = CYLINDRICAL_SURFACE ( 'NONE', #180, 0.09374999999999998612 ) ;
#35 = DIRECTION ( 'NONE',  ( -0.000000000000000000, -1.000000000000000000, -0.000000000000000000 ) ) ;
#36 = LENGTH_MEASURE_WITH_UNIT ( LENGTH_MEASURE( 0.02539999999999999897 ), #11 );
#37 =( NAMED_UNIT ( * ) PLANE_ANGLE_UNIT ( ) SI_UNIT ( $, .RADIAN. ) );
#38 = STYLED_ITEM ( 'NONE', ( #296 ), #80 ) ;
#39 = DIRECTION ( 'NONE',  ( -1.000000000000000000, 0.000000000000000000, 0.000000000000000000 ) ) ;
#40 = FACE_OUTER_BOUND ( 'NONE', #137, .T. ) ;
#41 = DIRECTION ( 'NONE',  ( 3.918869757271530214E-17, 1.000000000000000000, -0.000000000000000000 ) ) ;
#42 =( CONVERSION_BASED_UNIT ( 'INCH', #66 ) LENGTH_UNIT ( ) NAMED_UNIT ( #138 ) );
#43 = SURFACE_SIDE_STYLE ('',( #16 ) ) ;
#44 = AXIS2_PLACEMENT_3D ( 'NONE', #113, #183, #61 ) ;
#45 = APPLICATION_PROTOCOL_DEFINITION ( 'draft international standard', 'automotive_design', 1998, #247 ) ;
#46 = FACE_OUTER_BOUND ( 'NONE', #213, .T. ) ;
#47 = VERTEX_POINT ( 'NONE', #186 ) ;
#48 = PRESENTATION_LAYER_ASSIGNMENT (  '', '', ( #249 ) ) ;
#49 = DIRECTION ( 'NONE',  ( 1.000000000000000000, 0.000000000000000000, 0.000000000000000000 ) ) ;
#50 = SURFACE_STYLE_USAGE ( .BOTH. , #261 ) ;
#51 = ORIENTED_EDGE ( 'NONE', *, *, #70, .T. ) ;
#52 = ORIENTED_EDGE ( 'NONE', *, *, #84, .F. ) ;
#53 = ORIENTED_EDGE ( 'NONE', *, *, #90, .T. ) ;
#54 = CIRCLE ( 'NONE', #129, 0.09374999999999998612 ) ;
#55 = AXIS2_PLACEMENT_3D ( 'NONE', #232, #308, #302 ) ;
#56 = SURFACE_STYLE_FILL_AREA ( #274 ) ;
#57 = SURFACE_STYLE_USAGE ( .BOTH. , #248 ) ;
#58 =( GEOMETRIC_REPRESENTATION_CONTEXT ( 3 ) GLOBAL_UNCERTAINTY_ASSIGNED_CONTEXT ( ( #23 ) ) GLOBAL_UNIT_ASSIGNED_CONTEXT ( ( #228, #133, #111 ) ) REPRESENTATION_CONTEXT ( 'NONE', 'WORKASPACE' ) );
#59 = DIRECTION ( 'NONE',  ( 3.918869757271530214E-17, 1.000000000000000000, -0.000000000000000000 ) ) ;
#60 = CYLINDRICAL_SURFACE ( 'NONE', #55, 0.09374999999999995837 ) ;
#61 = DIRECTION ( 'NONE',  ( -1.000000000000000000, 0.000000000000000000, 0.000000000000000000 ) ) ;
#62 = MECHANICAL_DESIGN_GEOMETRIC_PRESENTATION_REPRESENTATION (  '', ( #250 ), #195 ) ;
#63 = PRESENTATION_LAYER_ASSIGNMENT (  '', '', ( #69 ) ) ;
#64 = LENGTH_MEASURE_WITH_UNIT ( LENGTH_MEASURE( 0.02539999999999999897 ), #282 );
#65 = MANIFOLD_SOLID_BREP ( 'Revolve - Cutting Edge', #243 ) ;
#66 = LENGTH_MEASURE_WITH_UNIT ( LENGTH_MEASURE( 0.02539999999999999897 ), #67 );
#67 =( LENGTH_UNIT ( ) NAMED_UNIT ( * ) SI_UNIT ( $, .METRE. ) );
#68 =( NAMED_UNIT ( * ) SI_UNIT ( $, .STERADIAN. ) SOLID_ANGLE_UNIT ( ) );
#69 = STYLED_ITEM ( 'NONE', ( #297 ), #65 ) ;
#70 = EDGE_CURVE ( 'NONE', #72, #216, #1, .T. ) ;
#71 = CARTESIAN_POINT ( 'NONE',  ( -0.09374999999999998612, 0.4374999999999998890, 0.000000000000000000 ) ) ;
#72 = VERTEX_POINT ( 'NONE', #275 ) ;
#73 = ORIENTED_EDGE ( 'NONE', *, *, #90, .F. ) ;
#74 = DIRECTION ( 'NONE',  ( 0.000000000000000000, 0.000000000000000000, 1.000000000000000000 ) ) ;
#75 = FILL_AREA_STYLE ('',( #22 ) ) ;
#76 = ADVANCED_FACE ( 'NONE', ( #225 ), #106, .F. ) ;
#77 = VERTEX_POINT ( 'NONE', #9 ) ;
#78 = ORIENTED_EDGE ( 'NONE', *, *, #131, .T. ) ;
#79 =( GEOMETRIC_REPRESENTATION_CONTEXT ( 3 ) GLOBAL_UNCERTAINTY_ASSIGNED_CONTEXT ( ( #141 ) ) GLOBAL_UNIT_ASSIGNED_CONTEXT ( ( #114, #135, #68 ) ) REPRESENTATION_CONTEXT ( 'NONE', 'WORKASPACE' ) );
#80 = ADVANCED_FACE ( 'NONE', ( #246 ), #34, .T. ) ;
#81 =( CONVERSION_BASED_UNIT ( 'INCH', #298 ) LENGTH_UNIT ( ) NAMED_UNIT ( #206 ) );
#82 =( CONVERSION_BASED_UNIT ( 'INCH', #36 ) LENGTH_UNIT ( ) NAMED_UNIT ( #184 ) );
#83 = CARTESIAN_POINT ( 'NONE',  ( 0.09374999999999998612, 2.000000000000000000, 0.000000000000000000 ) ) ;
#84 = EDGE_CURVE ( 'NONE', #291, #72, #273, .T. ) ;
#85 =( NAMED_UNIT ( * ) SI_UNIT ( $, .STERADIAN. ) SOLID_ANGLE_UNIT ( ) );
#86 = CARTESIAN_POINT ( 'NONE',  ( 0.000000000000000000, 0.4375000000000000000, 0.000000000000000000 ) ) ;
#87 = FILL_AREA_STYLE_COLOUR ( '', #299 ) ;
#88 = STYLED_ITEM ( 'NONE', ( #143 ), #245 ) ;
#89 = SURFACE_STYLE_USAGE ( .BOTH. , #204 ) ;
#90 = EDGE_CURVE ( 'NONE', #47, #216, #252, .T. ) ;
#91 = CYLINDRICAL_SURFACE ( 'NONE', #293, 0.09374999999999998612 ) ;
#92 = CIRCLE ( 'NONE', #12, 0.09375000000000001388 ) ;
#93 = DIRECTION ( 'NONE',  ( -1.000000000000000000, 0.000000000000000000, 0.000000000000000000 ) ) ;
#94 = DIRECTION ( 'NONE',  ( 0.000000000000000000, -0.000000000000000000, 1.000000000000000000 ) ) ;
#95 = PRODUCT_DEFINITION_CONTEXT ( 'detailed design', #247, 'design' ) ;
#96 = ORIENTED_EDGE ( 'NONE', *, *, #131, .F. ) ;
#97 = CIRCLE ( 'NONE', #44, 0.09374999999999998612 ) ;
#98 = EDGE_LOOP ( 'NONE', ( #270, #24 ) ) ;
#99 = EDGE_CURVE ( 'NONE', #216, #72, #116, .T. ) ;
#100 = FILL_AREA_STYLE_COLOUR ( '', #144 ) ;
#101 = CIRCLE ( 'NONE', #222, 0.09374999999999998612 ) ;
#102 = VECTOR ( 'NONE', #15, 39.37007874015748143 ) ;
#103 = EDGE_CURVE ( 'NONE', #288, #77, #178, .T. ) ;
#104 = DIRECTION ( 'NONE',  ( 0.000000000000000000, 0.000000000000000000, -1.000000000000000000 ) ) ;
#105 = CARTESIAN_POINT ( 'NONE',  ( -0.09374999999999988898, 2.000000000000000000, 0.000000000000000000 ) ) ;
#106 = PLANE ( 'NONE',  #107 ) ;
#107 = AXIS2_PLACEMENT_3D ( 'NONE', #83, #271, #172 ) ;
#108 = CARTESIAN_POINT ( 'NONE',  ( 6.123233995736766036E-17, 2.000000000000000000, 0.000000000000000000 ) ) ;
#109 = ADVANCED_BREP_SHAPE_REPRESENTATION ( '81706', ( #65, #167, #32 ), #294 ) ;
#110 = FACE_OUTER_BOUND ( 'NONE', #98, .T. ) ;
#111 =( NAMED_UNIT ( * ) SI_UNIT ( $, .STERADIAN. ) SOLID_ANGLE_UNIT ( ) );
#112 = MECHANICAL_DESIGN_GEOMETRIC_PRESENTATION_REPRESENTATION (  '', ( #249 ), #58 ) ;
#113 = CARTESIAN_POINT ( 'NONE',  ( 0.000000000000000000, 0.4374999999999998890, 0.000000000000000000 ) ) ;
#114 =( CONVERSION_BASED_UNIT ( 'INCH', #151 ) LENGTH_UNIT ( ) NAMED_UNIT ( #281 ) );
#115 = CARTESIAN_POINT ( 'NONE',  ( 0.000000000000000000, 0.4375000000000000000, 0.000000000000000000 ) ) ;
#116 = CIRCLE ( 'NONE', #238, 0.09374999999999991673 ) ;
#117 = ORIENTED_EDGE ( 'NONE', *, *, #70, .F. ) ;
#118 = DIMENSIONAL_EXPONENTS ( 1.000000000000000000, 0.000000000000000000, 0.000000000000000000, 0.000000000000000000, 0.000000000000000000, 0.000000000000000000, 0.000000000000000000 ) ;
#119 = ORIENTED_EDGE ( 'NONE', *, *, #283, .T. ) ;
#120 = APPLICATION_PROTOCOL_DEFINITION ( 'draft international standard', 'automotive_design', 1998, #193 ) ;
#121 = DIRECTION ( 'NONE',  ( 0.000000000000000000, 0.000000000000000000, -1.000000000000000000 ) ) ;
#122 = ORIENTED_EDGE ( 'NONE', *, *, #175, .F. ) ;
#123 = COLOUR_RGB ( '',0.7921568627450980005, 0.8196078431372548767, 0.9333333333333333481 ) ;
#124 = ORIENTED_EDGE ( 'NONE', *, *, #103, .T. ) ;
#125 =( LENGTH_UNIT ( ) NAMED_UNIT ( * ) SI_UNIT ( $, .METRE. ) );
#126 = COLOUR_RGB ( '',1.000000000000000000, 0.000000000000000000, 0.000000000000000000 ) ;
#127 = CARTESIAN_POINT ( 'NONE',  ( 0.000000000000000000, 0.000000000000000000, 0.000000000000000000 ) ) ;
#128 = CARTESIAN_POINT ( 'NONE',  ( 0.09375000000000002776, 2.000000000000000000, 1.148106374200643092E-17 ) ) ;
#129 = AXIS2_PLACEMENT_3D ( 'NONE', #191, #20, #93 ) ;
#130 = CARTESIAN_POINT ( 'NONE',  ( 6.123233995736766036E-17, 2.000000000000000000, 0.000000000000000000 ) ) ;
#131 = EDGE_CURVE ( 'NONE', #211, #244, #132, .T. ) ;
#132 = LINE ( 'NONE', #253, #278 ) ;
#133 =( NAMED_UNIT ( * ) PLANE_ANGLE_UNIT ( ) SI_UNIT ( $, .RADIAN. ) );
#134 = COLOUR_RGB ( '',1.000000000000000000, 0.000000000000000000, 0.000000000000000000 ) ;
#135 =( NAMED_UNIT ( * ) PLANE_ANGLE_UNIT ( ) SI_UNIT ( $, .RADIAN. ) );
#136 =( CONVERSION_BASED_UNIT ( 'INCH', #139 ) LENGTH_UNIT ( ) NAMED_UNIT ( #165 ) );
#137 = EDGE_LOOP ( 'NONE', ( #73, #188, #6, #3 ) ) ;
#138 = DIMENSIONAL_EXPONENTS ( 1.000000000000000000, 0.000000000000000000, 0.000000000000000000, 0.000000000000000000, 0.000000000000000000, 0.000000000000000000, 0.000000000000000000 ) ;
#139 = LENGTH_MEASURE_WITH_UNIT ( LENGTH_MEASURE( 0.02539999999999999897 ), #187 );
#140 = SURFACE_STYLE_FILL_AREA ( #75 ) ;
#141 = UNCERTAINTY_MEASURE_WITH_UNIT (LENGTH_MEASURE( 1.000000000000000082E-05 ), #114, 'distance_accuracy_value', 'NONE');
#142 = EDGE_LOOP ( 'NONE', ( #119, #29 ) ) ;
#143 = PRESENTATION_STYLE_ASSIGNMENT (( #50 ) ) ;
#144 = COLOUR_RGB ( '',1.000000000000000000, 0.000000000000000000, 0.000000000000000000 ) ;
#145 = CARTESIAN_POINT ( 'NONE',  ( 0.000000000000000000, 0.000000000000000000, 0.000000000000000000 ) ) ;
#146 =( NAMED_UNIT ( * ) SI_UNIT ( $, .STERADIAN. ) SOLID_ANGLE_UNIT ( ) );
#147 = SURFACE_SIDE_STYLE ('',( #201 ) ) ;
#148 =( NAMED_UNIT ( * ) SI_UNIT ( $, .STERADIAN. ) SOLID_ANGLE_UNIT ( ) );
#149 = DIRECTION ( 'NONE',  ( 0.000000000000000000, 1.000000000000000000, 0.000000000000000000 ) ) ;
#150 = PRODUCT_DEFINITION_FORMATION_WITH_SPECIFIED_SOURCE ( 'ANY', '', #156, .NOT_KNOWN. ) ;
#151 = LENGTH_MEASURE_WITH_UNIT ( LENGTH_MEASURE( 0.02539999999999999897 ), #300 );
#152 = ADVANCED_FACE ( 'NONE', ( #177 ), #304, .T. ) ;
#153 = SURFACE_STYLE_USAGE ( .BOTH. , #43 ) ;
#154 = DIRECTION ( 'NONE',  ( 0.000000000000000000, 0.000000000000000000, -1.000000000000000000 ) ) ;
#155 = STYLED_ITEM ( 'NONE', ( #233 ), #185 ) ;
#156 = PRODUCT ( '81706', '81706', '', ( #26 ) ) ;
#157 = CARTESIAN_POINT ( 'NONE',  ( 0.000000000000000000, 0.000000000000000000, 0.000000000000000000 ) ) ;
#158 = CARTESIAN_POINT ( 'NONE',  ( 0.000000000000000000, 0.4375000000000000000, -0.09374999999999998612 ) ) ;
#159 = CARTESIAN_POINT ( 'NONE',  ( 6.123233995736766036E-17, 2.000000000000000000, 0.000000000000000000 ) ) ;
#160 = AXIS2_PLACEMENT_3D ( 'NONE', #86, #149, #94 ) ;
#161 = VECTOR ( 'NONE', #174, 39.37007874015748143 ) ;
#162 = CIRCLE ( 'NONE', #14, 0.09375000000000001388 ) ;
#163 = ORIENTED_EDGE ( 'NONE', *, *, #103, .F. ) ;
#164 = DIRECTION ( 'NONE',  ( 0.000000000000000000, 0.000000000000000000, -1.000000000000000000 ) ) ;
#165 = DIMENSIONAL_EXPONENTS ( 1.000000000000000000, 0.000000000000000000, 0.000000000000000000, 0.000000000000000000, 0.000000000000000000, 0.000000000000000000, 0.000000000000000000 ) ;
#166 = ORIENTED_EDGE ( 'NONE', *, *, #175, .T. ) ;
#167 = MANIFOLD_SOLID_BREP ( 'Revolve - Tool Body (Straight Shanked)', #198 ) ;
#168 =( NAMED_UNIT ( * ) PLANE_ANGLE_UNIT ( ) SI_UNIT ( $, .RADIAN. ) );
#169 = AXIS2_PLACEMENT_3D ( 'NONE', #159, #59, #31 ) ;
#170 =( NAMED_UNIT ( * ) PLANE_ANGLE_UNIT ( ) SI_UNIT ( $, .RADIAN. ) );
#171 = FILL_AREA_STYLE ('',( #197 ) ) ;
#172 = DIRECTION ( 'NONE',  ( 1.000000000000000000, -3.918869757271530214E-17, 0.000000000000000000 ) ) ;
#173 = AXIS2_PLACEMENT_3D ( 'NONE', #130, #203, #229 ) ;
#174 = DIRECTION ( 'NONE',  ( 3.918869757271530214E-17, 1.000000000000000000, -0.000000000000000000 ) ) ;
#175 = EDGE_CURVE ( 'NONE', #291, #47, #97, .T. ) ;
#176 = CARTESIAN_POINT ( 'NONE',  ( 0.000000000000000000, 0.000000000000000000, 0.000000000000000000 ) ) ;
#177 = FACE_OUTER_BOUND ( 'NONE', #219, .T. ) ;
#178 = LINE ( 'NONE', #208, #102 ) ;
#179 = PRESENTATION_LAYER_ASSIGNMENT (  '', '', ( #88 ) ) ;
#180 = AXIS2_PLACEMENT_3D ( 'NONE', #127, #226, #223 ) ;
#181 = AXIS2_PLACEMENT_3D ( 'NONE', #292, #272, #224 ) ;
#182 = CARTESIAN_POINT ( 'NONE',  ( 0.000000000000000000, 0.000000000000000000, 0.000000000000000000 ) ) ;
#183 = DIRECTION ( 'NONE',  ( 3.918869757271530214E-17, 1.000000000000000000, -0.000000000000000000 ) ) ;
#184 = DIMENSIONAL_EXPONENTS ( 1.000000000000000000, 0.000000000000000000, 0.000000000000000000, 0.000000000000000000, 0.000000000000000000, 0.000000000000000000, 0.000000000000000000 ) ;
#185 = ADVANCED_FACE ( 'NONE', ( #110 ), #19, .T. ) ;
#186 = CARTESIAN_POINT ( 'NONE',  ( 0.09374999999999998612, 0.4374999999999998890, 1.148106374200643247E-17 ) ) ;
#187 =( LENGTH_UNIT ( ) NAMED_UNIT ( * ) SI_UNIT ( $, .METRE. ) );
#188 = ORIENTED_EDGE ( 'NONE', *, *, #25, .T. ) ;
#189 = DIRECTION ( 'NONE',  ( -0.000000000000000000, -1.000000000000000000, -0.000000000000000000 ) ) ;
#190 = VECTOR ( 'NONE', #13, 39.37007874015748143 ) ;
#191 = CARTESIAN_POINT ( 'NONE',  ( 0.000000000000000000, 0.4374999999999998890, 0.000000000000000000 ) ) ;
#192 =( CONVERSION_BASED_UNIT ( 'INCH', #264 ) LENGTH_UNIT ( ) NAMED_UNIT ( #118 ) );
#193 = APPLICATION_CONTEXT ( 'automotive_design' ) ;
#194 = ORIENTED_EDGE ( 'NONE', *, *, #235, .T. ) ;
#195 =( GEOMETRIC_REPRESENTATION_CONTEXT ( 3 ) GLOBAL_UNCERTAINTY_ASSIGNED_CONTEXT ( ( #257 ) ) GLOBAL_UNIT_ASSIGNED_CONTEXT ( ( #42, #37, #85 ) ) REPRESENTATION_CONTEXT ( 'NONE', 'WORKASPACE' ) );
#196 = FILL_AREA_STYLE ('',( #100 ) ) ;
#197 = FILL_AREA_STYLE_COLOUR ( '', #134 ) ;
#198 = CLOSED_SHELL ( 'NONE', ( #152, #259, #277, #76 ) ) ;
#199 = MECHANICAL_DESIGN_GEOMETRIC_PRESENTATION_REPRESENTATION (  '', ( #88 ), #255 ) ;
#200 = SURFACE_SIDE_STYLE ('',( #221 ) ) ;
#201 = SURFACE_STYLE_FILL_AREA ( #171 ) ;
#202 = PRODUCT_DEFINITION ( 'UNKNOWN', '', #150, #95 ) ;
#203 = DIRECTION ( 'NONE',  ( 3.918869757271530214E-17, 1.000000000000000000, -0.000000000000000000 ) ) ;
#204 = SURFACE_SIDE_STYLE ('',( #307 ) ) ;
#205 = COLOUR_RGB ( '',0.7921568627450980005, 0.8196078431372548767, 0.9333333333333333481 ) ;
#206 = DIMENSIONAL_EXPONENTS ( 1.000000000000000000, 0.000000000000000000, 0.000000000000000000, 0.000000000000000000, 0.000000000000000000, 0.000000000000000000, 0.000000000000000000 ) ;
#207 = PRESENTATION_STYLE_ASSIGNMENT (( #295 ) ) ;
#208 = CARTESIAN_POINT ( 'NONE',  ( 1.148106374200643401E-17, 0.000000000000000000, 0.09374999999999998612 ) ) ;
#209 =( LENGTH_UNIT ( ) NAMED_UNIT ( * ) SI_UNIT ( $, .METRE. ) );
#210 =( NAMED_UNIT ( * ) SI_UNIT ( $, .STERADIAN. ) SOLID_ANGLE_UNIT ( ) );
#211 = VERTEX_POINT ( 'NONE', #158 ) ;
#212 = CARTESIAN_POINT ( 'NONE',  ( 0.000000000000000000, 0.000000000000000000, -0.09375000000000001388 ) ) ;
#213 = EDGE_LOOP ( 'NONE', ( #194, #124, #241, #96 ) ) ;
#214 = DIRECTION ( 'NONE',  ( 0.000000000000000000, 0.000000000000000000, -1.000000000000000000 ) ) ;
#215 = UNCERTAINTY_MEASURE_WITH_UNIT (LENGTH_MEASURE( 1.000000000000000082E-05 ), #192, 'distance_accuracy_value', 'NONE');
#216 = VERTEX_POINT ( 'NONE', #268 ) ;
#217 = FACE_OUTER_BOUND ( 'NONE', #27, .T. ) ;
#218 = UNCERTAINTY_MEASURE_WITH_UNIT (LENGTH_MEASURE( 1.000000000000000082E-05 ), #136, 'distance_accuracy_value', 'NONE');
#219 = EDGE_LOOP ( 'NONE', ( #166, #53, #117, #52 ) ) ;
#220 = FACE_OUTER_BOUND ( 'NONE', #142, .T. ) ;
#221 = SURFACE_STYLE_FILL_AREA ( #196 ) ;
#222 = AXIS2_PLACEMENT_3D ( 'NONE', #115, #5, #214 ) ;
#223 = DIRECTION ( 'NONE',  ( 0.000000000000000000, 0.000000000000000000, -1.000000000000000000 ) ) ;
#224 = DIRECTION ( 'NONE',  ( -1.000000000000000000, 3.918869757271530214E-17, 0.000000000000000000 ) ) ;
#225 = FACE_OUTER_BOUND ( 'NONE', #266, .T. ) ;
#226 = DIRECTION ( 'NONE',  ( -0.000000000000000000, -1.000000000000000000, -0.000000000000000000 ) ) ;
#227 = AXIS2_PLACEMENT_3D ( 'NONE', #176, #18, #279 ) ;
#228 =( CONVERSION_BASED_UNIT ( 'INCH', #64 ) LENGTH_UNIT ( ) NAMED_UNIT ( #230 ) );
#229 = DIRECTION ( 'NONE',  ( -1.000000000000000000, 0.000000000000000000, 0.000000000000000000 ) ) ;
#230 = DIMENSIONAL_EXPONENTS ( 1.000000000000000000, 0.000000000000000000, 0.000000000000000000, 0.000000000000000000, 0.000000000000000000, 0.000000000000000000, 0.000000000000000000 ) ;
#231 =( GEOMETRIC_REPRESENTATION_CONTEXT ( 3 ) GLOBAL_UNCERTAINTY_ASSIGNED_CONTEXT ( ( #262 ) ) GLOBAL_UNIT_ASSIGNED_CONTEXT ( ( #82, #168, #148 ) ) REPRESENTATION_CONTEXT ( 'NONE', 'WORKASPACE' ) );
#232 = CARTESIAN_POINT ( 'NONE',  ( 6.123233995736766036E-17, 2.000000000000000000, 0.000000000000000000 ) ) ;
#233 = PRESENTATION_STYLE_ASSIGNMENT (( #89 ) ) ;
#234 = CARTESIAN_POINT ( 'NONE',  ( 0.000000000000000000, 0.4375000000000000000, 0.000000000000000000 ) ) ;
#235 = EDGE_CURVE ( 'NONE', #211, #288, #101, .T. ) ;
#236 = SHAPE_DEFINITION_REPRESENTATION ( #17, #109 ) ;
#237 = DIRECTION ( 'NONE',  ( -0.000000000000000000, -1.000000000000000000, -0.000000000000000000 ) ) ;
#238 = AXIS2_PLACEMENT_3D ( 'NONE', #108, #41, #39 ) ;
#239 = DIRECTION ( 'NONE',  ( -0.000000000000000000, -1.000000000000000000, -0.000000000000000000 ) ) ;
#240 = PRODUCT_RELATED_PRODUCT_CATEGORY ( 'part', '', ( #156 ) ) ;
#241 = ORIENTED_EDGE ( 'NONE', *, *, #283, .F. ) ;
#242 = ORIENTED_EDGE ( 'NONE', *, *, #301, .T. ) ;
#243 = CLOSED_SHELL ( 'NONE', ( #245, #185, #80, #265 ) ) ;
#244 = VERTEX_POINT ( 'NONE', #212 ) ;
#245 = ADVANCED_FACE ( 'NONE', ( #46 ), #91, .T. ) ;
#246 = FACE_OUTER_BOUND ( 'NONE', #7, .T. ) ;
#247 = APPLICATION_CONTEXT ( 'automotive_design' ) ;
#248 = SURFACE_SIDE_STYLE ('',( #56 ) ) ;
#249 = STYLED_ITEM ( 'NONE', ( #276 ), #167 ) ;
#250 = STYLED_ITEM ( 'NONE', ( #207 ), #265 ) ;
#251 = SURFACE_STYLE_USAGE ( .BOTH. , #147 ) ;
#252 = LINE ( 'NONE', #128, #190 ) ;
#253 = CARTESIAN_POINT ( 'NONE',  ( 0.000000000000000000, 0.000000000000000000, -0.09374999999999998612 ) ) ;
#254 =( GEOMETRIC_REPRESENTATION_CONTEXT ( 3 ) GLOBAL_UNCERTAINTY_ASSIGNED_CONTEXT ( ( #2 ) ) GLOBAL_UNIT_ASSIGNED_CONTEXT ( ( #81, #170, #146 ) ) REPRESENTATION_CONTEXT ( 'NONE', 'WORKASPACE' ) );
#255 =( GEOMETRIC_REPRESENTATION_CONTEXT ( 3 ) GLOBAL_UNCERTAINTY_ASSIGNED_CONTEXT ( ( #215 ) ) GLOBAL_UNIT_ASSIGNED_CONTEXT ( ( #192, #289, #210 ) ) REPRESENTATION_CONTEXT ( 'NONE', 'WORKASPACE' ) );
#256 = FILL_AREA_STYLE ('',( #309 ) ) ;
#257 = UNCERTAINTY_MEASURE_WITH_UNIT (LENGTH_MEASURE( 1.000000000000000082E-05 ), #42, 'distance_accuracy_value', 'NONE');
#258 = DIRECTION ( 'NONE',  ( -0.000000000000000000, -1.000000000000000000, -0.000000000000000000 ) ) ;
#259 = ADVANCED_FACE ( 'NONE', ( #217 ), #30, .F. ) ;
#260 = CARTESIAN_POINT ( 'NONE',  ( 0.000000000000000000, 0.000000000000000000, 0.000000000000000000 ) ) ;
#261 = SURFACE_SIDE_STYLE ('',( #140 ) ) ;
#262 = UNCERTAINTY_MEASURE_WITH_UNIT (LENGTH_MEASURE( 1.000000000000000082E-05 ), #82, 'distance_accuracy_value', 'NONE');
#263 = FILL_AREA_STYLE_COLOUR ( '', #123 ) ;
#264 = LENGTH_MEASURE_WITH_UNIT ( LENGTH_MEASURE( 0.02539999999999999897 ), #209 );
#265 = ADVANCED_FACE ( 'NONE', ( #220 ), #8, .T. ) ;
#266 = EDGE_LOOP ( 'NONE', ( #51, #269 ) ) ;
#267 =( NAMED_UNIT ( * ) SI_UNIT ( $, .STERADIAN. ) SOLID_ANGLE_UNIT ( ) );
#268 = CARTESIAN_POINT ( 'NONE',  ( 0.09374999999999998612, 2.000000000000000000, 1.148106374200643247E-17 ) ) ;
#269 = ORIENTED_EDGE ( 'NONE', *, *, #99, .T. ) ;
#270 = ORIENTED_EDGE ( 'NONE', *, *, #235, .F. ) ;
#271 = DIRECTION ( 'NONE',  ( -3.918869757271530214E-17, -1.000000000000000000, 0.000000000000000000 ) ) ;
#272 = DIRECTION ( 'NONE',  ( 3.918869757271530214E-17, 1.000000000000000000, -0.000000000000000000 ) ) ;
#273 = LINE ( 'NONE', #105, #161 ) ;
#274 = FILL_AREA_STYLE ('',( #263 ) ) ;
#275 = CARTESIAN_POINT ( 'NONE',  ( -0.09374999999999984734, 2.000000000000000000, 0.000000000000000000 ) ) ;
#276 = PRESENTATION_STYLE_ASSIGNMENT (( #153 ) ) ;
#277 = ADVANCED_FACE ( 'NONE', ( #40 ), #60, .T. ) ;
#278 = VECTOR ( 'NONE', #258, 39.37007874015748143 ) ;
#279 = DIRECTION ( 'NONE',  ( 0.000000000000000000, 0.000000000000000000, -1.000000000000000000 ) ) ;
#280 = FILL_AREA_STYLE ('',( #87 ) ) ;
#281 = DIMENSIONAL_EXPONENTS ( 1.000000000000000000, 0.000000000000000000, 0.000000000000000000, 0.000000000000000000, 0.000000000000000000, 0.000000000000000000, 0.000000000000000000 ) ;
#282 =( LENGTH_UNIT ( ) NAMED_UNIT ( * ) SI_UNIT ( $, .METRE. ) );
#283 = EDGE_CURVE ( 'NONE', #244, #77, #162, .T. ) ;
#284 = MECHANICAL_DESIGN_GEOMETRIC_PRESENTATION_REPRESENTATION (  '', ( #38 ), #254 ) ;
#285 = CARTESIAN_POINT ( 'NONE',  ( 1.148106374200643401E-17, 0.4375000000000000000, 0.09374999999999998612 ) ) ;
#286 = ORIENTED_EDGE ( 'NONE', *, *, #10, .F. ) ;
#287 =( NAMED_UNIT ( * ) PLANE_ANGLE_UNIT ( ) SI_UNIT ( $, .RADIAN. ) );
#288 = VERTEX_POINT ( 'NONE', #285 ) ;
#289 =( NAMED_UNIT ( * ) PLANE_ANGLE_UNIT ( ) SI_UNIT ( $, .RADIAN. ) );
#290 = ORIENTED_EDGE ( 'NONE', *, *, #25, .F. ) ;
#291 = VERTEX_POINT ( 'NONE', #71 ) ;
#292 = CARTESIAN_POINT ( 'NONE',  ( 7.198846956776915697E-35, 0.4375000000000000000, 0.000000000000000000 ) ) ;
#293 = AXIS2_PLACEMENT_3D ( 'NONE', #145, #35, #104 ) ;
#294 =( GEOMETRIC_REPRESENTATION_CONTEXT ( 3 ) GLOBAL_UNCERTAINTY_ASSIGNED_CONTEXT ( ( #218 ) ) GLOBAL_UNIT_ASSIGNED_CONTEXT ( ( #136, #287, #267 ) ) REPRESENTATION_CONTEXT ( 'NONE', 'WORKASPACE' ) );
#295 = SURFACE_STYLE_USAGE ( .BOTH. , #200 ) ;
#296 = PRESENTATION_STYLE_ASSIGNMENT (( #251 ) ) ;
#297 = PRESENTATION_STYLE_ASSIGNMENT (( #57 ) ) ;
#298 = LENGTH_MEASURE_WITH_UNIT ( LENGTH_MEASURE( 0.02539999999999999897 ), #125 );
#299 = COLOUR_RGB ( '',1.000000000000000000, 0.000000000000000000, 0.000000000000000000 ) ;
#300 =( LENGTH_UNIT ( ) NAMED_UNIT ( * ) SI_UNIT ( $, .METRE. ) );
#301 = EDGE_CURVE ( 'NONE', #288, #211, #306, .T. ) ;
#302 = DIRECTION ( 'NONE',  ( -1.000000000000000000, 0.000000000000000000, 0.000000000000000000 ) ) ;
#303 = PRESENTATION_LAYER_ASSIGNMENT (  '', '', ( #250 ) ) ;
#304 = CYLINDRICAL_SURFACE ( 'NONE', #173, 0.09374999999999995837 ) ;
#305 = MECHANICAL_DESIGN_GEOMETRIC_PRESENTATION_REPRESENTATION (  '', ( #69 ), #231 ) ;
#306 = CIRCLE ( 'NONE', #33, 0.09374999999999998612 ) ;
#307 = SURFACE_STYLE_FILL_AREA ( #280 ) ;
#308 = DIRECTION ( 'NONE',  ( 3.918869757271530214E-17, 1.000000000000000000, -0.000000000000000000 ) ) ;
#309 = FILL_AREA_STYLE_COLOUR ( '', #205 ) ;
ENDSEC;
END-ISO-10303-21;
