ISO-10303-21;
HEADER;
FILE_DESCRIPTION (( 'STEP AP214' ),
    '1' );
FILE_NAME ('59793.STEP',
    '2023-07-24T15:40:28',
    ( '' ),
    ( '' ),
    'SwSTEP 2.0',
    'SolidWorks 2023',
    '' );
FILE_SCHEMA (( 'AUTOMOTIVE_DESIGN' ));
ENDSEC;

DATA;
#1 = DIRECTION ( 'NONE',  ( -1.000000000000000000, 0.000000000000000000, 0.000000000000000000 ) ) ;
#2 = EDGE_CURVE ( 'NONE', #237, #214, #220, .T. ) ;
#3 = FILL_AREA_STYLE_COLOUR ( '', #9 ) ;
#4 = UNCERTAINTY_MEASURE_WITH_UNIT (LENGTH_MEASURE( 1.000000000000000082E-05 ), #278, 'distance_accuracy_value', 'NONE');
#5 = ORIENTED_EDGE ( 'NONE', *, *, #314, .F. ) ;
#6 = SURFACE_STYLE_FILL_AREA ( #56 ) ;
#7 = ORIENTED_EDGE ( 'NONE', *, *, #203, .F. ) ;
#8 = AXIS2_PLACEMENT_3D ( 'NONE', #258, #202, #349 ) ;
#9 = COLOUR_RGB ( '',1.000000000000000000, 0.000000000000000000, 0.000000000000000000 ) ;
#10 = CARTESIAN_POINT ( 'NONE',  ( 0.000000000000000000, 0.000000000000000000, 0.000000000000000000 ) ) ;
#11 = UNCERTAINTY_MEASURE_WITH_UNIT (LENGTH_MEASURE( 1.000000000000000082E-05 ), #121, 'distance_accuracy_value', 'NONE');
#12 = DIRECTION ( 'NONE',  ( -0.000000000000000000, -1.000000000000000000, -0.000000000000000000 ) ) ;
#13 = ORIENTED_EDGE ( 'NONE', *, *, #269, .F. ) ;
#14 = MECHANICAL_DESIGN_GEOMETRIC_PRESENTATION_REPRESENTATION (  '', ( #333 ), #124 ) ;
#15 = MECHANICAL_DESIGN_GEOMETRIC_PRESENTATION_REPRESENTATION (  '', ( #98 ), #143 ) ;
#16 = DIRECTION ( 'NONE',  ( -0.000000000000000000, -1.000000000000000000, -0.000000000000000000 ) ) ;
#17 = ORIENTED_EDGE ( 'NONE', *, *, #293, .T. ) ;
#18 = ORIENTED_EDGE ( 'NONE', *, *, #358, .T. ) ;
#19 = CARTESIAN_POINT ( 'NONE',  ( 0.000000000000000000, 1.000000000000000000, 0.000000000000000000 ) ) ;
#20 = CIRCLE ( 'NONE', #212, 12.49999999999999289 ) ;
#21 = PRODUCT ( '59793', '59793', '', ( #271 ) ) ;
#22 = CYLINDRICAL_SURFACE ( 'NONE', #298, 12.50000000000000000 ) ;
#23 = CARTESIAN_POINT ( 'NONE',  ( 0.000000000000000000, 1.000000000000000000, 0.000000000000000000 ) ) ;
#24 = EDGE_CURVE ( 'NONE', #104, #265, #292, .T. ) ;
#25 = CLOSED_SHELL ( 'NONE', ( #322, #33, #253, #137 ) ) ;
#26 = STYLED_ITEM ( 'NONE', ( #362 ), #224 ) ;
#27 = DIRECTION ( 'NONE',  ( -1.895813576284393923E-16, 1.000000000000000000, -0.000000000000000000 ) ) ;
#28 = SURFACE_SIDE_STYLE ('',( #296 ) ) ;
#29 = SURFACE_STYLE_FILL_AREA ( #339 ) ;
#30 = DIRECTION ( 'NONE',  ( -0.000000000000000000, -1.000000000000000000, -0.000000000000000000 ) ) ;
#31 = UNCERTAINTY_MEASURE_WITH_UNIT (LENGTH_MEASURE( 1.000000000000000082E-05 ), #51, 'distance_accuracy_value', 'NONE');
#32 = AXIS2_PLACEMENT_3D ( 'NONE', #111, #144, #116 ) ;
#33 = ADVANCED_FACE ( 'NONE', ( #246 ), #42, .F. ) ;
#34 = APPLICATION_PROTOCOL_DEFINITION ( 'draft international standard', 'automotive_design', 1998, #311 ) ;
#35 = PRESENTATION_LAYER_ASSIGNMENT (  '', '', ( #152 ) ) ;
#36 = AXIS2_PLACEMENT_3D ( 'NONE', #344, #92, #163 ) ;
#37 =( LENGTH_UNIT ( ) NAMED_UNIT ( * ) SI_UNIT ( .MILLI., .METRE. ) );
#38 = ORIENTED_EDGE ( 'NONE', *, *, #2, .F. ) ;
#39 = ORIENTED_EDGE ( 'NONE', *, *, #290, .F. ) ;
#40 = AXIS2_PLACEMENT_3D ( 'NONE', #270, #99, #136 ) ;
#41 = LINE ( 'NONE', #172, #305 ) ;
#42 = PLANE ( 'NONE',  #40 ) ;
#43 = SURFACE_SIDE_STYLE ('',( #241 ) ) ;
#44 = ORIENTED_EDGE ( 'NONE', *, *, #232, .F. ) ;
#45 = ORIENTED_EDGE ( 'NONE', *, *, #174, .T. ) ;
#46 = STYLED_ITEM ( 'NONE', ( #363 ), #64 ) ;
#47 =( GEOMETRIC_REPRESENTATION_CONTEXT ( 3 ) GLOBAL_UNCERTAINTY_ASSIGNED_CONTEXT ( ( #345 ) ) GLOBAL_UNIT_ASSIGNED_CONTEXT ( ( #37, #299, #133 ) ) REPRESENTATION_CONTEXT ( 'NONE', 'WORKASPACE' ) );
#48 = SURFACE_SIDE_STYLE ('',( #29 ) ) ;
#49 = CARTESIAN_POINT ( 'NONE',  ( 12.49999999999999467, 124.9999999999999858, 1.530808498934191521E-15 ) ) ;
#50 = DIRECTION ( 'NONE',  ( 0.000000000000000000, 0.000000000000000000, -1.000000000000000000 ) ) ;
#51 =( LENGTH_UNIT ( ) NAMED_UNIT ( * ) SI_UNIT ( .MILLI., .METRE. ) );
#52 = SURFACE_STYLE_USAGE ( .BOTH. , #225 ) ;
#53 = FILL_AREA_STYLE_COLOUR ( '', #275 ) ;
#54 = SURFACE_STYLE_FILL_AREA ( #340 ) ;
#55 = PRODUCT_DEFINITION ( 'UNKNOWN', '', #207, #238 ) ;
#56 = FILL_AREA_STYLE ('',( #85 ) ) ;
#57 = UNCERTAINTY_MEASURE_WITH_UNIT (LENGTH_MEASURE( 1.000000000000000082E-05 ), #166, 'distance_accuracy_value', 'NONE');
#58 = COLOUR_RGB ( '',1.000000000000000000, 0.000000000000000000, 0.000000000000000000 ) ;
#59 = PRESENTATION_LAYER_ASSIGNMENT (  '', '', ( #352 ) ) ;
#60 = FACE_OUTER_BOUND ( 'NONE', #74, .T. ) ;
#61 = SURFACE_SIDE_STYLE ('',( #6 ) ) ;
#62 = DIRECTION ( 'NONE',  ( 0.000000000000000000, 0.000000000000000000, 1.000000000000000000 ) ) ;
#63 = PRESENTATION_LAYER_ASSIGNMENT (  '', '', ( #26 ) ) ;
#64 = ADVANCED_FACE ( 'NONE', ( #359 ), #182, .T. ) ;
#65 = PRESENTATION_STYLE_ASSIGNMENT (( #100 ) ) ;
#66 = ORIENTED_EDGE ( 'NONE', *, *, #203, .T. ) ;
#67 = UNCERTAINTY_MEASURE_WITH_UNIT (LENGTH_MEASURE( 1.000000000000000082E-05 ), #256, 'distance_accuracy_value', 'NONE');
#68 = EDGE_LOOP ( 'NONE', ( #164, #17, #157, #216 ) ) ;
#69 = DIRECTION ( 'NONE',  ( 0.000000000000000000, 0.000000000000000000, -1.000000000000000000 ) ) ;
#70 = CIRCLE ( 'NONE', #32, 11.50000000000000000 ) ;
#71 = FILL_AREA_STYLE_COLOUR ( '', #347 ) ;
#72 = DIRECTION ( 'NONE',  ( -1.895813576284393923E-16, 1.000000000000000000, -0.000000000000000000 ) ) ;
#73 = DIRECTION ( 'NONE',  ( -1.895813576284393923E-16, 1.000000000000000000, -0.000000000000000000 ) ) ;
#74 = EDGE_LOOP ( 'NONE', ( #186, #45, #297, #5 ) ) ;
#75 = CARTESIAN_POINT ( 'NONE',  ( 12.50000000000000000, 125.0000000000000000, 1.530808498934191916E-15 ) ) ;
#76 = PRESENTATION_STYLE_ASSIGNMENT (( #218 ) ) ;
#77 = STYLED_ITEM ( 'NONE', ( #173 ), #343 ) ;
#78 = SURFACE_STYLE_USAGE ( .BOTH. , #48 ) ;
#79 = CARTESIAN_POINT ( 'NONE',  ( 0.000000000000000000, 64.00000000000000000, 0.000000000000000000 ) ) ;
#80 = PRESENTATION_STYLE_ASSIGNMENT (( #117 ) ) ;
#81 = FACE_OUTER_BOUND ( 'NONE', #300, .T. ) ;
#82 = CARTESIAN_POINT ( 'NONE',  ( 1.408343819019456176E-15, 1.000000000000000000, 11.50000000000000000 ) ) ;
#83 = PRODUCT_RELATED_PRODUCT_CATEGORY ( 'part', '', ( #21 ) ) ;
#84 = FILL_AREA_STYLE_COLOUR ( '', #260 ) ;
#85 = FILL_AREA_STYLE_COLOUR ( '', #165 ) ;
#86 = CIRCLE ( 'NONE', #327, 1.000000000000000888 ) ;
#87 = DIRECTION ( 'NONE',  ( 0.000000000000000000, 1.000000000000000000, 0.000000000000000000 ) ) ;
#88 = EDGE_LOOP ( 'NONE', ( #210, #189, #187, #38 ) ) ;
#89 = CARTESIAN_POINT ( 'NONE',  ( 0.000000000000000000, 64.00000000000000000, 0.000000000000000000 ) ) ;
#90 = EDGE_CURVE ( 'NONE', #265, #104, #233, .T. ) ;
#91 = PRESENTATION_LAYER_ASSIGNMENT (  '', '', ( #46 ) ) ;
#92 = DIRECTION ( 'NONE',  ( -0.000000000000000000, -1.000000000000000000, -0.000000000000000000 ) ) ;
#93 = AXIS2_PLACEMENT_3D ( 'NONE', #23, #280, #50 ) ;
#94 = DIRECTION ( 'NONE',  ( 0.000000000000000000, 0.000000000000000000, -1.000000000000000000 ) ) ;
#95 = ADVANCED_FACE ( 'NONE', ( #341 ), #140, .T. ) ;
#96 = AXIS2_PLACEMENT_3D ( 'NONE', #332, #145, #223 ) ;
#97 = CIRCLE ( 'NONE', #294, 1.000000000000000888 ) ;
#98 = STYLED_ITEM ( 'NONE', ( #158 ), #213 ) ;
#99 = DIRECTION ( 'NONE',  ( -1.895813576284393923E-16, 1.000000000000000000, 0.000000000000000000 ) ) ;
#100 = SURFACE_STYLE_USAGE ( .BOTH. , #184 ) ;
#101 = EDGE_CURVE ( 'NONE', #355, #237, #335, .T. ) ;
#102 = ORIENTED_EDGE ( 'NONE', *, *, #151, .T. ) ;
#103 = CARTESIAN_POINT ( 'NONE',  ( 7.155734338404330842E-15, 64.00000000000000000, 0.000000000000000000 ) ) ;
#104 = VERTEX_POINT ( 'NONE', #115 ) ;
#105 = MECHANICAL_DESIGN_GEOMETRIC_PRESENTATION_REPRESENTATION (  '', ( #152 ), #206 ) ;
#106 = AXIS2_PLACEMENT_3D ( 'NONE', #10, #126, #309 ) ;
#107 = DIRECTION ( 'NONE',  ( 0.000000000000000000, 0.000000000000000000, -1.000000000000000000 ) ) ;
#108 = EDGE_LOOP ( 'NONE', ( #354, #127 ) ) ;
#109 = FILL_AREA_STYLE_COLOUR ( '', #193 ) ;
#110 = EDGE_CURVE ( 'NONE', #355, #134, #356, .T. ) ;
#111 = CARTESIAN_POINT ( 'NONE',  ( 0.000000000000000000, 0.000000000000000000, 0.000000000000000000 ) ) ;
#112 = AXIS2_PLACEMENT_3D ( 'NONE', #19, #211, #69 ) ;
#113 = FACE_OUTER_BOUND ( 'NONE', #330, .T. ) ;
#114 = DIRECTION ( 'NONE',  ( 1.000000000000000000, 0.000000000000000000, -1.224646799147353207E-16 ) ) ;
#115 = CARTESIAN_POINT ( 'NONE',  ( 1.530808498934191521E-15, 1.000000000000000000, 12.50000000000000000 ) ) ;
#116 = DIRECTION ( 'NONE',  ( 0.000000000000000000, 0.000000000000000000, -1.000000000000000000 ) ) ;
#117 = SURFACE_STYLE_USAGE ( .BOTH. , #196 ) ;
#118 = AXIS2_PLACEMENT_3D ( 'NONE', #176, #149, #1 ) ;
#119 = UNCERTAINTY_MEASURE_WITH_UNIT (LENGTH_MEASURE( 1.000000000000000082E-05 ), #244, 'distance_accuracy_value', 'NONE');
#120 = ORIENTED_EDGE ( 'NONE', *, *, #162, .F. ) ;
#121 =( LENGTH_UNIT ( ) NAMED_UNIT ( * ) SI_UNIT ( .MILLI., .METRE. ) );
#122 = FACE_OUTER_BOUND ( 'NONE', #108, .T. ) ;
#123 = ORIENTED_EDGE ( 'NONE', *, *, #101, .T. ) ;
#124 =( GEOMETRIC_REPRESENTATION_CONTEXT ( 3 ) GLOBAL_UNCERTAINTY_ASSIGNED_CONTEXT ( ( #4 ) ) GLOBAL_UNIT_ASSIGNED_CONTEXT ( ( #278, #150, #262 ) ) REPRESENTATION_CONTEXT ( 'NONE', 'WORKASPACE' ) );
#125 = CIRCLE ( 'NONE', #180, 12.50000000000000533 ) ;
#126 = DIRECTION ( 'NONE',  ( 0.000000000000000000, 0.000000000000000000, 1.000000000000000000 ) ) ;
#127 = ORIENTED_EDGE ( 'NONE', *, *, #2, .T. ) ;
#128 = COLOUR_RGB ( '',1.000000000000000000, 0.000000000000000000, 0.000000000000000000 ) ;
#129 = EDGE_LOOP ( 'NONE', ( #131, #18, #239, #325 ) ) ;
#130 = DIRECTION ( 'NONE',  ( -0.000000000000000000, -1.000000000000000000, -0.000000000000000000 ) ) ;
#131 = ORIENTED_EDGE ( 'NONE', *, *, #174, .F. ) ;
#132 = ADVANCED_FACE ( 'NONE', ( #81 ), #195, .T. ) ;
#133 =( NAMED_UNIT ( * ) SI_UNIT ( $, .STERADIAN. ) SOLID_ANGLE_UNIT ( ) );
#134 = VERTEX_POINT ( 'NONE', #350 ) ;
#135 = DIRECTION ( 'NONE',  ( -1.000000000000000000, 0.000000000000000000, 0.000000000000000000 ) ) ;
#136 = DIRECTION ( 'NONE',  ( -1.000000000000000000, -1.895813576284393923E-16, 0.000000000000000000 ) ) ;
#137 = ADVANCED_FACE ( 'NONE', ( #122 ), #346, .F. ) ;
#138 = DIRECTION ( 'NONE',  ( -1.895813576284393923E-16, 1.000000000000000000, -0.000000000000000000 ) ) ;
#139 = DIRECTION ( 'NONE',  ( 0.000000000000000000, 0.000000000000000000, -1.000000000000000000 ) ) ;
#140 = CYLINDRICAL_SURFACE ( 'NONE', #96, 12.50000000000000000 ) ;
#141 = DIRECTION ( 'NONE',  ( -1.000000000000000000, 0.000000000000000000, 0.000000000000000000 ) ) ;
#142 = DIRECTION ( 'NONE',  ( 0.000000000000000000, -0.000000000000000000, 1.000000000000000000 ) ) ;
#143 =( GEOMETRIC_REPRESENTATION_CONTEXT ( 3 ) GLOBAL_UNCERTAINTY_ASSIGNED_CONTEXT ( ( #119 ) ) GLOBAL_UNIT_ASSIGNED_CONTEXT ( ( #244, #357, #153 ) ) REPRESENTATION_CONTEXT ( 'NONE', 'WORKASPACE' ) );
#144 = DIRECTION ( 'NONE',  ( -0.000000000000000000, -1.000000000000000000, -0.000000000000000000 ) ) ;
#145 = DIRECTION ( 'NONE',  ( -0.000000000000000000, -1.000000000000000000, -0.000000000000000000 ) ) ;
#146 = FACE_OUTER_BOUND ( 'NONE', #88, .T. ) ;
#147 = DIRECTION ( 'NONE',  ( 0.000000000000000000, 0.000000000000000000, -1.000000000000000000 ) ) ;
#148 =( NAMED_UNIT ( * ) PLANE_ANGLE_UNIT ( ) SI_UNIT ( $, .RADIAN. ) );
#149 = DIRECTION ( 'NONE',  ( -1.895813576284393923E-16, 1.000000000000000000, -0.000000000000000000 ) ) ;
#150 =( NAMED_UNIT ( * ) PLANE_ANGLE_UNIT ( ) SI_UNIT ( $, .RADIAN. ) );
#151 = EDGE_CURVE ( 'NONE', #265, #242, #97, .T. ) ;
#152 = STYLED_ITEM ( 'NONE', ( #198 ), #95 ) ;
#153 =( NAMED_UNIT ( * ) SI_UNIT ( $, .STERADIAN. ) SOLID_ANGLE_UNIT ( ) );
#154 = EDGE_LOOP ( 'NONE', ( #295, #159, #102, #13 ) ) ;
#155 = CIRCLE ( 'NONE', #288, 12.50000000000000000 ) ;
#156 = ADVANCED_FACE ( 'NONE', ( #60 ), #317, .T. ) ;
#157 = ORIENTED_EDGE ( 'NONE', *, *, #263, .F. ) ;
#158 = PRESENTATION_STYLE_ASSIGNMENT (( #272 ) ) ;
#159 = ORIENTED_EDGE ( 'NONE', *, *, #24, .T. ) ;
#160 = CARTESIAN_POINT ( 'NONE',  ( 0.000000000000000000, 0.000000000000000000, 0.000000000000000000 ) ) ;
#161 = ORIENTED_EDGE ( 'NONE', *, *, #269, .T. ) ;
#162 = EDGE_CURVE ( 'NONE', #329, #276, #155, .T. ) ;
#163 = DIRECTION ( 'NONE',  ( 0.000000000000000000, 0.000000000000000000, -1.000000000000000000 ) ) ;
#164 = ORIENTED_EDGE ( 'NONE', *, *, #90, .T. ) ;
#165 = COLOUR_RGB ( '',0.7921568627450980005, 0.8196078431372548767, 0.9333333333333333481 ) ;
#166 =( LENGTH_UNIT ( ) NAMED_UNIT ( * ) SI_UNIT ( .MILLI., .METRE. ) );
#167 =( NAMED_UNIT ( * ) PLANE_ANGLE_UNIT ( ) SI_UNIT ( $, .RADIAN. ) );
#168 = FACE_OUTER_BOUND ( 'NONE', #68, .T. ) ;
#169 = SURFACE_STYLE_USAGE ( .BOTH. , #28 ) ;
#170 = SURFACE_SIDE_STYLE ('',( #54 ) ) ;
#171 = STYLED_ITEM ( 'NONE', ( #80 ), #318 ) ;
#172 = CARTESIAN_POINT ( 'NONE',  ( -12.50000000000000533, 124.9999999999999858, 0.000000000000000000 ) ) ;
#173 = PRESENTATION_STYLE_ASSIGNMENT (( #289 ) ) ;
#174 = EDGE_CURVE ( 'NONE', #276, #104, #181, .T. ) ;
#175 = PRESENTATION_LAYER_ASSIGNMENT (  '', '', ( #333 ) ) ;
#176 = CARTESIAN_POINT ( 'NONE',  ( -4.408728476930469278E-15, 124.9999999999999858, 0.000000000000000000 ) ) ;
#177 = MECHANICAL_DESIGN_GEOMETRIC_PRESENTATION_REPRESENTATION (  '', ( #77 ), #228 ) ;
#178 = FILL_AREA_STYLE ('',( #3 ) ) ;
#179 = MECHANICAL_DESIGN_GEOMETRIC_PRESENTATION_REPRESENTATION (  '', ( #46 ), #287 ) ;
#180 = AXIS2_PLACEMENT_3D ( 'NONE', #194, #73, #249 ) ;
#181 = LINE ( 'NONE', #264, #364 ) ;
#182 = PLANE ( 'NONE',  #192 ) ;
#183 = ORIENTED_EDGE ( 'NONE', *, *, #263, .T. ) ;
#184 = SURFACE_SIDE_STYLE ('',( #259 ) ) ;
#185 = MECHANICAL_DESIGN_GEOMETRIC_PRESENTATION_REPRESENTATION (  '', ( #26 ), #235 ) ;
#186 = ORIENTED_EDGE ( 'NONE', *, *, #162, .T. ) ;
#187 = ORIENTED_EDGE ( 'NONE', *, *, #232, .T. ) ;
#188 =( NAMED_UNIT ( * ) PLANE_ANGLE_UNIT ( ) SI_UNIT ( $, .RADIAN. ) );
#189 = ORIENTED_EDGE ( 'NONE', *, *, #110, .T. ) ;
#190 = ADVANCED_BREP_SHAPE_REPRESENTATION ( '59793', ( #213, #343, #106 ), #267 ) ;
#191 = CARTESIAN_POINT ( 'NONE',  ( 0.000000000000000000, 0.000000000000000000, -11.50000000000000000 ) ) ;
#192 = AXIS2_PLACEMENT_3D ( 'NONE', #79, #87, #142 ) ;
#193 = COLOUR_RGB ( '',1.000000000000000000, 0.000000000000000000, 0.000000000000000000 ) ;
#194 = CARTESIAN_POINT ( 'NONE',  ( -4.408728476930471644E-15, 125.0000000000000000, 0.000000000000000000 ) ) ;
#195 = PLANE ( 'NONE',  #326 ) ;
#196 = SURFACE_SIDE_STYLE ('',( #337 ) ) ;
#197 = DIRECTION ( 'NONE',  ( -0.000000000000000000, -1.000000000000000000, -0.000000000000000000 ) ) ;
#198 = PRESENTATION_STYLE_ASSIGNMENT (( #52 ) ) ;
#199 =( GEOMETRIC_REPRESENTATION_CONTEXT ( 3 ) GLOBAL_UNCERTAINTY_ASSIGNED_CONTEXT ( ( #285 ) ) GLOBAL_UNIT_ASSIGNED_CONTEXT ( ( #274, #247, #230 ) ) REPRESENTATION_CONTEXT ( 'NONE', 'WORKASPACE' ) );
#200 = UNCERTAINTY_MEASURE_WITH_UNIT (LENGTH_MEASURE( 1.000000000000000082E-05 ), #370, 'distance_accuracy_value', 'NONE');
#201 =( NAMED_UNIT ( * ) SI_UNIT ( $, .STERADIAN. ) SOLID_ANGLE_UNIT ( ) );
#202 = DIRECTION ( 'NONE',  ( 1.895813576284393923E-16, -1.000000000000000000, 0.000000000000000000 ) ) ;
#203 = EDGE_CURVE ( 'NONE', #134, #355, #20, .T. ) ;
#204 = DIRECTION ( 'NONE',  ( 0.000000000000000000, 0.000000000000000000, -1.000000000000000000 ) ) ;
#205 = AXIS2_PLACEMENT_3D ( 'NONE', #268, #72, #273 ) ;
#206 =( GEOMETRIC_REPRESENTATION_CONTEXT ( 3 ) GLOBAL_UNCERTAINTY_ASSIGNED_CONTEXT ( ( #31 ) ) GLOBAL_UNIT_ASSIGNED_CONTEXT ( ( #51, #167, #279 ) ) REPRESENTATION_CONTEXT ( 'NONE', 'WORKASPACE' ) );
#207 = PRODUCT_DEFINITION_FORMATION_WITH_SPECIFIED_SOURCE ( 'ANY', '', #21, .NOT_KNOWN. ) ;
#208 = ORIENTED_EDGE ( 'NONE', *, *, #358, .F. ) ;
#209 =( NAMED_UNIT ( * ) SI_UNIT ( $, .STERADIAN. ) SOLID_ANGLE_UNIT ( ) );
#210 = ORIENTED_EDGE ( 'NONE', *, *, #101, .F. ) ;
#211 = DIRECTION ( 'NONE',  ( -0.000000000000000000, -1.000000000000000000, -0.000000000000000000 ) ) ;
#212 = AXIS2_PLACEMENT_3D ( 'NONE', #103, #328, #135 ) ;
#213 = MANIFOLD_SOLID_BREP ( 'Revolve - Cutting Edge', #266 ) ;
#214 = VERTEX_POINT ( 'NONE', #360 ) ;
#215 = FILL_AREA_STYLE ('',( #71 ) ) ;
#216 = ORIENTED_EDGE ( 'NONE', *, *, #151, .F. ) ;
#217 = CARTESIAN_POINT ( 'NONE',  ( 1.530808498934191521E-15, 64.00000000000000000, 12.50000000000000000 ) ) ;
#218 = SURFACE_STYLE_USAGE ( .BOTH. , #170 ) ;
#219 = FILL_AREA_STYLE ('',( #53 ) ) ;
#220 = CIRCLE ( 'NONE', #205, 12.50000000000000533 ) ;
#221 =( NAMED_UNIT ( * ) SI_UNIT ( $, .STERADIAN. ) SOLID_ANGLE_UNIT ( ) );
#222 = LINE ( 'NONE', #303, #319 ) ;
#223 = DIRECTION ( 'NONE',  ( 0.000000000000000000, 0.000000000000000000, -1.000000000000000000 ) ) ;
#224 = ADVANCED_FACE ( 'NONE', ( #306 ), #250, .T. ) ;
#225 = SURFACE_SIDE_STYLE ('',( #255 ) ) ;
#226 = AXIS2_PLACEMENT_3D ( 'NONE', #248, #30, #147 ) ;
#227 = PRESENTATION_LAYER_ASSIGNMENT (  '', '', ( #171 ) ) ;
#228 =( GEOMETRIC_REPRESENTATION_CONTEXT ( 3 ) GLOBAL_UNCERTAINTY_ASSIGNED_CONTEXT ( ( #11 ) ) GLOBAL_UNIT_ASSIGNED_CONTEXT ( ( #121, #148, #201 ) ) REPRESENTATION_CONTEXT ( 'NONE', 'WORKASPACE' ) );
#229 = CARTESIAN_POINT ( 'NONE',  ( 0.000000000000000000, 64.00000000000000000, -12.50000000000000000 ) ) ;
#230 =( NAMED_UNIT ( * ) SI_UNIT ( $, .STERADIAN. ) SOLID_ANGLE_UNIT ( ) );
#231 = CARTESIAN_POINT ( 'NONE',  ( 0.000000000000000000, 0.000000000000000000, 0.000000000000000000 ) ) ;
#232 = EDGE_CURVE ( 'NONE', #134, #214, #41, .T. ) ;
#233 = CIRCLE ( 'NONE', #226, 12.50000000000000000 ) ;
#234 = CARTESIAN_POINT ( 'NONE',  ( 12.50000000000000000, 64.00000000000000000, 1.530808498934191916E-15 ) ) ;
#235 =( GEOMETRIC_REPRESENTATION_CONTEXT ( 3 ) GLOBAL_UNCERTAINTY_ASSIGNED_CONTEXT ( ( #57 ) ) GLOBAL_UNIT_ASSIGNED_CONTEXT ( ( #166, #188, #254 ) ) REPRESENTATION_CONTEXT ( 'NONE', 'WORKASPACE' ) );
#236 = CARTESIAN_POINT ( 'NONE',  ( 0.000000000000000000, 1.000000000000000000, -11.50000000000000000 ) ) ;
#237 = VERTEX_POINT ( 'NONE', #75 ) ;
#238 = PRODUCT_DEFINITION_CONTEXT ( 'detailed design', #324, 'design' ) ;
#239 = ORIENTED_EDGE ( 'NONE', *, *, #314, .T. ) ;
#240 = TOROIDAL_SURFACE ( 'NONE', #36, 11.50000000000000000, 1.000000000000000444 ) ;
#241 = SURFACE_STYLE_FILL_AREA ( #215 ) ;
#242 = VERTEX_POINT ( 'NONE', #191 ) ;
#243 = FILL_AREA_STYLE_COLOUR ( '', #58 ) ;
#244 =( LENGTH_UNIT ( ) NAMED_UNIT ( * ) SI_UNIT ( .MILLI., .METRE. ) );
#245 = AXIS2_PLACEMENT_3D ( 'NONE', #160, #12, #107 ) ;
#246 = FACE_OUTER_BOUND ( 'NONE', #304, .T. ) ;
#247 =( NAMED_UNIT ( * ) PLANE_ANGLE_UNIT ( ) SI_UNIT ( $, .RADIAN. ) );
#248 = CARTESIAN_POINT ( 'NONE',  ( 0.000000000000000000, 1.000000000000000000, 0.000000000000000000 ) ) ;
#249 = DIRECTION ( 'NONE',  ( -1.000000000000000000, 0.000000000000000000, 0.000000000000000000 ) ) ;
#250 = TOROIDAL_SURFACE ( 'NONE', #93, 11.50000000000000000, 1.000000000000000444 ) ;
#251 = PRODUCT_DEFINITION_SHAPE ( 'NONE', 'NONE',  #55 ) ;
#252 = DIRECTION ( 'NONE',  ( -1.224646799147353454E-16, 0.000000000000000000, -1.000000000000000000 ) ) ;
#253 = ADVANCED_FACE ( 'NONE', ( #146 ), #22, .T. ) ;
#254 =( NAMED_UNIT ( * ) SI_UNIT ( $, .STERADIAN. ) SOLID_ANGLE_UNIT ( ) );
#255 = SURFACE_STYLE_FILL_AREA ( #366 ) ;
#256 =( LENGTH_UNIT ( ) NAMED_UNIT ( * ) SI_UNIT ( .MILLI., .METRE. ) );
#257 = AXIS2_PLACEMENT_3D ( 'NONE', #338, #361, #310 ) ;
#258 = CARTESIAN_POINT ( 'NONE',  ( 12.50000000000000000, 125.0000000000000000, 0.000000000000000000 ) ) ;
#259 = SURFACE_STYLE_FILL_AREA ( #178 ) ;
#260 = COLOUR_RGB ( '',1.000000000000000000, 0.000000000000000000, 0.000000000000000000 ) ;
#261 = MECHANICAL_DESIGN_GEOMETRIC_PRESENTATION_REPRESENTATION (  '', ( #171 ), #199 ) ;
#262 =( NAMED_UNIT ( * ) SI_UNIT ( $, .STERADIAN. ) SOLID_ANGLE_UNIT ( ) );
#263 = EDGE_CURVE ( 'NONE', #242, #321, #70, .T. ) ;
#264 = CARTESIAN_POINT ( 'NONE',  ( 1.530808498934191521E-15, 0.000000000000000000, 12.50000000000000000 ) ) ;
#265 = VERTEX_POINT ( 'NONE', #369 ) ;
#266 = CLOSED_SHELL ( 'NONE', ( #156, #318, #132, #224, #95, #64 ) ) ;
#267 =( GEOMETRIC_REPRESENTATION_CONTEXT ( 3 ) GLOBAL_UNCERTAINTY_ASSIGNED_CONTEXT ( ( #67 ) ) GLOBAL_UNIT_ASSIGNED_CONTEXT ( ( #256, #353, #209 ) ) REPRESENTATION_CONTEXT ( 'NONE', 'WORKASPACE' ) );
#268 = CARTESIAN_POINT ( 'NONE',  ( -4.408728476930471644E-15, 125.0000000000000000, 0.000000000000000000 ) ) ;
#269 = EDGE_CURVE ( 'NONE', #321, #242, #342, .T. ) ;
#270 = CARTESIAN_POINT ( 'NONE',  ( 7.155734338404329264E-15, 64.00000000000000000, 0.000000000000000000 ) ) ;
#271 = PRODUCT_CONTEXT ( 'NONE', #311, 'mechanical' ) ;
#272 = SURFACE_STYLE_USAGE ( .BOTH. , #43 ) ;
#273 = DIRECTION ( 'NONE',  ( -1.000000000000000000, 0.000000000000000000, 0.000000000000000000 ) ) ;
#274 =( LENGTH_UNIT ( ) NAMED_UNIT ( * ) SI_UNIT ( .MILLI., .METRE. ) );
#275 = COLOUR_RGB ( '',1.000000000000000000, 0.000000000000000000, 0.000000000000000000 ) ;
#276 = VERTEX_POINT ( 'NONE', #217 ) ;
#277 = DIRECTION ( 'NONE',  ( -1.895813576284393923E-16, 1.000000000000000000, -0.000000000000000000 ) ) ;
#278 =( LENGTH_UNIT ( ) NAMED_UNIT ( * ) SI_UNIT ( .MILLI., .METRE. ) );
#279 =( NAMED_UNIT ( * ) SI_UNIT ( $, .STERADIAN. ) SOLID_ANGLE_UNIT ( ) );
#280 = DIRECTION ( 'NONE',  ( -0.000000000000000000, -1.000000000000000000, -0.000000000000000000 ) ) ;
#281 = VECTOR ( 'NONE', #138, 1000.000000000000000 ) ;
#282 = AXIS2_PLACEMENT_3D ( 'NONE', #331, #197, #139 ) ;
#283 = CARTESIAN_POINT ( 'NONE',  ( -4.408728476930469278E-15, 124.9999999999999858, 0.000000000000000000 ) ) ;
#284 =( NAMED_UNIT ( * ) PLANE_ANGLE_UNIT ( ) SI_UNIT ( $, .RADIAN. ) );
#285 = UNCERTAINTY_MEASURE_WITH_UNIT (LENGTH_MEASURE( 1.000000000000000082E-05 ), #274, 'distance_accuracy_value', 'NONE');
#286 = DIRECTION ( 'NONE',  ( -1.000000000000000000, 0.000000000000000000, 0.000000000000000000 ) ) ;
#287 =( GEOMETRIC_REPRESENTATION_CONTEXT ( 3 ) GLOBAL_UNCERTAINTY_ASSIGNED_CONTEXT ( ( #200 ) ) GLOBAL_UNIT_ASSIGNED_CONTEXT ( ( #370, #284, #221 ) ) REPRESENTATION_CONTEXT ( 'NONE', 'WORKASPACE' ) );
#288 = AXIS2_PLACEMENT_3D ( 'NONE', #323, #16, #301 ) ;
#289 = SURFACE_STYLE_USAGE ( .BOTH. , #61 ) ;
#290 = EDGE_CURVE ( 'NONE', #214, #237, #125, .T. ) ;
#291 = DIRECTION ( 'NONE',  ( 0.000000000000000000, -1.000000000000000000, -0.000000000000000000 ) ) ;
#292 = CIRCLE ( 'NONE', #112, 12.50000000000000000 ) ;
#293 = EDGE_CURVE ( 'NONE', #104, #321, #86, .T. ) ;
#294 = AXIS2_PLACEMENT_3D ( 'NONE', #236, #286, #62 ) ;
#295 = ORIENTED_EDGE ( 'NONE', *, *, #293, .F. ) ;
#296 = SURFACE_STYLE_FILL_AREA ( #320 ) ;
#297 = ORIENTED_EDGE ( 'NONE', *, *, #90, .F. ) ;
#298 = AXIS2_PLACEMENT_3D ( 'NONE', #283, #27, #141 ) ;
#299 =( NAMED_UNIT ( * ) PLANE_ANGLE_UNIT ( ) SI_UNIT ( $, .RADIAN. ) );
#300 = EDGE_LOOP ( 'NONE', ( #183, #161 ) ) ;
#301 = DIRECTION ( 'NONE',  ( 0.000000000000000000, 0.000000000000000000, -1.000000000000000000 ) ) ;
#302 = ORIENTED_EDGE ( 'NONE', *, *, #110, .F. ) ;
#303 = CARTESIAN_POINT ( 'NONE',  ( 0.000000000000000000, 0.000000000000000000, -12.50000000000000000 ) ) ;
#304 = EDGE_LOOP ( 'NONE', ( #7, #302 ) ) ;
#305 = VECTOR ( 'NONE', #277, 1000.000000000000000 ) ;
#306 = FACE_OUTER_BOUND ( 'NONE', #154, .T. ) ;
#307 = AXIS2_PLACEMENT_3D ( 'NONE', #89, #348, #94 ) ;
#308 = FILL_AREA_STYLE_COLOUR ( '', #128 ) ;
#309 = DIRECTION ( 'NONE',  ( 1.000000000000000000, 0.000000000000000000, 0.000000000000000000 ) ) ;
#310 = DIRECTION ( 'NONE',  ( -1.000000000000000000, 0.000000000000000000, 0.000000000000000000 ) ) ;
#311 = APPLICATION_CONTEXT ( 'automotive_design' ) ;
#312 = DIRECTION ( 'NONE',  ( -0.000000000000000000, -1.000000000000000000, -0.000000000000000000 ) ) ;
#313 = MECHANICAL_DESIGN_GEOMETRIC_PRESENTATION_REPRESENTATION (  '', ( #352 ), #47 ) ;
#314 = EDGE_CURVE ( 'NONE', #329, #265, #222, .T. ) ;
#315 = PRESENTATION_LAYER_ASSIGNMENT (  '', '', ( #98 ) ) ;
#316 = CIRCLE ( 'NONE', #307, 12.50000000000000000 ) ;
#317 = CYLINDRICAL_SURFACE ( 'NONE', #245, 12.50000000000000000 ) ;
#318 = ADVANCED_FACE ( 'NONE', ( #168 ), #240, .T. ) ;
#319 = VECTOR ( 'NONE', #312, 1000.000000000000000 ) ;
#320 = FILL_AREA_STYLE ('',( #243 ) ) ;
#321 = VERTEX_POINT ( 'NONE', #365 ) ;
#322 = ADVANCED_FACE ( 'NONE', ( #113 ), #368, .T. ) ;
#323 = CARTESIAN_POINT ( 'NONE',  ( 0.000000000000000000, 64.00000000000000000, 0.000000000000000000 ) ) ;
#324 = APPLICATION_CONTEXT ( 'automotive_design' ) ;
#325 = ORIENTED_EDGE ( 'NONE', *, *, #24, .F. ) ;
#326 = AXIS2_PLACEMENT_3D ( 'NONE', #231, #291, #204 ) ;
#327 = AXIS2_PLACEMENT_3D ( 'NONE', #82, #114, #252 ) ;
#328 = DIRECTION ( 'NONE',  ( -1.895813576284393923E-16, 1.000000000000000000, -0.000000000000000000 ) ) ;
#329 = VERTEX_POINT ( 'NONE', #229 ) ;
#330 = EDGE_LOOP ( 'NONE', ( #66, #123, #39, #44 ) ) ;
#331 = CARTESIAN_POINT ( 'NONE',  ( 0.000000000000000000, 0.000000000000000000, 0.000000000000000000 ) ) ;
#332 = CARTESIAN_POINT ( 'NONE',  ( 0.000000000000000000, 0.000000000000000000, 0.000000000000000000 ) ) ;
#333 = STYLED_ITEM ( 'NONE', ( #76 ), #132 ) ;
#334 = PRESENTATION_LAYER_ASSIGNMENT (  '', '', ( #77 ) ) ;
#335 = LINE ( 'NONE', #49, #281 ) ;
#336 = SHAPE_DEFINITION_REPRESENTATION ( #251, #190 ) ;
#337 = SURFACE_STYLE_FILL_AREA ( #219 ) ;
#338 = CARTESIAN_POINT ( 'NONE',  ( 7.155734338404330842E-15, 64.00000000000000000, 0.000000000000000000 ) ) ;
#339 = FILL_AREA_STYLE ('',( #109 ) ) ;
#340 = FILL_AREA_STYLE ('',( #308 ) ) ;
#341 = FACE_OUTER_BOUND ( 'NONE', #129, .T. ) ;
#342 = CIRCLE ( 'NONE', #282, 11.50000000000000000 ) ;
#343 = MANIFOLD_SOLID_BREP ( 'Revolve - Tool Body (Straight Shanked)', #25 ) ;
#344 = CARTESIAN_POINT ( 'NONE',  ( 0.000000000000000000, 1.000000000000000000, 0.000000000000000000 ) ) ;
#345 = UNCERTAINTY_MEASURE_WITH_UNIT (LENGTH_MEASURE( 1.000000000000000082E-05 ), #37, 'distance_accuracy_value', 'NONE');
#346 = PLANE ( 'NONE',  #8 ) ;
#347 = COLOUR_RGB ( '',0.7921568627450980005, 0.8196078431372548767, 0.9333333333333333481 ) ;
#348 = DIRECTION ( 'NONE',  ( -0.000000000000000000, -1.000000000000000000, -0.000000000000000000 ) ) ;
#349 = DIRECTION ( 'NONE',  ( 1.000000000000000000, 1.895813576284393923E-16, 0.000000000000000000 ) ) ;
#350 = CARTESIAN_POINT ( 'NONE',  ( -12.49999999999998757, 64.00000000000000000, 0.000000000000000000 ) ) ;
#351 = EDGE_LOOP ( 'NONE', ( #120, #208 ) ) ;
#352 = STYLED_ITEM ( 'NONE', ( #65 ), #156 ) ;
#353 =( NAMED_UNIT ( * ) PLANE_ANGLE_UNIT ( ) SI_UNIT ( $, .RADIAN. ) );
#354 = ORIENTED_EDGE ( 'NONE', *, *, #290, .T. ) ;
#355 = VERTEX_POINT ( 'NONE', #234 ) ;
#356 = CIRCLE ( 'NONE', #257, 12.49999999999999289 ) ;
#357 =( NAMED_UNIT ( * ) PLANE_ANGLE_UNIT ( ) SI_UNIT ( $, .RADIAN. ) );
#358 = EDGE_CURVE ( 'NONE', #276, #329, #316, .T. ) ;
#359 = FACE_OUTER_BOUND ( 'NONE', #351, .T. ) ;
#360 = CARTESIAN_POINT ( 'NONE',  ( -12.50000000000001066, 125.0000000000000000, 0.000000000000000000 ) ) ;
#361 = DIRECTION ( 'NONE',  ( -1.895813576284393923E-16, 1.000000000000000000, -0.000000000000000000 ) ) ;
#362 = PRESENTATION_STYLE_ASSIGNMENT (( #78 ) ) ;
#363 = PRESENTATION_STYLE_ASSIGNMENT (( #169 ) ) ;
#364 = VECTOR ( 'NONE', #130, 1000.000000000000000 ) ;
#365 = CARTESIAN_POINT ( 'NONE',  ( 1.469576158976823947E-15, 0.000000000000000000, 11.50000000000000000 ) ) ;
#366 = FILL_AREA_STYLE ('',( #84 ) ) ;
#367 = APPLICATION_PROTOCOL_DEFINITION ( 'draft international standard', 'automotive_design', 1998, #324 ) ;
#368 = CYLINDRICAL_SURFACE ( 'NONE', #118, 12.50000000000000000 ) ;
#369 = CARTESIAN_POINT ( 'NONE',  ( 0.000000000000000000, 1.000000000000000000, -12.50000000000000000 ) ) ;
#370 =( LENGTH_UNIT ( ) NAMED_UNIT ( * ) SI_UNIT ( .MILLI., .METRE. ) );
ENDSEC;
END-ISO-10303-21;
