ISO-10303-21;
HEADER;
FILE_DESCRIPTION (( 'STEP AP214' ),
    '1' );
FILE_NAME ('Micro_RTC-187-23X.STEP',
    '2021-09-03T18:06:26',
    ( '' ),
    ( '' ),
    'SwSTEP 2.0',
    'SolidWorks 2020',
    '' );
FILE_SCHEMA (( 'AUTOMOTIVE_DESIGN' ));
ENDSEC;

DATA;
#1 = DIRECTION ( 'NONE',  ( 0.0000000000000000000, 0.0000000000000000000, 1.000000000000000000 ) ) ;
#2 = DIRECTION ( 'NONE',  ( 0.0000000000000000000, 0.0000000000000000000, 1.000000000000000000 ) ) ;
#3 = AXIS2_PLACEMENT_3D ( 'NONE', #170, #2, #209 ) ;
#4 = APPLICATION_CONTEXT ( 'automotive_design' ) ;
#5 = DIRECTION ( 'NONE',  ( 0.0000000000000000000, 0.0000000000000000000, -1.000000000000000000 ) ) ;
#6 =( CONVERSION_BASED_UNIT ( 'INCH', #213 ) LENGTH_UNIT ( ) NAMED_UNIT ( #226 ) );
#7 = STYLED_ITEM ( 'NONE', ( #100 ), #178 ) ;
#8 =( CONVERSION_BASED_UNIT ( 'INCH', #134 ) LENGTH_UNIT ( ) NAMED_UNIT ( #88 ) );
#9 = CYLINDRICAL_SURFACE ( 'NONE', #127, 0.09375000000000001388 ) ;
#10 = VECTOR ( 'NONE', #130, 39.37007874015748143 ) ;
#11 = PRESENTATION_LAYER_ASSIGNMENT (  '', '', ( #7 ) ) ;
#12 = ORIENTED_EDGE ( 'NONE', *, *, #233, .F. ) ;
#13 = EDGE_LOOP ( 'NONE', ( #36, #87, #35, #144 ) ) ;
#14 =( LENGTH_UNIT ( ) NAMED_UNIT ( * ) SI_UNIT ( $, .METRE. ) );
#15 = ORIENTED_EDGE ( 'NONE', *, *, #174, .T. ) ;
#16 = EDGE_LOOP ( 'NONE', ( #84, #30, #240, #143 ) ) ;
#17 = CARTESIAN_POINT ( 'NONE',  ( 0.003999999999999999216, 0.0000000000000000000, 0.0000000000000000000 ) ) ;
#18 = CARTESIAN_POINT ( 'NONE',  ( -0.09375000000000001388, 0.0000000000000000000, 0.3349515599793054799 ) ) ;
#19 = PRODUCT_RELATED_PRODUCT_CATEGORY ( 'part', '', ( #33 ) ) ;
#20 = CIRCLE ( 'NONE', #71, 0.09375000000000001388 ) ;
#21 = CARTESIAN_POINT ( 'NONE',  ( 0.09375000000000001388, 1.148106374200643401E-17, 2.665048440020695075 ) ) ;
#22 = CYLINDRICAL_SURFACE ( 'NONE', #214, 0.09375000000000001388 ) ;
#23 = DIRECTION ( 'NONE',  ( -0.0000000000000000000, -0.0000000000000000000, -1.000000000000000000 ) ) ;
#24 = VECTOR ( 'NONE', #236, 39.37007874015748143 ) ;
#25 = EDGE_CURVE ( 'NONE', #48, #105, #96, .T. ) ;
#26 = CARTESIAN_POINT ( 'NONE',  ( 0.0000000000000000000, 0.0000000000000000000, 3.000000000000000444 ) ) ;
#27 = AXIS2_PLACEMENT_3D ( 'NONE', #56, #225, #247 ) ;
#28 = AXIS2_PLACEMENT_3D ( 'NONE', #234, #5, #46 ) ;
#29 = DIRECTION ( 'NONE',  ( -1.000000000000000000, 0.0000000000000000000, 0.0000000000000000000 ) ) ;
#30 = ORIENTED_EDGE ( 'NONE', *, *, #43, .T. ) ;
#31 = CIRCLE ( 'NONE', #149, 0.003999999999999999216 ) ;
#32 =( GEOMETRIC_REPRESENTATION_CONTEXT ( 3 ) GLOBAL_UNCERTAINTY_ASSIGNED_CONTEXT ( ( #176 ) ) GLOBAL_UNIT_ASSIGNED_CONTEXT ( ( #53, #220, #118 ) ) REPRESENTATION_CONTEXT ( 'NONE', 'WORKASPACE' ) );
#33 = PRODUCT ( 'Micro_RTC-187-23X', 'Micro_RTC-187-23X', '', ( #47 ) ) ;
#34 = EDGE_LOOP ( 'NONE', ( #186, #219, #37, #73 ) ) ;
#35 = ORIENTED_EDGE ( 'NONE', *, *, #201, .T. ) ;
#36 = ORIENTED_EDGE ( 'NONE', *, *, #151, .F. ) ;
#37 = ORIENTED_EDGE ( 'NONE', *, *, #223, .T. ) ;
#38 = PLANE ( 'NONE',  #148 ) ;
#39 = SURFACE_STYLE_FILL_AREA ( #194 ) ;
#40 = PRESENTATION_STYLE_ASSIGNMENT (( #108 ) ) ;
#41 = DIRECTION ( 'NONE',  ( -0.0000000000000000000, -0.0000000000000000000, -1.000000000000000000 ) ) ;
#42 = CARTESIAN_POINT ( 'NONE',  ( 0.0000000000000000000, 0.0000000000000000000, 2.665048440020695075 ) ) ;
#43 = EDGE_CURVE ( 'NONE', #66, #119, #58, .T. ) ;
#44 = DIRECTION ( 'NONE',  ( 0.0000000000000000000, 0.0000000000000000000, 1.000000000000000000 ) ) ;
#45 = COLOUR_RGB ( '',0.7921568627450980005, 0.8196078431372548767, 0.9333333333333333481 ) ;
#46 = DIRECTION ( 'NONE',  ( 1.000000000000000000, 0.0000000000000000000, 0.0000000000000000000 ) ) ;
#47 = PRODUCT_CONTEXT ( 'NONE', #4, 'mechanical' ) ;
#48 = VERTEX_POINT ( 'NONE', #17 ) ;
#49 = UNCERTAINTY_MEASURE_WITH_UNIT (LENGTH_MEASURE( 1.000000000000000082E-05 ), #6, 'distance_accuracy_value', 'NONE');
#50 = VERTEX_POINT ( 'NONE', #150 ) ;
#51 = EDGE_CURVE ( 'NONE', #50, #166, #131, .T. ) ;
#52 = EDGE_LOOP ( 'NONE', ( #202, #146, #245, #182 ) ) ;
#53 =( CONVERSION_BASED_UNIT ( 'INCH', #217 ) LENGTH_UNIT ( ) NAMED_UNIT ( #67 ) );
#54 = PRODUCT_DEFINITION_CONTEXT ( 'detailed design', #231, 'design' ) ;
#55 = PRODUCT_DEFINITION_FORMATION_WITH_SPECIFIED_SOURCE ( 'ANY', '', #33, .NOT_KNOWN. ) ;
#56 = CARTESIAN_POINT ( 'NONE',  ( 0.0000000000000000000, 0.0000000000000000000, 3.000000000000000444 ) ) ;
#57 = EDGE_CURVE ( 'NONE', #204, #70, #92, .T. ) ;
#58 = LINE ( 'NONE', #132, #243 ) ;
#59 = SURFACE_SIDE_STYLE ('',( #39 ) ) ;
#60 = CARTESIAN_POINT ( 'NONE',  ( 0.0000000000000000000, 0.0000000000000000000, 0.0000000000000000000 ) ) ;
#61 = DIRECTION ( 'NONE',  ( 0.0000000000000000000, 0.0000000000000000000, -1.000000000000000000 ) ) ;
#62 = DIRECTION ( 'NONE',  ( -1.000000000000000000, 0.0000000000000000000, 0.0000000000000000000 ) ) ;
#63 = LINE ( 'NONE', #114, #24 ) ;
#64 = ADVANCED_FACE ( 'NONE', ( #167 ), #22, .T. ) ;
#65 = ADVANCED_FACE ( 'NONE', ( #94 ), #139, .T. ) ;
#66 = VERTEX_POINT ( 'NONE', #21 ) ;
#67 = DIMENSIONAL_EXPONENTS ( 1.000000000000000000, 0.0000000000000000000, 0.0000000000000000000, 0.0000000000000000000, 0.0000000000000000000, 0.0000000000000000000, 0.0000000000000000000 ) ;
#68 = CARTESIAN_POINT ( 'NONE',  ( 0.0000000000000000000, 0.0000000000000000000, 0.0000000000000000000 ) ) ;
#69 = EDGE_LOOP ( 'NONE', ( #12, #142 ) ) ;
#70 = VERTEX_POINT ( 'NONE', #18 ) ;
#71 = AXIS2_PLACEMENT_3D ( 'NONE', #42, #138, #29 ) ;
#72 = ORIENTED_EDGE ( 'NONE', *, *, #120, .T. ) ;
#73 = ORIENTED_EDGE ( 'NONE', *, *, #101, .F. ) ;
#74 = DIRECTION ( 'NONE',  ( 0.0000000000000000000, 0.0000000000000000000, 1.000000000000000000 ) ) ;
#75 = DIRECTION ( 'NONE',  ( -0.2588190451025216832, -3.169619151431776035E-17, -0.9659258262890679791 ) ) ;
#76 = CARTESIAN_POINT ( 'NONE',  ( -0.09375000000000001388, 0.0000000000000000000, 3.000000000000000444 ) ) ;
#77 = DIRECTION ( 'NONE',  ( -0.2588190451025216832, 3.169619151431776035E-17, 0.9659258262890679791 ) ) ;
#78 = DIRECTION ( 'NONE',  ( -1.000000000000000000, 0.0000000000000000000, 0.0000000000000000000 ) ) ;
#79 = DIRECTION ( 'NONE',  ( 1.000000000000000000, 0.0000000000000000000, 0.0000000000000000000 ) ) ;
#80 = DIRECTION ( 'NONE',  ( -1.000000000000000000, 0.0000000000000000000, 0.0000000000000000000 ) ) ;
#81 = FACE_OUTER_BOUND ( 'NONE', #52, .T. ) ;
#82 = PRESENTATION_LAYER_ASSIGNMENT (  '', '', ( #89 ) ) ;
#83 = SURFACE_STYLE_USAGE ( .BOTH. , #162 ) ;
#84 = ORIENTED_EDGE ( 'NONE', *, *, #165, .T. ) ;
#85 = ORIENTED_EDGE ( 'NONE', *, *, #101, .T. ) ;
#86 = ADVANCED_FACE ( 'NONE', ( #147 ), #129, .F. ) ;
#87 = ORIENTED_EDGE ( 'NONE', *, *, #51, .T. ) ;
#88 = DIMENSIONAL_EXPONENTS ( 1.000000000000000000, 0.0000000000000000000, 0.0000000000000000000, 0.0000000000000000000, 0.0000000000000000000, 0.0000000000000000000, 0.0000000000000000000 ) ;
#89 = STYLED_ITEM ( 'NONE', ( #40 ), #172 ) ;
#90 = DIRECTION ( 'NONE',  ( -0.0000000000000000000, -0.0000000000000000000, -1.000000000000000000 ) ) ;
#91 = CLOSED_SHELL ( 'NONE', ( #187, #65, #64, #185, #193, #86, #180, #106 ) ) ;
#92 = LINE ( 'NONE', #76, #164 ) ;
#93 = EDGE_CURVE ( 'NONE', #119, #70, #195, .T. ) ;
#94 = FACE_OUTER_BOUND ( 'NONE', #34, .T. ) ;
#95 = FACE_OUTER_BOUND ( 'NONE', #163, .T. ) ;
#96 = CIRCLE ( 'NONE', #238, 0.003999999999999999216 ) ;
#97 = AXIS2_PLACEMENT_3D ( 'NONE', #68, #125, #184 ) ;
#98 =( NAMED_UNIT ( * ) SI_UNIT ( $, .STERADIAN. ) SOLID_ANGLE_UNIT ( ) );
#99 = VECTOR ( 'NONE', #75, 39.37007874015748143 ) ;
#100 = PRESENTATION_STYLE_ASSIGNMENT (( #83 ) ) ;
#101 = EDGE_CURVE ( 'NONE', #48, #119, #110, .T. ) ;
#102 = ORIENTED_EDGE ( 'NONE', *, *, #93, .T. ) ;
#103 = EDGE_LOOP ( 'NONE', ( #124, #15, #244, #203 ) ) ;
#104 = EDGE_LOOP ( 'NONE', ( #218, #72 ) ) ;
#105 = VERTEX_POINT ( 'NONE', #227 ) ;
#106 = ADVANCED_FACE ( 'NONE', ( #154 ), #38, .T. ) ;
#107 = CARTESIAN_POINT ( 'NONE',  ( 0.0000000000000000000, 0.0000000000000000000, 3.000000000000000444 ) ) ;
#108 = SURFACE_STYLE_USAGE ( .BOTH. , #59 ) ;
#109 = MECHANICAL_DESIGN_GEOMETRIC_PRESENTATION_REPRESENTATION (  '', ( #7 ), #32 ) ;
#110 = LINE ( 'NONE', #173, #10 ) ;
#111 = CARTESIAN_POINT ( 'NONE',  ( 0.0000000000000000000, 0.0000000000000000000, 2.665048440020695075 ) ) ;
#112 = FILL_AREA_STYLE_COLOUR ( '', #190 ) ;
#113 = AXIS2_PLACEMENT_3D ( 'NONE', #171, #128, #152 ) ;
#114 = CARTESIAN_POINT ( 'NONE',  ( 0.003999999999999999216, 0.0000000000000000000, 3.000000000000000444 ) ) ;
#115 = VECTOR ( 'NONE', #77, 39.37007874015748143 ) ;
#116 = CARTESIAN_POINT ( 'NONE',  ( 0.0000000000000000000, 0.0000000000000000000, 0.0000000000000000000 ) ) ;
#117 = DIRECTION ( 'NONE',  ( 1.000000000000000000, 0.0000000000000000000, 0.0000000000000000000 ) ) ;
#118 =( NAMED_UNIT ( * ) SI_UNIT ( $, .STERADIAN. ) SOLID_ANGLE_UNIT ( ) );
#119 = VERTEX_POINT ( 'NONE', #168 ) ;
#120 = EDGE_CURVE ( 'NONE', #105, #48, #183, .T. ) ;
#121 = ORIENTED_EDGE ( 'NONE', *, *, #156, .F. ) ;
#122 = CONICAL_SURFACE ( 'NONE', #28, 0.003999999999999999216, 0.2617993877991502960 ) ;
#123 = APPLICATION_PROTOCOL_DEFINITION ( 'draft international standard', 'automotive_design', 1998, #231 ) ;
#124 = ORIENTED_EDGE ( 'NONE', *, *, #43, .F. ) ;
#125 = DIRECTION ( 'NONE',  ( 0.0000000000000000000, 0.0000000000000000000, 1.000000000000000000 ) ) ;
#126 = AXIS2_PLACEMENT_3D ( 'NONE', #228, #74, #189 ) ;
#127 = AXIS2_PLACEMENT_3D ( 'NONE', #211, #200, #80 ) ;
#128 = DIRECTION ( 'NONE',  ( -0.0000000000000000000, -0.0000000000000000000, -1.000000000000000000 ) ) ;
#129 = PLANE ( 'NONE',  #3 ) ;
#130 = DIRECTION ( 'NONE',  ( 0.2588190451025216832, 0.0000000000000000000, 0.9659258262890679791 ) ) ;
#131 = CIRCLE ( 'NONE', #27, 0.003999999999999999216 ) ;
#132 = CARTESIAN_POINT ( 'NONE',  ( 0.09375000000000001388, 1.148106374200643401E-17, 3.000000000000000444 ) ) ;
#133 = CARTESIAN_POINT ( 'NONE',  ( -0.003999999999999999216, -4.898587196589411612E-19, 3.000000000000000444 ) ) ;
#134 = LENGTH_MEASURE_WITH_UNIT ( LENGTH_MEASURE( 0.02539999999999999897 ), #212 );
#135 = DIRECTION ( 'NONE',  ( -1.000000000000000000, 0.0000000000000000000, 0.0000000000000000000 ) ) ;
#136 = AXIS2_PLACEMENT_3D ( 'NONE', #159, #232, #135 ) ;
#137 = DIRECTION ( 'NONE',  ( 0.0000000000000000000, 0.0000000000000000000, -1.000000000000000000 ) ) ;
#138 = DIRECTION ( 'NONE',  ( 0.0000000000000000000, 0.0000000000000000000, -1.000000000000000000 ) ) ;
#139 = CONICAL_SURFACE ( 'NONE', #126, 0.003999999999999999216, 0.2617993877991502960 ) ;
#140 = CONICAL_SURFACE ( 'NONE', #221, 0.003999999999999999216, 0.2617993877991502960 ) ;
#141 = ORIENTED_EDGE ( 'NONE', *, *, #25, .F. ) ;
#142 = ORIENTED_EDGE ( 'NONE', *, *, #51, .F. ) ;
#143 = ORIENTED_EDGE ( 'NONE', *, *, #57, .F. ) ;
#144 = ORIENTED_EDGE ( 'NONE', *, *, #165, .F. ) ;
#145 = FILL_AREA_STYLE_COLOUR ( '', #45 ) ;
#146 = ORIENTED_EDGE ( 'NONE', *, *, #151, .T. ) ;
#147 = FACE_OUTER_BOUND ( 'NONE', #104, .T. ) ;
#148 = AXIS2_PLACEMENT_3D ( 'NONE', #107, #1, #249 ) ;
#149 = AXIS2_PLACEMENT_3D ( 'NONE', #215, #197, #62 ) ;
#150 = CARTESIAN_POINT ( 'NONE',  ( -0.003999999999999999216, -5.985461230832684791E-18, 3.000000000000000444 ) ) ;
#151 = EDGE_CURVE ( 'NONE', #50, #204, #230, .T. ) ;
#152 = DIRECTION ( 'NONE',  ( -1.000000000000000000, 0.0000000000000000000, 0.0000000000000000000 ) ) ;
#153 = DIRECTION ( 'NONE',  ( -1.000000000000000000, 0.0000000000000000000, 0.0000000000000000000 ) ) ;
#154 = FACE_OUTER_BOUND ( 'NONE', #69, .T. ) ;
#155 = APPLICATION_PROTOCOL_DEFINITION ( 'draft international standard', 'automotive_design', 1998, #4 ) ;
#156 = EDGE_CURVE ( 'NONE', #105, #70, #191, .T. ) ;
#157 = MECHANICAL_DESIGN_GEOMETRIC_PRESENTATION_REPRESENTATION (  '', ( #89 ), #248 ) ;
#158 = FACE_OUTER_BOUND ( 'NONE', #103, .T. ) ;
#159 = CARTESIAN_POINT ( 'NONE',  ( 0.0000000000000000000, 0.0000000000000000000, 0.3349515599793054799 ) ) ;
#160 = CARTESIAN_POINT ( 'NONE',  ( -0.09375000000000001388, 0.0000000000000000000, 2.665048440020695075 ) ) ;
#161 = SURFACE_STYLE_FILL_AREA ( #181 ) ;
#162 = SURFACE_SIDE_STYLE ('',( #161 ) ) ;
#163 = EDGE_LOOP ( 'NONE', ( #121, #141, #85, #102 ) ) ;
#164 = VECTOR ( 'NONE', #90, 39.37007874015748143 ) ;
#165 = EDGE_CURVE ( 'NONE', #204, #66, #229, .T. ) ;
#166 = VERTEX_POINT ( 'NONE', #210 ) ;
#167 = FACE_OUTER_BOUND ( 'NONE', #16, .T. ) ;
#168 = CARTESIAN_POINT ( 'NONE',  ( 0.09375000000000001388, 1.148106374200643401E-17, 0.3349515599793054799 ) ) ;
#169 = CIRCLE ( 'NONE', #136, 0.09375000000000001388 ) ;
#170 = CARTESIAN_POINT ( 'NONE',  ( 0.0000000000000000000, 0.0000000000000000000, 0.0000000000000000000 ) ) ;
#171 = CARTESIAN_POINT ( 'NONE',  ( 0.0000000000000000000, 0.0000000000000000000, 0.3349515599793054799 ) ) ;
#172 = MANIFOLD_SOLID_BREP ( 'Mirror1', #91 ) ;
#173 = CARTESIAN_POINT ( 'NONE',  ( 0.003999999999999999216, 0.0000000000000000000, 0.0000000000000000000 ) ) ;
#174 = EDGE_CURVE ( 'NONE', #66, #204, #20, .T. ) ;
#175 =( NAMED_UNIT ( * ) PLANE_ANGLE_UNIT ( ) SI_UNIT ( $, .RADIAN. ) );
#176 = UNCERTAINTY_MEASURE_WITH_UNIT (LENGTH_MEASURE( 1.000000000000000082E-05 ), #53, 'distance_accuracy_value', 'NONE');
#177 =( LENGTH_UNIT ( ) NAMED_UNIT ( * ) SI_UNIT ( $, .METRE. ) );
#178 = ADVANCED_BREP_SHAPE_REPRESENTATION ( 'Micro_RTC-187-23X', ( #172, #97 ), #208 ) ;
#179 = AXIS2_PLACEMENT_3D ( 'NONE', #205, #41, #78 ) ;
#180 = ADVANCED_FACE ( 'NONE', ( #235 ), #140, .T. ) ;
#181 = FILL_AREA_STYLE ('',( #145 ) ) ;
#182 = ORIENTED_EDGE ( 'NONE', *, *, #201, .F. ) ;
#183 = CIRCLE ( 'NONE', #179, 0.003999999999999999216 ) ;
#184 = DIRECTION ( 'NONE',  ( 1.000000000000000000, 0.0000000000000000000, 0.0000000000000000000 ) ) ;
#185 = ADVANCED_FACE ( 'NONE', ( #158 ), #9, .T. ) ;
#186 = ORIENTED_EDGE ( 'NONE', *, *, #120, .F. ) ;
#187 = ADVANCED_FACE ( 'NONE', ( #81 ), #122, .T. ) ;
#188 = DIRECTION ( 'NONE',  ( -1.000000000000000000, 0.0000000000000000000, 0.0000000000000000000 ) ) ;
#189 = DIRECTION ( 'NONE',  ( 1.000000000000000000, 0.0000000000000000000, 0.0000000000000000000 ) ) ;
#190 = COLOUR_RGB ( '',0.7921568627450980005, 0.8196078431372548767, 0.9333333333333333481 ) ;
#191 = LINE ( 'NONE', #207, #115 ) ;
#192 = DIRECTION ( 'NONE',  ( -1.000000000000000000, 0.0000000000000000000, 0.0000000000000000000 ) ) ;
#193 = ADVANCED_FACE ( 'NONE', ( #95 ), #224, .T. ) ;
#194 = FILL_AREA_STYLE ('',( #112 ) ) ;
#195 = CIRCLE ( 'NONE', #113, 0.09375000000000001388 ) ;
#196 = PRODUCT_DEFINITION_SHAPE ( 'NONE', 'NONE',  #216 ) ;
#197 = DIRECTION ( 'NONE',  ( 0.0000000000000000000, 0.0000000000000000000, -1.000000000000000000 ) ) ;
#198 =( NAMED_UNIT ( * ) SI_UNIT ( $, .STERADIAN. ) SOLID_ANGLE_UNIT ( ) );
#199 = AXIS2_PLACEMENT_3D ( 'NONE', #116, #44, #79 ) ;
#200 = DIRECTION ( 'NONE',  ( -0.0000000000000000000, -0.0000000000000000000, -1.000000000000000000 ) ) ;
#201 = EDGE_CURVE ( 'NONE', #166, #66, #63, .T. ) ;
#202 = ORIENTED_EDGE ( 'NONE', *, *, #233, .T. ) ;
#203 = ORIENTED_EDGE ( 'NONE', *, *, #93, .F. ) ;
#204 = VERTEX_POINT ( 'NONE', #160 ) ;
#205 = CARTESIAN_POINT ( 'NONE',  ( 0.0000000000000000000, 0.0000000000000000000, 0.0000000000000000000 ) ) ;
#206 = DIRECTION ( 'NONE',  ( -0.0000000000000000000, -0.0000000000000000000, -1.000000000000000000 ) ) ;
#207 = CARTESIAN_POINT ( 'NONE',  ( -0.003999999999999999216, 4.898587196589411612E-19, 0.0000000000000000000 ) ) ;
#208 =( GEOMETRIC_REPRESENTATION_CONTEXT ( 3 ) GLOBAL_UNCERTAINTY_ASSIGNED_CONTEXT ( ( #49 ) ) GLOBAL_UNIT_ASSIGNED_CONTEXT ( ( #6, #237, #198 ) ) REPRESENTATION_CONTEXT ( 'NONE', 'WORKASPACE' ) );
#209 = DIRECTION ( 'NONE',  ( 1.000000000000000000, 0.0000000000000000000, -0.0000000000000000000 ) ) ;
#210 = CARTESIAN_POINT ( 'NONE',  ( 0.003999999999999999216, 0.0000000000000000000, 3.000000000000000444 ) ) ;
#211 = CARTESIAN_POINT ( 'NONE',  ( 0.0000000000000000000, 0.0000000000000000000, 3.000000000000000444 ) ) ;
#212 =( LENGTH_UNIT ( ) NAMED_UNIT ( * ) SI_UNIT ( $, .METRE. ) );
#213 = LENGTH_MEASURE_WITH_UNIT ( LENGTH_MEASURE( 0.02539999999999999897 ), #177 );
#214 = AXIS2_PLACEMENT_3D ( 'NONE', #246, #206, #153 ) ;
#215 = CARTESIAN_POINT ( 'NONE',  ( 0.0000000000000000000, 0.0000000000000000000, 3.000000000000000444 ) ) ;
#216 = PRODUCT_DEFINITION ( 'UNKNOWN', '', #55, #54 ) ;
#217 = LENGTH_MEASURE_WITH_UNIT ( LENGTH_MEASURE( 0.02539999999999999897 ), #14 );
#218 = ORIENTED_EDGE ( 'NONE', *, *, #25, .T. ) ;
#219 = ORIENTED_EDGE ( 'NONE', *, *, #156, .T. ) ;
#220 =( NAMED_UNIT ( * ) PLANE_ANGLE_UNIT ( ) SI_UNIT ( $, .RADIAN. ) );
#221 = AXIS2_PLACEMENT_3D ( 'NONE', #26, #137, #117 ) ;
#222 = DIRECTION ( 'NONE',  ( -0.0000000000000000000, -0.0000000000000000000, -1.000000000000000000 ) ) ;
#223 = EDGE_CURVE ( 'NONE', #70, #119, #169, .T. ) ;
#224 = CONICAL_SURFACE ( 'NONE', #199, 0.003999999999999999216, 0.2617993877991502960 ) ;
#225 = DIRECTION ( 'NONE',  ( 0.0000000000000000000, 0.0000000000000000000, -1.000000000000000000 ) ) ;
#226 = DIMENSIONAL_EXPONENTS ( 1.000000000000000000, 0.0000000000000000000, 0.0000000000000000000, 0.0000000000000000000, 0.0000000000000000000, 0.0000000000000000000, 0.0000000000000000000 ) ;
#227 = CARTESIAN_POINT ( 'NONE',  ( -0.003999999999999999216, 5.985461230832687873E-18, 0.0000000000000000000 ) ) ;
#228 = CARTESIAN_POINT ( 'NONE',  ( 0.0000000000000000000, 0.0000000000000000000, 0.0000000000000000000 ) ) ;
#229 = CIRCLE ( 'NONE', #239, 0.09375000000000001388 ) ;
#230 = LINE ( 'NONE', #133, #99 ) ;
#231 = APPLICATION_CONTEXT ( 'automotive_design' ) ;
#232 = DIRECTION ( 'NONE',  ( -0.0000000000000000000, -0.0000000000000000000, -1.000000000000000000 ) ) ;
#233 = EDGE_CURVE ( 'NONE', #166, #50, #31, .T. ) ;
#234 = CARTESIAN_POINT ( 'NONE',  ( 0.0000000000000000000, 0.0000000000000000000, 3.000000000000000444 ) ) ;
#235 = FACE_OUTER_BOUND ( 'NONE', #13, .T. ) ;
#236 = DIRECTION ( 'NONE',  ( 0.2588190451025216832, 0.0000000000000000000, -0.9659258262890679791 ) ) ;
#237 =( NAMED_UNIT ( * ) PLANE_ANGLE_UNIT ( ) SI_UNIT ( $, .RADIAN. ) );
#238 = AXIS2_PLACEMENT_3D ( 'NONE', #60, #222, #192 ) ;
#239 = AXIS2_PLACEMENT_3D ( 'NONE', #111, #61, #188 ) ;
#240 = ORIENTED_EDGE ( 'NONE', *, *, #223, .F. ) ;
#241 = SHAPE_DEFINITION_REPRESENTATION ( #196, #178 ) ;
#242 = UNCERTAINTY_MEASURE_WITH_UNIT (LENGTH_MEASURE( 1.000000000000000082E-05 ), #8, 'distance_accuracy_value', 'NONE');
#243 = VECTOR ( 'NONE', #23, 39.37007874015748143 ) ;
#244 = ORIENTED_EDGE ( 'NONE', *, *, #57, .T. ) ;
#245 = ORIENTED_EDGE ( 'NONE', *, *, #174, .F. ) ;
#246 = CARTESIAN_POINT ( 'NONE',  ( 0.0000000000000000000, 0.0000000000000000000, 3.000000000000000444 ) ) ;
#247 = DIRECTION ( 'NONE',  ( -1.000000000000000000, 0.0000000000000000000, 0.0000000000000000000 ) ) ;
#248 =( GEOMETRIC_REPRESENTATION_CONTEXT ( 3 ) GLOBAL_UNCERTAINTY_ASSIGNED_CONTEXT ( ( #242 ) ) GLOBAL_UNIT_ASSIGNED_CONTEXT ( ( #8, #175, #98 ) ) REPRESENTATION_CONTEXT ( 'NONE', 'WORKASPACE' ) );
#249 = DIRECTION ( 'NONE',  ( 1.000000000000000000, 0.0000000000000000000, -0.0000000000000000000 ) ) ;
ENDSEC;
END-ISO-10303-21;
