ISO-10303-21;
HEADER;
FILE_DESCRIPTION (( 'STEP AP214' ),
    '1' );
FILE_NAME ('Micro_RDE-40.STEP',
    '2021-08-31T17:02:27',
    ( '' ),
    ( '' ),
    'SwSTEP 2.0',
    'SolidWorks 2020',
    '' );
FILE_SCHEMA (( 'AUTOMOTIVE_DESIGN' ));
ENDSEC;

DATA;
#1 = CARTESIAN_POINT ( 'NONE',  ( 1.404618771449245766E-33, 0.0000000000000000000, 1.146958267826442798E-17 ) ) ;
#2 = ORIENTED_EDGE ( 'NONE', *, *, #125, .F. ) ;
#3 = CARTESIAN_POINT ( 'NONE',  ( 0.09375000000000006939, 1.148106374200644633E-17, 0.6255316826705894506 ) ) ;
#4 = AXIS2_PLACEMENT_3D ( 'NONE', #219, #173, #158 ) ;
#5 = ORIENTED_EDGE ( 'NONE', *, *, #182, .F. ) ;
#6 = ADVANCED_BREP_SHAPE_REPRESENTATION ( 'Micro_RDE-40', ( #221, #32 ), #174 ) ;
#7 = CARTESIAN_POINT ( 'NONE',  ( -0.09374999999999994449, 0.0000000000000000000, 0.6255316826705894506 ) ) ;
#8 = DIMENSIONAL_EXPONENTS ( 1.000000000000000000, 0.0000000000000000000, 0.0000000000000000000, 0.0000000000000000000, 0.0000000000000000000, 0.0000000000000000000, 0.0000000000000000000 ) ;
#9 = CARTESIAN_POINT ( 'NONE',  ( 7.660553729477951550E-17, 0.0000000000000000000, 0.6255316826705894506 ) ) ;
#10 = CARTESIAN_POINT ( 'NONE',  ( 0.07874999999999980627, 9.644093543285380530E-18, 2.000000000000000000 ) ) ;
#11 = AXIS2_PLACEMENT_3D ( 'NONE', #189, #30, #258 ) ;
#12 = STYLED_ITEM ( 'NONE', ( #86 ), #221 ) ;
#13 = DIRECTION ( 'NONE',  ( 1.000000000000000000, 0.0000000000000000000, 0.0000000000000000000 ) ) ;
#14 = EDGE_CURVE ( 'NONE', #80, #272, #31, .T. ) ;
#15 = DIRECTION ( 'NONE',  ( -0.7071067811865463515, 0.0000000000000000000, -0.7071067811865486830 ) ) ;
#16 = UNCERTAINTY_MEASURE_WITH_UNIT (LENGTH_MEASURE( 1.000000000000000082E-05 ), #269, 'distance_accuracy_value', 'NONE');
#17 = CARTESIAN_POINT ( 'NONE',  ( 0.09365625000000003808, 0.0000000000000000000, 0.6250000000000000000 ) ) ;
#18 = AXIS2_PLACEMENT_3D ( 'NONE', #296, #249, #90 ) ;
#19 = EDGE_CURVE ( 'NONE', #284, #58, #239, .T. ) ;
#20 = EDGE_CURVE ( 'NONE', #272, #102, #165, .T. ) ;
#21 = CARTESIAN_POINT ( 'NONE',  ( -0.09365624999999991318, 1.147532321013543099E-17, 0.6250000000000000000 ) ) ;
#22 = SHAPE_DEFINITION_REPRESENTATION ( #109, #6 ) ;
#23 = EDGE_CURVE ( 'NONE', #80, #56, #146, .T. ) ;
#24 = ORIENTED_EDGE ( 'NONE', *, *, #204, .T. ) ;
#25 = AXIS2_PLACEMENT_3D ( 'NONE', #152, #40, #198 ) ;
#26 = EDGE_LOOP ( 'NONE', ( #236, #160, #161, #82 ) ) ;
#27 = CARTESIAN_POINT ( 'NONE',  ( 0.0000000000000000000, 0.0000000000000000000, 1.984999999999999654 ) ) ;
#28 = ORIENTED_EDGE ( 'NONE', *, *, #171, .F. ) ;
#29 = ORIENTED_EDGE ( 'NONE', *, *, #113, .F. ) ;
#30 = DIRECTION ( 'NONE',  ( 0.0000000000000000000, 0.0000000000000000000, 1.000000000000000000 ) ) ;
#31 = CIRCLE ( 'NONE', #54, 0.09375000000000001388 ) ;
#32 = AXIS2_PLACEMENT_3D ( 'NONE', #52, #274, #254 ) ;
#33 = ORIENTED_EDGE ( 'NONE', *, *, #73, .F. ) ;
#34 = DIRECTION ( 'NONE',  ( -1.224646799147353207E-16, -0.0000000000000000000, -1.000000000000000000 ) ) ;
#35 = EDGE_CURVE ( 'NONE', #123, #80, #260, .T. ) ;
#36 = CARTESIAN_POINT ( 'NONE',  ( -0.09365624999999999645, 0.0000000000000000000, 2.293916535652885596E-17 ) ) ;
#37 = LINE ( 'NONE', #110, #297 ) ;
#38 = CIRCLE ( 'NONE', #74, 0.07874999999999980627 ) ;
#39 = ADVANCED_FACE ( 'NONE', ( #283 ), #214, .T. ) ;
#40 = DIRECTION ( 'NONE',  ( 0.0000000000000000000, 0.0000000000000000000, 1.000000000000000000 ) ) ;
#41 = CARTESIAN_POINT ( 'NONE',  ( 0.0000000000000000000, 0.0000000000000000000, 2.000000000000000000 ) ) ;
#42 = CARTESIAN_POINT ( 'NONE',  ( 0.09365625000000003808, 0.0000000000000000000, 0.6250000000000000000 ) ) ;
#43 = COLOUR_RGB ( '',0.7921568627450980005, 0.8196078431372548767, 0.9333333333333333481 ) ;
#44 = SURFACE_STYLE_USAGE ( .BOTH. , #268 ) ;
#45 = EDGE_CURVE ( 'NONE', #145, #58, #95, .T. ) ;
#46 =( CONVERSION_BASED_UNIT ( 'INCH', #250 ) LENGTH_UNIT ( ) NAMED_UNIT ( #81 ) );
#47 = CARTESIAN_POINT ( 'NONE',  ( 0.0000000000000000000, 0.0000000000000000000, 2.000000000000000000 ) ) ;
#48 = PRESENTATION_STYLE_ASSIGNMENT (( #251 ) ) ;
#49 = CONICAL_SURFACE ( 'NONE', #213, 0.09365624999999996869, 0.1745329251994338915 ) ;
#50 =( NAMED_UNIT ( * ) PLANE_ANGLE_UNIT ( ) SI_UNIT ( $, .RADIAN. ) );
#51 = ORIENTED_EDGE ( 'NONE', *, *, #20, .T. ) ;
#52 = CARTESIAN_POINT ( 'NONE',  ( 0.0000000000000000000, 0.0000000000000000000, 0.0000000000000000000 ) ) ;
#53 = EDGE_LOOP ( 'NONE', ( #166, #259, #120, #299 ) ) ;
#54 = AXIS2_PLACEMENT_3D ( 'NONE', #143, #257, #232 ) ;
#55 = DIRECTION ( 'NONE',  ( 1.000000000000000000, 0.0000000000000000000, 0.0000000000000000000 ) ) ;
#56 = VERTEX_POINT ( 'NONE', #3 ) ;
#57 = DIRECTION ( 'NONE',  ( 1.000000000000000000, 0.0000000000000000000, 0.0000000000000000000 ) ) ;
#58 = VERTEX_POINT ( 'NONE', #36 ) ;
#59 = DIRECTION ( 'NONE',  ( -1.000000000000000000, 0.0000000000000000000, 0.0000000000000000000 ) ) ;
#60 = AXIS2_PLACEMENT_3D ( 'NONE', #218, #87, #13 ) ;
#61 = CARTESIAN_POINT ( 'NONE',  ( 0.0000000000000000000, 0.0000000000000000000, 2.000000000000000000 ) ) ;
#62 = DIMENSIONAL_EXPONENTS ( 1.000000000000000000, 0.0000000000000000000, 0.0000000000000000000, 0.0000000000000000000, 0.0000000000000000000, 0.0000000000000000000, 0.0000000000000000000 ) ;
#63 = CARTESIAN_POINT ( 'NONE',  ( 0.0000000000000000000, 0.0000000000000000000, 0.0000000000000000000 ) ) ;
#64 = CYLINDRICAL_SURFACE ( 'NONE', #4, 0.09365624999999999645 ) ;
#65 = CIRCLE ( 'NONE', #281, 0.09365624999999999645 ) ;
#66 = PRESENTATION_LAYER_ASSIGNMENT (  '', '', ( #12 ) ) ;
#67 = DIRECTION ( 'NONE',  ( -1.224646799147353207E-16, -0.0000000000000000000, -1.000000000000000000 ) ) ;
#68 = FACE_OUTER_BOUND ( 'NONE', #180, .T. ) ;
#69 = LENGTH_MEASURE_WITH_UNIT ( LENGTH_MEASURE( 0.02539999999999999897 ), #89 );
#70 = AXIS2_PLACEMENT_3D ( 'NONE', #61, #83, #279 ) ;
#71 = ORIENTED_EDGE ( 'NONE', *, *, #45, .F. ) ;
#72 = SURFACE_STYLE_FILL_AREA ( #273 ) ;
#73 = EDGE_CURVE ( 'NONE', #272, #80, #217, .T. ) ;
#74 = AXIS2_PLACEMENT_3D ( 'NONE', #41, #293, #196 ) ;
#75 = PRODUCT_DEFINITION_FORMATION_WITH_SPECIFIED_SOURCE ( 'ANY', '', #199, .NOT_KNOWN. ) ;
#76 = ORIENTED_EDGE ( 'NONE', *, *, #185, .F. ) ;
#77 = CARTESIAN_POINT ( 'NONE',  ( 0.09365624999999999645, 1.146958267826442798E-17, 0.0000000000000000000 ) ) ;
#78 = ORIENTED_EDGE ( 'NONE', *, *, #113, .T. ) ;
#79 = DIRECTION ( 'NONE',  ( 0.0000000000000000000, 0.0000000000000000000, -1.000000000000000000 ) ) ;
#80 = VERTEX_POINT ( 'NONE', #235 ) ;
#81 = DIMENSIONAL_EXPONENTS ( 1.000000000000000000, 0.0000000000000000000, 0.0000000000000000000, 0.0000000000000000000, 0.0000000000000000000, 0.0000000000000000000, 0.0000000000000000000 ) ;
#82 = ORIENTED_EDGE ( 'NONE', *, *, #19, .F. ) ;
#83 = DIRECTION ( 'NONE',  ( -0.0000000000000000000, -0.0000000000000000000, -1.000000000000000000 ) ) ;
#84 = AXIS2_PLACEMENT_3D ( 'NONE', #1, #262, #150 ) ;
#85 = CARTESIAN_POINT ( 'NONE',  ( 7.660553729477951550E-17, 0.0000000000000000000, 0.6255316826705894506 ) ) ;
#86 = PRESENTATION_STYLE_ASSIGNMENT (( #44 ) ) ;
#87 = DIRECTION ( 'NONE',  ( 1.224646799147353207E-16, 0.0000000000000000000, 1.000000000000000000 ) ) ;
#88 = CIRCLE ( 'NONE', #229, 0.09375000000000001388 ) ;
#89 =( LENGTH_UNIT ( ) NAMED_UNIT ( * ) SI_UNIT ( $, .METRE. ) );
#90 = DIRECTION ( 'NONE',  ( -1.000000000000000000, 0.0000000000000000000, 0.0000000000000000000 ) ) ;
#91 = ORIENTED_EDGE ( 'NONE', *, *, #14, .T. ) ;
#92 = DIRECTION ( 'NONE',  ( -1.000000000000000000, 0.0000000000000000000, 0.0000000000000000000 ) ) ;
#93 = PRODUCT_CONTEXT ( 'NONE', #106, 'mechanical' ) ;
#94 = AXIS2_PLACEMENT_3D ( 'NONE', #85, #168, #55 ) ;
#95 = CIRCLE ( 'NONE', #84, 0.09365624999999999645 ) ;
#96 = ORIENTED_EDGE ( 'NONE', *, *, #153, .T. ) ;
#97 = EDGE_LOOP ( 'NONE', ( #234, #184 ) ) ;
#98 = CARTESIAN_POINT ( 'NONE',  ( 0.07874999999999980627, 1.056257864264590573E-17, 2.000000000000000000 ) ) ;
#99 = ORIENTED_EDGE ( 'NONE', *, *, #126, .F. ) ;
#100 = STYLED_ITEM ( 'NONE', ( #48 ), #6 ) ;
#101 = DIRECTION ( 'NONE',  ( -1.000000000000000000, 0.0000000000000000000, 0.0000000000000000000 ) ) ;
#102 = VERTEX_POINT ( 'NONE', #7 ) ;
#103 = DIRECTION ( 'NONE',  ( -1.224646799147353207E-16, -0.0000000000000000000, -1.000000000000000000 ) ) ;
#104 = CYLINDRICAL_SURFACE ( 'NONE', #241, 0.09365624999999999645 ) ;
#105 = CONICAL_SURFACE ( 'NONE', #18, 0.07874999999999980627, 0.7853981633974466137 ) ;
#106 = APPLICATION_CONTEXT ( 'automotive_design' ) ;
#107 = CARTESIAN_POINT ( 'NONE',  ( -0.09375000000000001388, 0.0000000000000000000, 1.984999999999999654 ) ) ;
#108 = DIRECTION ( 'NONE',  ( 1.224646799147353207E-16, 0.0000000000000000000, 1.000000000000000000 ) ) ;
#109 = PRODUCT_DEFINITION_SHAPE ( 'NONE', 'NONE',  #186 ) ;
#110 = CARTESIAN_POINT ( 'NONE',  ( -0.07874999999999980627, 0.0000000000000000000, 2.000000000000000000 ) ) ;
#111 = AXIS2_PLACEMENT_3D ( 'NONE', #47, #137, #92 ) ;
#112 = UNCERTAINTY_MEASURE_WITH_UNIT (LENGTH_MEASURE( 1.000000000000000082E-05 ), #206, 'distance_accuracy_value', 'NONE');
#113 = EDGE_CURVE ( 'NONE', #192, #284, #252, .T. ) ;
#114 =( NAMED_UNIT ( * ) PLANE_ANGLE_UNIT ( ) SI_UNIT ( $, .RADIAN. ) );
#115 = FACE_OUTER_BOUND ( 'NONE', #163, .T. ) ;
#116 = FACE_OUTER_BOUND ( 'NONE', #190, .T. ) ;
#117 =( LENGTH_UNIT ( ) NAMED_UNIT ( * ) SI_UNIT ( $, .METRE. ) );
#118 = ORIENTED_EDGE ( 'NONE', *, *, #19, .T. ) ;
#119 = SURFACE_SIDE_STYLE ('',( #72 ) ) ;
#120 = ORIENTED_EDGE ( 'NONE', *, *, #153, .F. ) ;
#121 = DIRECTION ( 'NONE',  ( -1.000000000000000000, 0.0000000000000000000, 0.0000000000000000000 ) ) ;
#122 = DIRECTION ( 'NONE',  ( -0.0000000000000000000, -0.0000000000000000000, -1.000000000000000000 ) ) ;
#123 = VERTEX_POINT ( 'NONE', #98 ) ;
#124 = LINE ( 'NONE', #278, #178 ) ;
#125 = EDGE_CURVE ( 'NONE', #187, #123, #246, .T. ) ;
#126 = EDGE_CURVE ( 'NONE', #284, #102, #124, .T. ) ;
#127 = CARTESIAN_POINT ( 'NONE',  ( 0.09365624999999999645, 1.146958267826442798E-17, -1.146958267826442798E-17 ) ) ;
#128 = VECTOR ( 'NONE', #122, 39.37007874015748143 ) ;
#129 =( NAMED_UNIT ( * ) SI_UNIT ( $, .STERADIAN. ) SOLID_ANGLE_UNIT ( ) );
#130 = FILL_AREA_STYLE_COLOUR ( '', #43 ) ;
#131 = PRODUCT_DEFINITION_CONTEXT ( 'detailed design', #294, 'design' ) ;
#132 = DIRECTION ( 'NONE',  ( 1.000000000000000000, 0.0000000000000000000, 0.0000000000000000000 ) ) ;
#133 = CONICAL_SURFACE ( 'NONE', #111, 0.07874999999999980627, 0.7853981633974466137 ) ;
#134 = PLANE ( 'NONE',  #25 ) ;
#135 = EDGE_CURVE ( 'NONE', #284, #192, #172, .T. ) ;
#136 =( NAMED_UNIT ( * ) PLANE_ANGLE_UNIT ( ) SI_UNIT ( $, .RADIAN. ) );
#137 = DIRECTION ( 'NONE',  ( 0.0000000000000000000, 0.0000000000000000000, -1.000000000000000000 ) ) ;
#138 = AXIS2_PLACEMENT_3D ( 'NONE', #27, #79, #57 ) ;
#139 = ORIENTED_EDGE ( 'NONE', *, *, #171, .T. ) ;
#140 = EDGE_CURVE ( 'NONE', #192, #145, #238, .T. ) ;
#141 = ORIENTED_EDGE ( 'NONE', *, *, #23, .F. ) ;
#142 = CARTESIAN_POINT ( 'NONE',  ( 0.0000000000000000000, 0.0000000000000000000, 2.000000000000000000 ) ) ;
#143 = CARTESIAN_POINT ( 'NONE',  ( 0.0000000000000000000, 0.0000000000000000000, 1.984999999999999654 ) ) ;
#144 = DIRECTION ( 'NONE',  ( -1.224646799147353207E-16, -0.0000000000000000000, -1.000000000000000000 ) ) ;
#145 = VERTEX_POINT ( 'NONE', #77 ) ;
#146 = LINE ( 'NONE', #285, #128 ) ;
#147 = ORIENTED_EDGE ( 'NONE', *, *, #204, .F. ) ;
#148 =( GEOMETRIC_REPRESENTATION_CONTEXT ( 3 ) GLOBAL_UNCERTAINTY_ASSIGNED_CONTEXT ( ( #112 ) ) GLOBAL_UNIT_ASSIGNED_CONTEXT ( ( #206, #50, #275 ) ) REPRESENTATION_CONTEXT ( 'NONE', 'WORKASPACE' ) );
#149 = DIRECTION ( 'NONE',  ( -0.1736481776669311916, 2.126576849575783316E-17, 0.9848077530122080203 ) ) ;
#150 = DIRECTION ( 'NONE',  ( -1.000000000000000000, 0.0000000000000000000, 1.224646799147352961E-16 ) ) ;
#151 = DIRECTION ( 'NONE',  ( 1.000000000000000000, 0.0000000000000000000, -0.0000000000000000000 ) ) ;
#152 = CARTESIAN_POINT ( 'NONE',  ( 0.0000000000000000000, 0.0000000000000000000, 2.000000000000000000 ) ) ;
#153 = EDGE_CURVE ( 'NONE', #102, #56, #88, .T. ) ;
#154 = CARTESIAN_POINT ( 'NONE',  ( 1.404618771449245766E-33, 0.0000000000000000000, 1.146958267826442798E-17 ) ) ;
#155 = FACE_OUTER_BOUND ( 'NONE', #230, .T. ) ;
#156 = CIRCLE ( 'NONE', #94, 0.09375000000000001388 ) ;
#157 = MECHANICAL_DESIGN_GEOMETRIC_PRESENTATION_REPRESENTATION (  '', ( #12 ), #292 ) ;
#158 = DIRECTION ( 'NONE',  ( -1.000000000000000000, 0.0000000000000000000, 1.224646799147352961E-16 ) ) ;
#159 = PRESENTATION_LAYER_ASSIGNMENT (  '', '', ( #100 ) ) ;
#160 = ORIENTED_EDGE ( 'NONE', *, *, #140, .T. ) ;
#161 = ORIENTED_EDGE ( 'NONE', *, *, #208, .F. ) ;
#162 = FACE_OUTER_BOUND ( 'NONE', #53, .T. ) ;
#163 = EDGE_LOOP ( 'NONE', ( #228, #2, #298, #277 ) ) ;
#164 = ORIENTED_EDGE ( 'NONE', *, *, #208, .T. ) ;
#165 = LINE ( 'NONE', #211, #266 ) ;
#166 = ORIENTED_EDGE ( 'NONE', *, *, #73, .T. ) ;
#167 = CARTESIAN_POINT ( 'NONE',  ( 7.654042494670957853E-17, 0.0000000000000000000, 0.6250000000000000000 ) ) ;
#168 = DIRECTION ( 'NONE',  ( -1.224646799147353207E-16, -0.0000000000000000000, -1.000000000000000000 ) ) ;
#169 = PLANE ( 'NONE',  #227 ) ;
#170 = DIRECTION ( 'NONE',  ( -1.224646799147353207E-16, -0.0000000000000000000, -1.000000000000000000 ) ) ;
#171 = EDGE_CURVE ( 'NONE', #56, #102, #156, .T. ) ;
#172 = CIRCLE ( 'NONE', #295, 0.09365624999999996869 ) ;
#173 = DIRECTION ( 'NONE',  ( -1.224646799147353207E-16, -0.0000000000000000000, -1.000000000000000000 ) ) ;
#174 =( GEOMETRIC_REPRESENTATION_CONTEXT ( 3 ) GLOBAL_UNCERTAINTY_ASSIGNED_CONTEXT ( ( #243 ) ) GLOBAL_UNIT_ASSIGNED_CONTEXT ( ( #46, #136, #225 ) ) REPRESENTATION_CONTEXT ( 'NONE', 'WORKASPACE' ) );
#175 = ADVANCED_FACE ( 'NONE', ( #162 ), #256, .T. ) ;
#176 = FILL_AREA_STYLE ('',( #130 ) ) ;
#177 =( LENGTH_UNIT ( ) NAMED_UNIT ( * ) SI_UNIT ( $, .METRE. ) );
#178 = VECTOR ( 'NONE', #149, 39.37007874015747433 ) ;
#179 = CONICAL_SURFACE ( 'NONE', #60, 0.09365624999999996869, 0.1745329251994338915 ) ;
#180 = EDGE_LOOP ( 'NONE', ( #164, #207 ) ) ;
#181 = FILL_AREA_STYLE_COLOUR ( '', #247 ) ;
#182 = EDGE_CURVE ( 'NONE', #123, #187, #38, .T. ) ;
#183 = LENGTH_MEASURE_WITH_UNIT ( LENGTH_MEASURE( 0.02539999999999999897 ), #117 );
#184 = ORIENTED_EDGE ( 'NONE', *, *, #182, .T. ) ;
#185 = EDGE_CURVE ( 'NONE', #187, #272, #37, .T. ) ;
#186 = PRODUCT_DEFINITION ( 'UNKNOWN', '', #75, #131 ) ;
#187 = VERTEX_POINT ( 'NONE', #242 ) ;
#188 = ADVANCED_FACE ( 'NONE', ( #240 ), #104, .T. ) ;
#189 = CARTESIAN_POINT ( 'NONE',  ( 0.0000000000000000000, 0.0000000000000000000, 2.000000000000000000 ) ) ;
#190 = EDGE_LOOP ( 'NONE', ( #5, #255, #33, #76 ) ) ;
#191 = DIRECTION ( 'NONE',  ( -1.224646799147353207E-16, -0.0000000000000000000, -1.000000000000000000 ) ) ;
#192 = VERTEX_POINT ( 'NONE', #42 ) ;
#193 = DIRECTION ( 'NONE',  ( -1.224646799147353207E-16, -0.0000000000000000000, -1.000000000000000000 ) ) ;
#194 = DIRECTION ( 'NONE',  ( 1.000000000000000000, 0.0000000000000000000, 0.0000000000000000000 ) ) ;
#195 = FACE_OUTER_BOUND ( 'NONE', #253, .T. ) ;
#196 = DIRECTION ( 'NONE',  ( 1.000000000000000000, 0.0000000000000000000, 0.0000000000000000000 ) ) ;
#197 = VECTOR ( 'NONE', #34, 39.37007874015748143 ) ;
#198 = DIRECTION ( 'NONE',  ( 1.000000000000000000, 0.0000000000000000000, -0.0000000000000000000 ) ) ;
#199 = PRODUCT ( 'Micro_RDE-40', 'Micro_RDE-40', '', ( #93 ) ) ;
#200 = DIRECTION ( 'NONE',  ( -1.000000000000000000, 0.0000000000000000000, 1.224646799147352961E-16 ) ) ;
#201 = PRODUCT_RELATED_PRODUCT_CATEGORY ( 'part', '', ( #199 ) ) ;
#202 = APPLICATION_PROTOCOL_DEFINITION ( 'draft international standard', 'automotive_design', 1998, #106 ) ;
#203 = VECTOR ( 'NONE', #245, 39.37007874015748143 ) ;
#204 = EDGE_CURVE ( 'NONE', #192, #56, #267, .T. ) ;
#205 = ADVANCED_FACE ( 'NONE', ( #155 ), #49, .T. ) ;
#206 =( CONVERSION_BASED_UNIT ( 'INCH', #183 ) LENGTH_UNIT ( ) NAMED_UNIT ( #8 ) );
#207 = ORIENTED_EDGE ( 'NONE', *, *, #45, .T. ) ;
#208 = EDGE_CURVE ( 'NONE', #58, #145, #65, .T. ) ;
#209 = EDGE_LOOP ( 'NONE', ( #210, #78, #118, #71 ) ) ;
#210 = ORIENTED_EDGE ( 'NONE', *, *, #140, .F. ) ;
#211 = CARTESIAN_POINT ( 'NONE',  ( -0.09375000000000001388, 0.0000000000000000000, 2.000000000000000000 ) ) ;
#212 = ORIENTED_EDGE ( 'NONE', *, *, #126, .T. ) ;
#213 = AXIS2_PLACEMENT_3D ( 'NONE', #223, #108, #132 ) ;
#214 = CYLINDRICAL_SURFACE ( 'NONE', #70, 0.09375000000000001388 ) ;
#215 = ADVANCED_FACE ( 'NONE', ( #288 ), #134, .T. ) ;
#216 = DIRECTION ( 'NONE',  ( -0.0000000000000000000, -0.0000000000000000000, -1.000000000000000000 ) ) ;
#217 = CIRCLE ( 'NONE', #138, 0.09375000000000001388 ) ;
#218 = CARTESIAN_POINT ( 'NONE',  ( 7.654042494670957853E-17, 0.0000000000000000000, 0.6250000000000000000 ) ) ;
#219 = CARTESIAN_POINT ( 'NONE',  ( 0.0000000000000000000, 0.0000000000000000000, 0.0000000000000000000 ) ) ;
#220 = CARTESIAN_POINT ( 'NONE',  ( 0.0000000000000000000, 0.0000000000000000000, 0.0000000000000000000 ) ) ;
#221 = MANIFOLD_SOLID_BREP ( 'Cut-Revolve1', #222 ) ;
#222 = CLOSED_SHELL ( 'NONE', ( #276, #271, #291, #175, #39, #215, #289, #205, #188, #237 ) ) ;
#223 = CARTESIAN_POINT ( 'NONE',  ( 7.654042494670957853E-17, 0.0000000000000000000, 0.6250000000000000000 ) ) ;
#224 = CARTESIAN_POINT ( 'NONE',  ( -0.09365624999999999645, 0.0000000000000000000, 1.146958267826442798E-17 ) ) ;
#225 =( NAMED_UNIT ( * ) SI_UNIT ( $, .STERADIAN. ) SOLID_ANGLE_UNIT ( ) );
#226 = APPLICATION_PROTOCOL_DEFINITION ( 'draft international standard', 'automotive_design', 1998, #294 ) ;
#227 = AXIS2_PLACEMENT_3D ( 'NONE', #220, #265, #151 ) ;
#228 = ORIENTED_EDGE ( 'NONE', *, *, #35, .F. ) ;
#229 = AXIS2_PLACEMENT_3D ( 'NONE', #9, #103, #194 ) ;
#230 = EDGE_LOOP ( 'NONE', ( #99, #29, #24, #139 ) ) ;
#231 = DIRECTION ( 'NONE',  ( -0.0000000000000000000, -0.0000000000000000000, -1.000000000000000000 ) ) ;
#232 = DIRECTION ( 'NONE',  ( 1.000000000000000000, 0.0000000000000000000, 0.0000000000000000000 ) ) ;
#233 = CARTESIAN_POINT ( 'NONE',  ( 7.654042494670957853E-17, 0.0000000000000000000, 0.6250000000000000000 ) ) ;
#234 = ORIENTED_EDGE ( 'NONE', *, *, #125, .T. ) ;
#235 = CARTESIAN_POINT ( 'NONE',  ( 0.09375000000000001388, 1.148106374200643863E-17, 1.984999999999999654 ) ) ;
#236 = ORIENTED_EDGE ( 'NONE', *, *, #135, .T. ) ;
#237 = ADVANCED_FACE ( 'NONE', ( #68 ), #169, .F. ) ;
#238 = LINE ( 'NONE', #127, #197 ) ;
#239 = LINE ( 'NONE', #224, #286 ) ;
#240 = FACE_OUTER_BOUND ( 'NONE', #209, .T. ) ;
#241 = AXIS2_PLACEMENT_3D ( 'NONE', #63, #67, #248 ) ;
#242 = CARTESIAN_POINT ( 'NONE',  ( -0.07874999999999980627, 0.0000000000000000000, 2.000000000000000000 ) ) ;
#243 = UNCERTAINTY_MEASURE_WITH_UNIT (LENGTH_MEASURE( 1.000000000000000082E-05 ), #46, 'distance_accuracy_value', 'NONE');
#244 = SURFACE_STYLE_FILL_AREA ( #176 ) ;
#245 = DIRECTION ( 'NONE',  ( 0.1736481776669313859, 0.0000000000000000000, 0.9848077530122077983 ) ) ;
#246 = CIRCLE ( 'NONE', #11, 0.07874999999999980627 ) ;
#247 = COLOUR_RGB ( '',0.7921568627450980005, 0.8196078431372548767, 0.9333333333333333481 ) ;
#248 = DIRECTION ( 'NONE',  ( -1.000000000000000000, 0.0000000000000000000, 1.224646799147352961E-16 ) ) ;
#249 = DIRECTION ( 'NONE',  ( 0.0000000000000000000, 0.0000000000000000000, -1.000000000000000000 ) ) ;
#250 = LENGTH_MEASURE_WITH_UNIT ( LENGTH_MEASURE( 0.02539999999999999897 ), #177 );
#251 = SURFACE_STYLE_USAGE ( .BOTH. , #119 ) ;
#252 = CIRCLE ( 'NONE', #263, 0.09365624999999996869 ) ;
#253 = EDGE_LOOP ( 'NONE', ( #261, #212, #96, #147 ) ) ;
#254 = DIRECTION ( 'NONE',  ( 1.000000000000000000, 0.0000000000000000000, 0.0000000000000000000 ) ) ;
#255 = ORIENTED_EDGE ( 'NONE', *, *, #35, .T. ) ;
#256 = CYLINDRICAL_SURFACE ( 'NONE', #280, 0.09375000000000001388 ) ;
#257 = DIRECTION ( 'NONE',  ( 0.0000000000000000000, 0.0000000000000000000, -1.000000000000000000 ) ) ;
#258 = DIRECTION ( 'NONE',  ( 1.000000000000000000, 0.0000000000000000000, 0.0000000000000000000 ) ) ;
#259 = ORIENTED_EDGE ( 'NONE', *, *, #23, .T. ) ;
#260 = LINE ( 'NONE', #10, #270 ) ;
#261 = ORIENTED_EDGE ( 'NONE', *, *, #135, .F. ) ;
#262 = DIRECTION ( 'NONE',  ( -1.224646799147353207E-16, -0.0000000000000000000, -1.000000000000000000 ) ) ;
#263 = AXIS2_PLACEMENT_3D ( 'NONE', #167, #144, #59 ) ;
#264 = DIRECTION ( 'NONE',  ( 0.7071067811865463515, 8.659560562354916834E-17, -0.7071067811865486830 ) ) ;
#265 = DIRECTION ( 'NONE',  ( 0.0000000000000000000, 0.0000000000000000000, 1.000000000000000000 ) ) ;
#266 = VECTOR ( 'NONE', #216, 39.37007874015748143 ) ;
#267 = LINE ( 'NONE', #17, #203 ) ;
#268 = SURFACE_SIDE_STYLE ('',( #244 ) ) ;
#269 =( CONVERSION_BASED_UNIT ( 'INCH', #69 ) LENGTH_UNIT ( ) NAMED_UNIT ( #62 ) );
#270 = VECTOR ( 'NONE', #264, 39.37007874015748143 ) ;
#271 = ADVANCED_FACE ( 'NONE', ( #195 ), #179, .T. ) ;
#272 = VERTEX_POINT ( 'NONE', #107 ) ;
#273 = FILL_AREA_STYLE ('',( #181 ) ) ;
#274 = DIRECTION ( 'NONE',  ( 0.0000000000000000000, 0.0000000000000000000, 1.000000000000000000 ) ) ;
#275 =( NAMED_UNIT ( * ) SI_UNIT ( $, .STERADIAN. ) SOLID_ANGLE_UNIT ( ) );
#276 = ADVANCED_FACE ( 'NONE', ( #290 ), #64, .T. ) ;
#277 = ORIENTED_EDGE ( 'NONE', *, *, #14, .F. ) ;
#278 = CARTESIAN_POINT ( 'NONE',  ( -0.09365624999999991318, 1.146958267826442644E-17, 0.6250000000000000000 ) ) ;
#279 = DIRECTION ( 'NONE',  ( -1.000000000000000000, 0.0000000000000000000, 0.0000000000000000000 ) ) ;
#280 = AXIS2_PLACEMENT_3D ( 'NONE', #142, #231, #121 ) ;
#281 = AXIS2_PLACEMENT_3D ( 'NONE', #154, #170, #200 ) ;
#282 = EDGE_LOOP ( 'NONE', ( #141, #91, #51, #28 ) ) ;
#283 = FACE_OUTER_BOUND ( 'NONE', #282, .T. ) ;
#284 = VERTEX_POINT ( 'NONE', #21 ) ;
#285 = CARTESIAN_POINT ( 'NONE',  ( 0.09375000000000001388, 1.148106374200643863E-17, 2.000000000000000000 ) ) ;
#286 = VECTOR ( 'NONE', #193, 39.37007874015748143 ) ;
#287 = MECHANICAL_DESIGN_GEOMETRIC_PRESENTATION_REPRESENTATION (  '', ( #100 ), #148 ) ;
#288 = FACE_OUTER_BOUND ( 'NONE', #97, .T. ) ;
#289 = ADVANCED_FACE ( 'NONE', ( #115 ), #133, .T. ) ;
#290 = FACE_OUTER_BOUND ( 'NONE', #26, .T. ) ;
#291 = ADVANCED_FACE ( 'NONE', ( #116 ), #105, .T. ) ;
#292 =( GEOMETRIC_REPRESENTATION_CONTEXT ( 3 ) GLOBAL_UNCERTAINTY_ASSIGNED_CONTEXT ( ( #16 ) ) GLOBAL_UNIT_ASSIGNED_CONTEXT ( ( #269, #114, #129 ) ) REPRESENTATION_CONTEXT ( 'NONE', 'WORKASPACE' ) );
#293 = DIRECTION ( 'NONE',  ( 0.0000000000000000000, 0.0000000000000000000, 1.000000000000000000 ) ) ;
#294 = APPLICATION_CONTEXT ( 'automotive_design' ) ;
#295 = AXIS2_PLACEMENT_3D ( 'NONE', #233, #191, #101 ) ;
#296 = CARTESIAN_POINT ( 'NONE',  ( 0.0000000000000000000, 0.0000000000000000000, 2.000000000000000000 ) ) ;
#297 = VECTOR ( 'NONE', #15, 39.37007874015748143 ) ;
#298 = ORIENTED_EDGE ( 'NONE', *, *, #185, .T. ) ;
#299 = ORIENTED_EDGE ( 'NONE', *, *, #20, .F. ) ;
ENDSEC;
END-ISO-10303-21;
