ISO-10303-21;
HEADER;
FILE_DESCRIPTION (( 'STEP AP214' ),
    '1' );
FILE_NAME ('Micro_BEM-437-02X.STEP',
    '2021-09-03T13:14:08',
    ( '' ),
    ( '' ),
    'SwSTEP 2.0',
    'SolidWorks 2020',
    '' );
FILE_SCHEMA (( 'AUTOMOTIVE_DESIGN' ));
ENDSEC;

DATA;
#1 = VERTEX_POINT ( 'NONE', #256 ) ;
#2 = DIRECTION ( 'NONE',  ( -1.000000000000000000, 0.0000000000000000000, 0.0000000000000000000 ) ) ;
#3 = EDGE_CURVE ( 'NONE', #44, #105, #216, .T. ) ;
#4 = CARTESIAN_POINT ( 'NONE',  ( 0.0000000000000000000, 0.0000000000000000000, 0.0000000000000000000 ) ) ;
#5 = SPHERICAL_SURFACE ( 'NONE', #275, 0.2182814999999999894 ) ;
#6 = CONICAL_SURFACE ( 'NONE', #281, 0.2350000000000003753, 0.7853981633974278509 ) ;
#7 = CARTESIAN_POINT ( 'NONE',  ( 1.444941840454609674E-16, 0.0000000000000000000, 1.179884552395543462 ) ) ;
#8 = FACE_OUTER_BOUND ( 'NONE', #247, .T. ) ;
#9 = AXIS2_PLACEMENT_3D ( 'NONE', #160, #307, #28 ) ;
#10 = CIRCLE ( 'NONE', #62, 0.2182814999999999894 ) ;
#11 = PRODUCT_DEFINITION ( 'UNKNOWN', '', #210, #193 ) ;
#12 = ORIENTED_EDGE ( 'NONE', *, *, #302, .T. ) ;
#13 = EDGE_CURVE ( 'NONE', #254, #126, #83, .T. ) ;
#14 = CARTESIAN_POINT ( 'NONE',  ( -0.2500000000000000000, 0.0000000000000000000, 2.484999999999999876 ) ) ;
#15 = AXIS2_PLACEMENT_3D ( 'NONE', #238, #213, #324 ) ;
#16 = LENGTH_MEASURE_WITH_UNIT ( LENGTH_MEASURE( 0.02539999999999999897 ), #220 );
#17 = CONICAL_SURFACE ( 'NONE', #146, 0.2350000000000003753, 0.7853981633974278509 ) ;
#18 = ORIENTED_EDGE ( 'NONE', *, *, #302, .F. ) ;
#19 = CARTESIAN_POINT ( 'NONE',  ( 0.2500000000000001110, 3.061616997868384251E-17, 1.179884552395543462 ) ) ;
#20 = ORIENTED_EDGE ( 'NONE', *, *, #159, .F. ) ;
#21 = LINE ( 'NONE', #171, #119 ) ;
#22 = LINE ( 'NONE', #57, #141 ) ;
#23 = ORIENTED_EDGE ( 'NONE', *, *, #316, .T. ) ;
#24 = FACE_OUTER_BOUND ( 'NONE', #32, .T. ) ;
#25 = DIRECTION ( 'NONE',  ( -1.000000000000000000, 0.0000000000000000000, 1.224646799147353207E-16 ) ) ;
#26 = DIRECTION ( 'NONE',  ( -1.000000000000000000, 0.0000000000000000000, 1.224646799147353207E-16 ) ) ;
#27 = ORIENTED_EDGE ( 'NONE', *, *, #144, .T. ) ;
#28 = DIRECTION ( 'NONE',  ( -1.000000000000000000, 0.0000000000000000000, 1.564406508146741254E-16 ) ) ;
#29 = CARTESIAN_POINT ( 'NONE',  ( 1.444941840454609674E-16, 0.0000000000000000000, 1.179884552395543462 ) ) ;
#30 = FACE_OUTER_BOUND ( 'NONE', #46, .T. ) ;
#31 =( LENGTH_UNIT ( ) NAMED_UNIT ( * ) SI_UNIT ( $, .METRE. ) );
#32 = EDGE_LOOP ( 'NONE', ( #197, #54, #205, #284 ) ) ;
#33 = DIRECTION ( 'NONE',  ( -0.0000000000000000000, -0.0000000000000000000, -1.000000000000000000 ) ) ;
#34 = CYLINDRICAL_SURFACE ( 'NONE', #50, 0.2500000000000000000 ) ;
#35 = ADVANCED_FACE ( 'NONE', ( #112 ), #6, .T. ) ;
#36 = MECHANICAL_DESIGN_GEOMETRIC_PRESENTATION_REPRESENTATION (  '', ( #174 ), #148 ) ;
#37 = CARTESIAN_POINT ( 'NONE',  ( 0.0000000000000000000, 0.0000000000000000000, 0.0000000000000000000 ) ) ;
#38 = APPLICATION_PROTOCOL_DEFINITION ( 'draft international standard', 'automotive_design', 1998, #190 ) ;
#39 = SURFACE_STYLE_USAGE ( .BOTH. , #290 ) ;
#40 = COLOUR_RGB ( '',0.7921568627450980005, 0.8196078431372548767, 0.9333333333333333481 ) ;
#41 = DIRECTION ( 'NONE',  ( 0.1736481776669314137, 0.0000000000000000000, 0.9848077530122077983 ) ) ;
#42 = ORIENTED_EDGE ( 'NONE', *, *, #204, .F. ) ;
#43 = DIRECTION ( 'NONE',  ( -0.0000000000000000000, -0.0000000000000000000, -1.000000000000000000 ) ) ;
#44 = VERTEX_POINT ( 'NONE', #262 ) ;
#45 = CARTESIAN_POINT ( 'NONE',  ( 0.0000000000000000000, 0.0000000000000000000, 2.500000000000000000 ) ) ;
#46 = EDGE_LOOP ( 'NONE', ( #132, #109, #23, #227 ) ) ;
#47 = CYLINDRICAL_SURFACE ( 'NONE', #94, 0.2500000000000000000 ) ;
#48 = CARTESIAN_POINT ( 'NONE',  ( 0.0000000000000000000, 0.0000000000000000000, 0.0000000000000000000 ) ) ;
#49 =( GEOMETRIC_REPRESENTATION_CONTEXT ( 3 ) GLOBAL_UNCERTAINTY_ASSIGNED_CONTEXT ( ( #217 ) ) GLOBAL_UNIT_ASSIGNED_CONTEXT ( ( #261, #136, #264 ) ) REPRESENTATION_CONTEXT ( 'NONE', 'WORKASPACE' ) );
#50 = AXIS2_PLACEMENT_3D ( 'NONE', #113, #133, #2 ) ;
#51 = ORIENTED_EDGE ( 'NONE', *, *, #237, .T. ) ;
#52 = CONICAL_SURFACE ( 'NONE', #211, 0.2182814999999999894, 0.1745329251994339192 ) ;
#53 = CARTESIAN_POINT ( 'NONE',  ( 2.673177402880829906E-17, 0.0000000000000000000, 0.2182814999999999894 ) ) ;
#54 = ORIENTED_EDGE ( 'NONE', *, *, #159, .T. ) ;
#55 = DIRECTION ( 'NONE',  ( -1.224646799147353207E-16, -0.0000000000000000000, -1.000000000000000000 ) ) ;
#56 = DIRECTION ( 'NONE',  ( 0.0000000000000000000, 1.000000000000000000, 0.0000000000000000000 ) ) ;
#57 = CARTESIAN_POINT ( 'NONE',  ( -0.2500000000000000000, 0.0000000000000000000, 2.500000000000000000 ) ) ;
#58 = PLANE ( 'NONE',  #15 ) ;
#59 = DIRECTION ( 'NONE',  ( 1.224646799147353207E-16, 0.0000000000000000000, 1.000000000000000000 ) ) ;
#60 = VECTOR ( 'NONE', #128, 39.37007874015748143 ) ;
#61 = AXIS2_PLACEMENT_3D ( 'NONE', #48, #255, #26 ) ;
#62 = AXIS2_PLACEMENT_3D ( 'NONE', #155, #187, #79 ) ;
#63 =( LENGTH_UNIT ( ) NAMED_UNIT ( * ) SI_UNIT ( $, .METRE. ) );
#64 = ADVANCED_FACE ( 'NONE', ( #8 ), #231, .T. ) ;
#65 = VERTEX_POINT ( 'NONE', #82 ) ;
#66 = FILL_AREA_STYLE ('',( #276 ) ) ;
#67 = VECTOR ( 'NONE', #85, 39.37007874015748854 ) ;
#68 = ADVANCED_FACE ( 'NONE', ( #30 ), #323, .T. ) ;
#69 = DIRECTION ( 'NONE',  ( -1.000000000000000000, 0.0000000000000000000, 0.0000000000000000000 ) ) ;
#70 = ORIENTED_EDGE ( 'NONE', *, *, #13, .F. ) ;
#71 = ORIENTED_EDGE ( 'NONE', *, *, #144, .F. ) ;
#72 = CARTESIAN_POINT ( 'NONE',  ( 2.673177402880829906E-17, 0.0000000000000000000, 0.2182814999999999894 ) ) ;
#73 = EDGE_CURVE ( 'NONE', #1, #105, #127, .T. ) ;
#74 = CIRCLE ( 'NONE', #176, 0.2350000000000003753 ) ;
#75 = ORIENTED_EDGE ( 'NONE', *, *, #221, .F. ) ;
#76 = DIRECTION ( 'NONE',  ( -1.224646799147353207E-16, -0.0000000000000000000, -1.000000000000000000 ) ) ;
#77 = CARTESIAN_POINT ( 'NONE',  ( 0.2182815000000001282, 0.0000000000000000000, 1.000000000000000000 ) ) ;
#78 = ORIENTED_EDGE ( 'NONE', *, *, #293, .T. ) ;
#79 = DIRECTION ( 'NONE',  ( -1.000000000000000000, 0.0000000000000000000, 0.0000000000000000000 ) ) ;
#80 = EDGE_LOOP ( 'NONE', ( #71, #236, #135, #12 ) ) ;
#81 = DIRECTION ( 'NONE',  ( 1.000000000000000000, 0.0000000000000000000, 0.0000000000000000000 ) ) ;
#82 = CARTESIAN_POINT ( 'NONE',  ( 4.009766104321244243E-17, 0.0000000000000000000, 0.0000000000000000000 ) ) ;
#83 = CIRCLE ( 'NONE', #321, 0.2500000000000000000 ) ;
#84 = DIRECTION ( 'NONE',  ( 0.0000000000000000000, 1.000000000000000000, 0.0000000000000000000 ) ) ;
#85 = DIRECTION ( 'NONE',  ( -0.7071067811865330288, 0.0000000000000000000, -0.7071067811865618946 ) ) ;
#86 = DIRECTION ( 'NONE',  ( -1.000000000000000000, 1.224646799147353207E-16, 0.0000000000000000000 ) ) ;
#87 = LINE ( 'NONE', #235, #189 ) ;
#88 = EDGE_CURVE ( 'NONE', #105, #254, #22, .T. ) ;
#89 = DIRECTION ( 'NONE',  ( 0.0000000000000000000, 0.0000000000000000000, -1.000000000000000000 ) ) ;
#90 = AXIS2_PLACEMENT_3D ( 'NONE', #72, #150, #117 ) ;
#91 = CONICAL_SURFACE ( 'NONE', #101, 0.2182814999999999894, 0.1745329251994339192 ) ;
#92 = ADVANCED_BREP_SHAPE_REPRESENTATION ( 'Micro_BEM-437-02X', ( #142, #167 ), #49 ) ;
#93 =( NAMED_UNIT ( * ) SI_UNIT ( $, .STERADIAN. ) SOLID_ANGLE_UNIT ( ) );
#94 = AXIS2_PLACEMENT_3D ( 'NONE', #317, #43, #69 ) ;
#95 = DIMENSIONAL_EXPONENTS ( 1.000000000000000000, 0.0000000000000000000, 0.0000000000000000000, 0.0000000000000000000, 0.0000000000000000000, 0.0000000000000000000, 0.0000000000000000000 ) ;
#96 = EDGE_CURVE ( 'NONE', #165, #102, #268, .T. ) ;
#97 = DIRECTION ( 'NONE',  ( -1.000000000000000000, 0.0000000000000000000, 0.0000000000000000000 ) ) ;
#98 = LINE ( 'NONE', #77, #241 ) ;
#99 = ORIENTED_EDGE ( 'NONE', *, *, #139, .F. ) ;
#100 =( NAMED_UNIT ( * ) SI_UNIT ( $, .STERADIAN. ) SOLID_ANGLE_UNIT ( ) );
#101 = AXIS2_PLACEMENT_3D ( 'NONE', #183, #59, #181 ) ;
#102 = VERTEX_POINT ( 'NONE', #169 ) ;
#103 = DIRECTION ( 'NONE',  ( 1.000000000000000000, 0.0000000000000000000, 0.0000000000000000000 ) ) ;
#104 = AXIS2_PLACEMENT_3D ( 'NONE', #4, #76, #25 ) ;
#105 = VERTEX_POINT ( 'NONE', #14 ) ;
#106 = DIRECTION ( 'NONE',  ( 1.224646799147353207E-16, 0.0000000000000000000, 1.000000000000000000 ) ) ;
#107 = ORIENTED_EDGE ( 'NONE', *, *, #73, .T. ) ;
#108 = FACE_OUTER_BOUND ( 'NONE', #172, .T. ) ;
#109 = ORIENTED_EDGE ( 'NONE', *, *, #96, .T. ) ;
#110 = DIRECTION ( 'NONE',  ( 1.000000000000000000, 0.0000000000000000000, 0.0000000000000000000 ) ) ;
#111 = VECTOR ( 'NONE', #245, 39.37007874015748854 ) ;
#112 = FACE_OUTER_BOUND ( 'NONE', #271, .T. ) ;
#113 = CARTESIAN_POINT ( 'NONE',  ( 0.0000000000000000000, 0.0000000000000000000, 2.500000000000000000 ) ) ;
#114 = PRESENTATION_LAYER_ASSIGNMENT (  '', '', ( #309 ) ) ;
#115 = UNCERTAINTY_MEASURE_WITH_UNIT (LENGTH_MEASURE( 1.000000000000000082E-05 ), #116, 'distance_accuracy_value', 'NONE');
#116 =( CONVERSION_BASED_UNIT ( 'INCH', #143 ) LENGTH_UNIT ( ) NAMED_UNIT ( #311 ) );
#117 = DIRECTION ( 'NONE',  ( 0.0000000000000000000, 0.0000000000000000000, -1.000000000000000000 ) ) ;
#118 = CIRCLE ( 'NONE', #9, 0.2182814999999999894 ) ;
#119 = VECTOR ( 'NONE', #294, 39.37007874015747433 ) ;
#120 =( NAMED_UNIT ( * ) PLANE_ANGLE_UNIT ( ) SI_UNIT ( $, .RADIAN. ) );
#121 = ORIENTED_EDGE ( 'NONE', *, *, #204, .T. ) ;
#122 = CARTESIAN_POINT ( 'NONE',  ( 1.224646799147353207E-16, 0.0000000000000000000, 1.000000000000000000 ) ) ;
#123 = PRESENTATION_LAYER_ASSIGNMENT (  '', '', ( #174 ) ) ;
#124 = PRODUCT ( 'Micro_BEM-437-02X', 'Micro_BEM-437-02X', '', ( #195 ) ) ;
#125 = COLOUR_RGB ( '',0.7921568627450980005, 0.8196078431372548767, 0.9333333333333333481 ) ;
#126 = VERTEX_POINT ( 'NONE', #19 ) ;
#127 = LINE ( 'NONE', #140, #67 ) ;
#128 = DIRECTION ( 'NONE',  ( -0.0000000000000000000, -0.0000000000000000000, -1.000000000000000000 ) ) ;
#129 = DIRECTION ( 'NONE',  ( -1.224646799147353207E-16, -0.0000000000000000000, -1.000000000000000000 ) ) ;
#130 = EDGE_LOOP ( 'NONE', ( #121, #300 ) ) ;
#131 = CARTESIAN_POINT ( 'NONE',  ( 0.2182814999999999894, 2.673177402880829906E-17, -2.673177402880829906E-17 ) ) ;
#132 = ORIENTED_EDGE ( 'NONE', *, *, #289, .F. ) ;
#133 = DIRECTION ( 'NONE',  ( -0.0000000000000000000, -0.0000000000000000000, -1.000000000000000000 ) ) ;
#134 = ADVANCED_FACE ( 'NONE', ( #24 ), #17, .T. ) ;
#135 = ORIENTED_EDGE ( 'NONE', *, *, #198, .T. ) ;
#136 =( NAMED_UNIT ( * ) PLANE_ANGLE_UNIT ( ) SI_UNIT ( $, .RADIAN. ) );
#137 = EDGE_LOOP ( 'NONE', ( #296, #202, #51, #312 ) ) ;
#138 = FACE_OUTER_BOUND ( 'NONE', #137, .T. ) ;
#139 = EDGE_CURVE ( 'NONE', #65, #149, #253, .T. ) ;
#140 = CARTESIAN_POINT ( 'NONE',  ( -0.2350000000000003753, 0.0000000000000000000, 2.500000000000000000 ) ) ;
#141 = VECTOR ( 'NONE', #33, 39.37007874015748143 ) ;
#142 = MANIFOLD_SOLID_BREP ( 'Fillet1', #168 ) ;
#143 = LENGTH_MEASURE_WITH_UNIT ( LENGTH_MEASURE( 0.02539999999999999897 ), #63 );
#144 = EDGE_CURVE ( 'NONE', #102, #254, #21, .T. ) ;
#145 = SURFACE_STYLE_FILL_AREA ( #308 ) ;
#146 = AXIS2_PLACEMENT_3D ( 'NONE', #45, #295, #97 ) ;
#147 = FACE_OUTER_BOUND ( 'NONE', #223, .T. ) ;
#148 =( GEOMETRIC_REPRESENTATION_CONTEXT ( 3 ) GLOBAL_UNCERTAINTY_ASSIGNED_CONTEXT ( ( #115 ) ) GLOBAL_UNIT_ASSIGNED_CONTEXT ( ( #116, #192, #93 ) ) REPRESENTATION_CONTEXT ( 'NONE', 'WORKASPACE' ) );
#149 = VERTEX_POINT ( 'NONE', #151 ) ;
#150 = DIRECTION ( 'NONE',  ( 0.0000000000000000000, -1.000000000000000000, 0.0000000000000000000 ) ) ;
#151 = CARTESIAN_POINT ( 'NONE',  ( 0.2182815000000000172, 2.673177402880829906E-17, 0.2182814999999999617 ) ) ;
#152 = EDGE_LOOP ( 'NONE', ( #249, #175, #251, #18 ) ) ;
#153 = ADVANCED_FACE ( 'NONE', ( #147 ), #52, .T. ) ;
#154 = VECTOR ( 'NONE', #233, 39.37007874015748143 ) ;
#155 = CARTESIAN_POINT ( 'NONE',  ( 1.224646799147353207E-16, 0.0000000000000000000, 1.000000000000000000 ) ) ;
#156 =( GEOMETRIC_REPRESENTATION_CONTEXT ( 3 ) GLOBAL_UNCERTAINTY_ASSIGNED_CONTEXT ( ( #310 ) ) GLOBAL_UNIT_ASSIGNED_CONTEXT ( ( #297, #120, #100 ) ) REPRESENTATION_CONTEXT ( 'NONE', 'WORKASPACE' ) );
#157 = ORIENTED_EDGE ( 'NONE', *, *, #198, .F. ) ;
#158 = CARTESIAN_POINT ( 'NONE',  ( 0.2350000000000003753, 2.969768487932332963E-17, 2.500000000000000000 ) ) ;
#159 = EDGE_CURVE ( 'NONE', #273, #44, #206, .T. ) ;
#160 = CARTESIAN_POINT ( 'NONE',  ( 2.673177402880829906E-17, 0.0000000000000000000, 0.2182814999999999894 ) ) ;
#161 = CIRCLE ( 'NONE', #286, 0.2500000000000000000 ) ;
#162 = VERTEX_POINT ( 'NONE', #299 ) ;
#163 = DIRECTION ( 'NONE',  ( 0.0000000000000000000, 0.0000000000000000000, 1.000000000000000000 ) ) ;
#164 = CIRCLE ( 'NONE', #319, 0.2500000000000000000 ) ;
#165 = VERTEX_POINT ( 'NONE', #222 ) ;
#166 = APPLICATION_PROTOCOL_DEFINITION ( 'draft international standard', 'automotive_design', 1998, #314 ) ;
#167 = AXIS2_PLACEMENT_3D ( 'NONE', #37, #163, #267 ) ;
#168 = CLOSED_SHELL ( 'NONE', ( #218, #260, #153, #134, #229, #194, #272, #35, #246, #68, #64 ) ) ;
#169 = CARTESIAN_POINT ( 'NONE',  ( -0.2182814999999998506, 2.867397200374606154E-17, 1.000000000000000000 ) ) ;
#170 = EDGE_CURVE ( 'NONE', #273, #1, #74, .T. ) ;
#171 = CARTESIAN_POINT ( 'NONE',  ( -0.2182814999999998506, 2.673177402880829906E-17, 1.000000000000000000 ) ) ;
#172 = EDGE_LOOP ( 'NONE', ( #78, #212, #70, #180 ) ) ;
#173 = FACE_OUTER_BOUND ( 'NONE', #182, .T. ) ;
#174 = STYLED_ITEM ( 'NONE', ( #292 ), #92 ) ;
#175 = ORIENTED_EDGE ( 'NONE', *, *, #3, .T. ) ;
#176 = AXIS2_PLACEMENT_3D ( 'NONE', #244, #178, #270 ) ;
#177 = ORIENTED_EDGE ( 'NONE', *, *, #243, .F. ) ;
#178 = DIRECTION ( 'NONE',  ( 0.0000000000000000000, 0.0000000000000000000, 1.000000000000000000 ) ) ;
#179 = PRODUCT_RELATED_PRODUCT_CATEGORY ( 'part', '', ( #124 ) ) ;
#180 = ORIENTED_EDGE ( 'NONE', *, *, #88, .F. ) ;
#181 = DIRECTION ( 'NONE',  ( 1.000000000000000000, 0.0000000000000000000, 0.0000000000000000000 ) ) ;
#182 = EDGE_LOOP ( 'NONE', ( #99, #320, #225 ) ) ;
#183 = CARTESIAN_POINT ( 'NONE',  ( 1.224646799147353207E-16, 0.0000000000000000000, 1.000000000000000000 ) ) ;
#184 = AXIS2_PLACEMENT_3D ( 'NONE', #215, #89, #209 ) ;
#185 = DIRECTION ( 'NONE',  ( 1.000000000000000000, 0.0000000000000000000, 0.0000000000000000000 ) ) ;
#186 = CARTESIAN_POINT ( 'NONE',  ( 2.673177402880829906E-17, 0.0000000000000000000, 0.2182814999999999894 ) ) ;
#187 = DIRECTION ( 'NONE',  ( -1.224646799147353207E-16, -0.0000000000000000000, -1.000000000000000000 ) ) ;
#188 = DIRECTION ( 'NONE',  ( -1.224646799147353207E-16, -0.0000000000000000000, -1.000000000000000000 ) ) ;
#189 = VECTOR ( 'NONE', #188, 39.37007874015748143 ) ;
#190 = APPLICATION_CONTEXT ( 'automotive_design' ) ;
#191 = DIRECTION ( 'NONE',  ( 0.0000000000000000000, 0.0000000000000000000, -1.000000000000000000 ) ) ;
#192 =( NAMED_UNIT ( * ) PLANE_ANGLE_UNIT ( ) SI_UNIT ( $, .RADIAN. ) );
#193 = PRODUCT_DEFINITION_CONTEXT ( 'detailed design', #190, 'design' ) ;
#194 = ADVANCED_FACE ( 'NONE', ( #199 ), #47, .T. ) ;
#195 = PRODUCT_CONTEXT ( 'NONE', #314, 'mechanical' ) ;
#196 = AXIS2_PLACEMENT_3D ( 'NONE', #186, #56, #258 ) ;
#197 = ORIENTED_EDGE ( 'NONE', *, *, #170, .F. ) ;
#198 = EDGE_CURVE ( 'NONE', #165, #126, #98, .T. ) ;
#199 = FACE_OUTER_BOUND ( 'NONE', #152, .T. ) ;
#200 = DIRECTION ( 'NONE',  ( 1.000000000000000000, 0.0000000000000000000, 0.0000000000000000000 ) ) ;
#201 = ORIENTED_EDGE ( 'NONE', *, *, #13, .T. ) ;
#202 = ORIENTED_EDGE ( 'NONE', *, *, #289, .T. ) ;
#203 = CARTESIAN_POINT ( 'NONE',  ( 0.2350000000000003753, 2.877919977996284141E-17, 2.500000000000000000 ) ) ;
#204 = EDGE_CURVE ( 'NONE', #1, #273, #234, .T. ) ;
#205 = ORIENTED_EDGE ( 'NONE', *, *, #293, .F. ) ;
#206 = LINE ( 'NONE', #203, #111 ) ;
#207 = ORIENTED_EDGE ( 'NONE', *, *, #3, .F. ) ;
#208 = DIRECTION ( 'NONE',  ( 1.224646799147353207E-16, 0.0000000000000000000, 1.000000000000000000 ) ) ;
#209 = DIRECTION ( 'NONE',  ( 1.000000000000000000, 0.0000000000000000000, 0.0000000000000000000 ) ) ;
#210 = PRODUCT_DEFINITION_FORMATION_WITH_SPECIFIED_SOURCE ( 'ANY', '', #124, .NOT_KNOWN. ) ;
#211 = AXIS2_PLACEMENT_3D ( 'NONE', #315, #106, #103 ) ;
#212 = ORIENTED_EDGE ( 'NONE', *, *, #265, .T. ) ;
#213 = DIRECTION ( 'NONE',  ( 0.0000000000000000000, 0.0000000000000000000, 1.000000000000000000 ) ) ;
#214 = LINE ( 'NONE', #252, #60 ) ;
#215 = CARTESIAN_POINT ( 'NONE',  ( 0.0000000000000000000, 0.0000000000000000000, 2.484999999999999876 ) ) ;
#216 = CIRCLE ( 'NONE', #184, 0.2500000000000000000 ) ;
#217 = UNCERTAINTY_MEASURE_WITH_UNIT (LENGTH_MEASURE( 1.000000000000000082E-05 ), #261, 'distance_accuracy_value', 'NONE');
#218 = ADVANCED_FACE ( 'NONE', ( #173 ), #5, .T. ) ;
#219 = FILL_AREA_STYLE_COLOUR ( '', #40 ) ;
#220 =( LENGTH_UNIT ( ) NAMED_UNIT ( * ) SI_UNIT ( $, .METRE. ) );
#221 = EDGE_CURVE ( 'NONE', #65, #162, #298, .T. ) ;
#222 = CARTESIAN_POINT ( 'NONE',  ( 0.2182815000000001282, 0.0000000000000000000, 1.000000000000000000 ) ) ;
#223 = EDGE_LOOP ( 'NONE', ( #177, #27, #201, #157 ) ) ;
#224 = PRESENTATION_STYLE_ASSIGNMENT (( #318 ) ) ;
#225 = ORIENTED_EDGE ( 'NONE', *, *, #237, .F. ) ;
#226 = DIRECTION ( 'NONE',  ( -1.000000000000000000, 0.0000000000000000000, 0.0000000000000000000 ) ) ;
#227 = ORIENTED_EDGE ( 'NONE', *, *, #279, .T. ) ;
#228 = FACE_OUTER_BOUND ( 'NONE', #130, .T. ) ;
#229 = ADVANCED_FACE ( 'NONE', ( #108 ), #34, .T. ) ;
#230 = DIRECTION ( 'NONE',  ( 0.0000000000000000000, 0.0000000000000000000, -1.000000000000000000 ) ) ;
#231 = SPHERICAL_SURFACE ( 'NONE', #196, 0.2182814999999999894 ) ;
#232 = CIRCLE ( 'NONE', #240, 0.2182814999999999894 ) ;
#233 = DIRECTION ( 'NONE',  ( -1.224646799147353207E-16, -0.0000000000000000000, -1.000000000000000000 ) ) ;
#234 = CIRCLE ( 'NONE', #304, 0.2350000000000003753 ) ;
#235 = CARTESIAN_POINT ( 'NONE',  ( -0.2182814999999999894, 0.0000000000000000000, 2.673177402880829906E-17 ) ) ;
#236 = ORIENTED_EDGE ( 'NONE', *, *, #96, .F. ) ;
#237 = EDGE_CURVE ( 'NONE', #149, #162, #232, .T. ) ;
#238 = CARTESIAN_POINT ( 'NONE',  ( 0.0000000000000000000, 0.0000000000000000000, 2.500000000000000000 ) ) ;
#239 = SHAPE_DEFINITION_REPRESENTATION ( #274, #92 ) ;
#240 = AXIS2_PLACEMENT_3D ( 'NONE', #280, #208, #301 ) ;
#241 = VECTOR ( 'NONE', #41, 39.37007874015748143 ) ;
#242 = ORIENTED_EDGE ( 'NONE', *, *, #279, .F. ) ;
#243 = EDGE_CURVE ( 'NONE', #102, #165, #10, .T. ) ;
#244 = CARTESIAN_POINT ( 'NONE',  ( 0.0000000000000000000, 0.0000000000000000000, 2.500000000000000000 ) ) ;
#245 = DIRECTION ( 'NONE',  ( 0.7071067811865330288, 8.659560562354755364E-17, -0.7071067811865618946 ) ) ;
#246 = ADVANCED_FACE ( 'NONE', ( #283 ), #91, .T. ) ;
#247 = EDGE_LOOP ( 'NONE', ( #75, #263, #242 ) ) ;
#248 = SURFACE_SIDE_STYLE ('',( #322 ) ) ;
#249 = ORIENTED_EDGE ( 'NONE', *, *, #265, .F. ) ;
#250 = DIRECTION ( 'NONE',  ( 0.0000000000000000000, 0.0000000000000000000, 1.000000000000000000 ) ) ;
#251 = ORIENTED_EDGE ( 'NONE', *, *, #88, .T. ) ;
#252 = CARTESIAN_POINT ( 'NONE',  ( 0.2500000000000000000, 3.061616997868383018E-17, 2.500000000000000000 ) ) ;
#253 = CIRCLE ( 'NONE', #90, 0.2182814999999999894 ) ;
#254 = VERTEX_POINT ( 'NONE', #285 ) ;
#255 = DIRECTION ( 'NONE',  ( -1.224646799147353207E-16, -0.0000000000000000000, -1.000000000000000000 ) ) ;
#256 = CARTESIAN_POINT ( 'NONE',  ( -0.2350000000000003753, 0.0000000000000000000, 2.500000000000000000 ) ) ;
#257 = LENGTH_MEASURE_WITH_UNIT ( LENGTH_MEASURE( 0.02539999999999999897 ), #31 );
#258 = DIRECTION ( 'NONE',  ( 1.000000000000000000, 0.0000000000000000000, 0.0000000000000000000 ) ) ;
#259 = LINE ( 'NONE', #131, #154 ) ;
#260 = ADVANCED_FACE ( 'NONE', ( #138 ), #278, .T. ) ;
#261 =( CONVERSION_BASED_UNIT ( 'INCH', #257 ) LENGTH_UNIT ( ) NAMED_UNIT ( #95 ) );
#262 = CARTESIAN_POINT ( 'NONE',  ( 0.2500000000000000000, 3.061616997868383018E-17, 2.484999999999999876 ) ) ;
#263 = ORIENTED_EDGE ( 'NONE', *, *, #139, .T. ) ;
#264 =( NAMED_UNIT ( * ) SI_UNIT ( $, .STERADIAN. ) SOLID_ANGLE_UNIT ( ) );
#265 = EDGE_CURVE ( 'NONE', #44, #126, #214, .T. ) ;
#266 = AXIS2_PLACEMENT_3D ( 'NONE', #122, #269, #226 ) ;
#267 = DIRECTION ( 'NONE',  ( 1.000000000000000000, 0.0000000000000000000, 0.0000000000000000000 ) ) ;
#268 = CIRCLE ( 'NONE', #266, 0.2182814999999999894 ) ;
#269 = DIRECTION ( 'NONE',  ( -1.224646799147353207E-16, -0.0000000000000000000, -1.000000000000000000 ) ) ;
#270 = DIRECTION ( 'NONE',  ( 1.000000000000000000, 0.0000000000000000000, 0.0000000000000000000 ) ) ;
#271 = EDGE_LOOP ( 'NONE', ( #20, #42, #107, #207 ) ) ;
#272 = ADVANCED_FACE ( 'NONE', ( #228 ), #58, .T. ) ;
#273 = VERTEX_POINT ( 'NONE', #158 ) ;
#274 = PRODUCT_DEFINITION_SHAPE ( 'NONE', 'NONE',  #11 ) ;
#275 = AXIS2_PLACEMENT_3D ( 'NONE', #306, #84, #81 ) ;
#276 = FILL_AREA_STYLE_COLOUR ( '', #125 ) ;
#277 = CARTESIAN_POINT ( 'NONE',  ( 0.0000000000000000000, 0.0000000000000000000, 2.500000000000000000 ) ) ;
#278 = CYLINDRICAL_SURFACE ( 'NONE', #61, 0.2182814999999999894 ) ;
#279 = EDGE_CURVE ( 'NONE', #162, #149, #118, .T. ) ;
#280 = CARTESIAN_POINT ( 'NONE',  ( 2.673177402880829906E-17, 0.0000000000000000000, 0.2182814999999999894 ) ) ;
#281 = AXIS2_PLACEMENT_3D ( 'NONE', #305, #191, #288 ) ;
#282 = AXIS2_PLACEMENT_3D ( 'NONE', #53, #303, #86 ) ;
#283 = FACE_OUTER_BOUND ( 'NONE', #80, .T. ) ;
#284 = ORIENTED_EDGE ( 'NONE', *, *, #73, .F. ) ;
#285 = CARTESIAN_POINT ( 'NONE',  ( -0.2499999999999998612, 0.0000000000000000000, 1.179884552395543462 ) ) ;
#286 = AXIS2_PLACEMENT_3D ( 'NONE', #287, #230, #185 ) ;
#287 = CARTESIAN_POINT ( 'NONE',  ( 0.0000000000000000000, 0.0000000000000000000, 2.484999999999999876 ) ) ;
#288 = DIRECTION ( 'NONE',  ( -1.000000000000000000, 0.0000000000000000000, 0.0000000000000000000 ) ) ;
#289 = EDGE_CURVE ( 'NONE', #165, #149, #259, .T. ) ;
#290 = SURFACE_SIDE_STYLE ('',( #145 ) ) ;
#291 = MECHANICAL_DESIGN_GEOMETRIC_PRESENTATION_REPRESENTATION (  '', ( #309 ), #156 ) ;
#292 = PRESENTATION_STYLE_ASSIGNMENT (( #39 ) ) ;
#293 = EDGE_CURVE ( 'NONE', #105, #44, #161, .T. ) ;
#294 = DIRECTION ( 'NONE',  ( -0.1736481776669312194, 2.126576849575783625E-17, 0.9848077530122080203 ) ) ;
#295 = DIRECTION ( 'NONE',  ( 0.0000000000000000000, 0.0000000000000000000, -1.000000000000000000 ) ) ;
#296 = ORIENTED_EDGE ( 'NONE', *, *, #243, .T. ) ;
#297 =( CONVERSION_BASED_UNIT ( 'INCH', #16 ) LENGTH_UNIT ( ) NAMED_UNIT ( #313 ) );
#298 = CIRCLE ( 'NONE', #282, 0.2182814999999999894 ) ;
#299 = CARTESIAN_POINT ( 'NONE',  ( -0.2182814999999999617, 0.0000000000000000000, 0.2182815000000000172 ) ) ;
#300 = ORIENTED_EDGE ( 'NONE', *, *, #170, .T. ) ;
#301 = DIRECTION ( 'NONE',  ( -1.000000000000000000, 0.0000000000000000000, 1.564406508146741254E-16 ) ) ;
#302 = EDGE_CURVE ( 'NONE', #126, #254, #164, .T. ) ;
#303 = DIRECTION ( 'NONE',  ( 1.224646799147353207E-16, 1.000000000000000000, -0.0000000000000000000 ) ) ;
#304 = AXIS2_PLACEMENT_3D ( 'NONE', #277, #250, #200 ) ;
#305 = CARTESIAN_POINT ( 'NONE',  ( 0.0000000000000000000, 0.0000000000000000000, 2.500000000000000000 ) ) ;
#306 = CARTESIAN_POINT ( 'NONE',  ( 2.673177402880829906E-17, 0.0000000000000000000, 0.2182814999999999894 ) ) ;
#307 = DIRECTION ( 'NONE',  ( 1.224646799147353207E-16, 0.0000000000000000000, 1.000000000000000000 ) ) ;
#308 = FILL_AREA_STYLE ('',( #219 ) ) ;
#309 = STYLED_ITEM ( 'NONE', ( #224 ), #142 ) ;
#310 = UNCERTAINTY_MEASURE_WITH_UNIT (LENGTH_MEASURE( 1.000000000000000082E-05 ), #297, 'distance_accuracy_value', 'NONE');
#311 = DIMENSIONAL_EXPONENTS ( 1.000000000000000000, 0.0000000000000000000, 0.0000000000000000000, 0.0000000000000000000, 0.0000000000000000000, 0.0000000000000000000, 0.0000000000000000000 ) ;
#312 = ORIENTED_EDGE ( 'NONE', *, *, #316, .F. ) ;
#313 = DIMENSIONAL_EXPONENTS ( 1.000000000000000000, 0.0000000000000000000, 0.0000000000000000000, 0.0000000000000000000, 0.0000000000000000000, 0.0000000000000000000, 0.0000000000000000000 ) ;
#314 = APPLICATION_CONTEXT ( 'automotive_design' ) ;
#315 = CARTESIAN_POINT ( 'NONE',  ( 1.224646799147353207E-16, 0.0000000000000000000, 1.000000000000000000 ) ) ;
#316 = EDGE_CURVE ( 'NONE', #102, #162, #87, .T. ) ;
#317 = CARTESIAN_POINT ( 'NONE',  ( 0.0000000000000000000, 0.0000000000000000000, 2.500000000000000000 ) ) ;
#318 = SURFACE_STYLE_USAGE ( .BOTH. , #248 ) ;
#319 = AXIS2_PLACEMENT_3D ( 'NONE', #7, #55, #110 ) ;
#320 = ORIENTED_EDGE ( 'NONE', *, *, #221, .T. ) ;
#321 = AXIS2_PLACEMENT_3D ( 'NONE', #29, #129, #325 ) ;
#322 = SURFACE_STYLE_FILL_AREA ( #66 ) ;
#323 = CYLINDRICAL_SURFACE ( 'NONE', #104, 0.2182814999999999894 ) ;
#324 = DIRECTION ( 'NONE',  ( 1.000000000000000000, 0.0000000000000000000, -0.0000000000000000000 ) ) ;
#325 = DIRECTION ( 'NONE',  ( 1.000000000000000000, 0.0000000000000000000, 0.0000000000000000000 ) ) ;
ENDSEC;
END-ISO-10303-21;
