ISO-10303-21;
HEADER;
FILE_DESCRIPTION (( 'STEP AP214' ),
    '1' );
FILE_NAME ('59579.STEP',
    '2023-07-24T15:12:30',
    ( '' ),
    ( '' ),
    'SwSTEP 2.0',
    'SolidWorks 2023',
    '' );
FILE_SCHEMA (( 'AUTOMOTIVE_DESIGN' ));
ENDSEC;

DATA;
#1 = VERTEX_POINT ( 'NONE', #256 ) ;
#2 = FACE_OUTER_BOUND ( 'NONE', #155, .T. ) ;
#3 = TOROIDAL_SURFACE ( 'NONE', #202, 3.000000000000000000, 1.000000000000000000 ) ;
#4 = AXIS2_PLACEMENT_3D ( 'NONE', #288, #34, #149 ) ;
#5 = FILL_AREA_STYLE_COLOUR ( '', #175 ) ;
#6 = ADVANCED_BREP_SHAPE_REPRESENTATION ( '59579', ( #183, #312, #166 ), #133 ) ;
#7 = FILL_AREA_STYLE ('',( #9 ) ) ;
#8 = CYLINDRICAL_SURFACE ( 'NONE', #370, 4.000000000000000000 ) ;
#9 = FILL_AREA_STYLE_COLOUR ( '', #69 ) ;
#10 = ADVANCED_FACE ( 'NONE', ( #116 ), #143, .T. ) ;
#11 = MECHANICAL_DESIGN_GEOMETRIC_PRESENTATION_REPRESENTATION (  '', ( #369 ), #19 ) ;
#12 = TOROIDAL_SURFACE ( 'NONE', #237, 3.000000000000000000, 1.000000000000000000 ) ;
#13 = FILL_AREA_STYLE ('',( #346 ) ) ;
#14 = CARTESIAN_POINT ( 'NONE',  ( -3.999999999999987121, 11.99999999999999645, 0.000000000000000000 ) ) ;
#15 = ORIENTED_EDGE ( 'NONE', *, *, #279, .T. ) ;
#16 = FACE_OUTER_BOUND ( 'NONE', #314, .T. ) ;
#17 = ORIENTED_EDGE ( 'NONE', *, *, #191, .F. ) ;
#18 = DIRECTION ( 'NONE',  ( -9.448620473410002383E-17, 1.000000000000000000, -0.000000000000000000 ) ) ;
#19 =( GEOMETRIC_REPRESENTATION_CONTEXT ( 3 ) GLOBAL_UNCERTAINTY_ASSIGNED_CONTEXT ( ( #241 ) ) GLOBAL_UNIT_ASSIGNED_CONTEXT ( ( #284, #292, #32 ) ) REPRESENTATION_CONTEXT ( 'NONE', 'WORKASPACE' ) );
#20 = ORIENTED_EDGE ( 'NONE', *, *, #344, .T. ) ;
#21 = PRODUCT_DEFINITION_FORMATION_WITH_SPECIFIED_SOURCE ( 'ANY', '', #65, .NOT_KNOWN. ) ;
#22 = UNCERTAINTY_MEASURE_WITH_UNIT (LENGTH_MEASURE( 1.000000000000000082E-05 ), #158, 'distance_accuracy_value', 'NONE');
#23 = DIRECTION ( 'NONE',  ( 0.000000000000000000, 0.000000000000000000, -1.000000000000000000 ) ) ;
#24 = DIRECTION ( 'NONE',  ( -9.448620473410002383E-17, 1.000000000000000000, -0.000000000000000000 ) ) ;
#25 = ORIENTED_EDGE ( 'NONE', *, *, #258, .T. ) ;
#26 = PRESENTATION_STYLE_ASSIGNMENT (( #335 ) ) ;
#27 = DIRECTION ( 'NONE',  ( -0.000000000000000000, -1.000000000000000000, -0.000000000000000000 ) ) ;
#28 = PRESENTATION_LAYER_ASSIGNMENT (  '', '', ( #217 ) ) ;
#29 = ADVANCED_FACE ( 'NONE', ( #209 ), #266, .F. ) ;
#30 = CIRCLE ( 'NONE', #37, 4.000000000000000000 ) ;
#31 = DIRECTION ( 'NONE',  ( -1.224646799147352961E-16, 0.000000000000000000, -1.000000000000000000 ) ) ;
#32 =( NAMED_UNIT ( * ) SI_UNIT ( $, .STERADIAN. ) SOLID_ANGLE_UNIT ( ) );
#33 =( GEOMETRIC_REPRESENTATION_CONTEXT ( 3 ) GLOBAL_UNCERTAINTY_ASSIGNED_CONTEXT ( ( #216 ) ) GLOBAL_UNIT_ASSIGNED_CONTEXT ( ( #261, #119, #348 ) ) REPRESENTATION_CONTEXT ( 'NONE', 'WORKASPACE' ) );
#34 = DIRECTION ( 'NONE',  ( -0.000000000000000000, -1.000000000000000000, -0.000000000000000000 ) ) ;
#35 =( NAMED_UNIT ( * ) SI_UNIT ( $, .STERADIAN. ) SOLID_ANGLE_UNIT ( ) );
#36 = COLOUR_RGB ( '',1.000000000000000000, 0.000000000000000000, 0.000000000000000000 ) ;
#37 = AXIS2_PLACEMENT_3D ( 'NONE', #101, #50, #126 ) ;
#38 = DIRECTION ( 'NONE',  ( 0.000000000000000000, 0.000000000000000000, -1.000000000000000000 ) ) ;
#39 = DIRECTION ( 'NONE',  ( -9.448620473410002383E-17, 1.000000000000000000, 0.000000000000000000 ) ) ;
#40 =( GEOMETRIC_REPRESENTATION_CONTEXT ( 3 ) GLOBAL_UNCERTAINTY_ASSIGNED_CONTEXT ( ( #114 ) ) GLOBAL_UNIT_ASSIGNED_CONTEXT ( ( #170, #59, #35 ) ) REPRESENTATION_CONTEXT ( 'NONE', 'WORKASPACE' ) );
#41 = ORIENTED_EDGE ( 'NONE', *, *, #142, .F. ) ;
#42 = ORIENTED_EDGE ( 'NONE', *, *, #363, .F. ) ;
#43 = LINE ( 'NONE', #362, #132 ) ;
#44 = PRODUCT_CONTEXT ( 'NONE', #227, 'mechanical' ) ;
#45 = ORIENTED_EDGE ( 'NONE', *, *, #219, .T. ) ;
#46 =( LENGTH_UNIT ( ) NAMED_UNIT ( * ) SI_UNIT ( .MILLI., .METRE. ) );
#47 =( LENGTH_UNIT ( ) NAMED_UNIT ( * ) SI_UNIT ( .MILLI., .METRE. ) );
#48 = CIRCLE ( 'NONE', #316, 3.000000000000000000 ) ;
#49 = STYLED_ITEM ( 'NONE', ( #308 ), #232 ) ;
#50 = DIRECTION ( 'NONE',  ( -0.000000000000000000, -1.000000000000000000, -0.000000000000000000 ) ) ;
#51 = APPLICATION_PROTOCOL_DEFINITION ( 'draft international standard', 'automotive_design', 1998, #144 ) ;
#52 = DIRECTION ( 'NONE',  ( 0.000000000000000000, 1.000000000000000000, 0.000000000000000000 ) ) ;
#53 = SURFACE_STYLE_FILL_AREA ( #189 ) ;
#54 = AXIS2_PLACEMENT_3D ( 'NONE', #58, #167, #31 ) ;
#55 = ORIENTED_EDGE ( 'NONE', *, *, #326, .F. ) ;
#56 = FILL_AREA_STYLE ('',( #276 ) ) ;
#57 = DIRECTION ( 'NONE',  ( -0.000000000000000000, -1.000000000000000000, -0.000000000000000000 ) ) ;
#58 = CARTESIAN_POINT ( 'NONE',  ( 3.673940397442059868E-16, 1.000000000000000000, 3.000000000000000000 ) ) ;
#59 =( NAMED_UNIT ( * ) PLANE_ANGLE_UNIT ( ) SI_UNIT ( $, .RADIAN. ) );
#60 = MECHANICAL_DESIGN_GEOMETRIC_PRESENTATION_REPRESENTATION (  '', ( #347 ), #85 ) ;
#61 = SURFACE_STYLE_USAGE ( .BOTH. , #318 ) ;
#62 = SURFACE_STYLE_FILL_AREA ( #7 ) ;
#63 = MECHANICAL_DESIGN_GEOMETRIC_PRESENTATION_REPRESENTATION (  '', ( #310 ), #33 ) ;
#64 = CARTESIAN_POINT ( 'NONE',  ( 4.898587196589412829E-16, 0.000000000000000000, 4.000000000000000000 ) ) ;
#65 = PRODUCT ( '59579', '59579', '', ( #44 ) ) ;
#66 = ORIENTED_EDGE ( 'NONE', *, *, #344, .F. ) ;
#67 = CIRCLE ( 'NONE', #203, 4.000000000000000000 ) ;
#68 = DIRECTION ( 'NONE',  ( 9.448620473410002383E-17, -1.000000000000000000, 0.000000000000000000 ) ) ;
#69 = COLOUR_RGB ( '',1.000000000000000000, 0.000000000000000000, 0.000000000000000000 ) ;
#70 = ADVANCED_FACE ( 'NONE', ( #179 ), #361, .F. ) ;
#71 = VERTEX_POINT ( 'NONE', #205 ) ;
#72 = CARTESIAN_POINT ( 'NONE',  ( 0.000000000000000000, 0.000000000000000000, 0.000000000000000000 ) ) ;
#73 = APPLICATION_PROTOCOL_DEFINITION ( 'draft international standard', 'automotive_design', 1998, #227 ) ;
#74 = ORIENTED_EDGE ( 'NONE', *, *, #219, .F. ) ;
#75 = DIRECTION ( 'NONE',  ( 1.000000000000000000, 9.448620473410002383E-17, 0.000000000000000000 ) ) ;
#76 = EDGE_LOOP ( 'NONE', ( #368, #45, #210, #366 ) ) ;
#77 = PRODUCT_DEFINITION_SHAPE ( 'NONE', 'NONE',  #84 ) ;
#78 = AXIS2_PLACEMENT_3D ( 'NONE', #196, #169, #118 ) ;
#79 = MECHANICAL_DESIGN_GEOMETRIC_PRESENTATION_REPRESENTATION (  '', ( #283 ), #273 ) ;
#80 =( LENGTH_UNIT ( ) NAMED_UNIT ( * ) SI_UNIT ( .MILLI., .METRE. ) );
#81 = FILL_AREA_STYLE_COLOUR ( '', #353 ) ;
#82 =( NAMED_UNIT ( * ) SI_UNIT ( $, .STERADIAN. ) SOLID_ANGLE_UNIT ( ) );
#83 = ORIENTED_EDGE ( 'NONE', *, *, #110, .T. ) ;
#84 = PRODUCT_DEFINITION ( 'UNKNOWN', '', #21, #337 ) ;
#85 =( GEOMETRIC_REPRESENTATION_CONTEXT ( 3 ) GLOBAL_UNCERTAINTY_ASSIGNED_CONTEXT ( ( #360 ) ) GLOBAL_UNIT_ASSIGNED_CONTEXT ( ( #46, #242, #270 ) ) REPRESENTATION_CONTEXT ( 'NONE', 'WORKASPACE' ) );
#86 = CIRCLE ( 'NONE', #233, 4.000000000000000000 ) ;
#87 = CARTESIAN_POINT ( 'NONE',  ( 0.000000000000000000, 0.000000000000000000, -4.000000000000000000 ) ) ;
#88 = CARTESIAN_POINT ( 'NONE',  ( 3.999999999999999112, 11.99999999999999645, 4.898587196589409870E-16 ) ) ;
#89 = SURFACE_STYLE_USAGE ( .BOTH. , #324 ) ;
#90 = CARTESIAN_POINT ( 'NONE',  ( 4.000000000000000000, 63.00000000000000000, 4.898587196589409870E-16 ) ) ;
#91 = AXIS2_PLACEMENT_3D ( 'NONE', #239, #207, #294 ) ;
#92 = ADVANCED_FACE ( 'NONE', ( #154 ), #3, .T. ) ;
#93 = DIRECTION ( 'NONE',  ( -0.000000000000000000, -1.000000000000000000, -0.000000000000000000 ) ) ;
#94 = SURFACE_STYLE_FILL_AREA ( #13 ) ;
#95 = CARTESIAN_POINT ( 'NONE',  ( 0.000000000000000000, 0.000000000000000000, 0.000000000000000000 ) ) ;
#96 = CARTESIAN_POINT ( 'NONE',  ( 0.000000000000000000, 12.00000000000000000, -4.000000000000000000 ) ) ;
#97 = ORIENTED_EDGE ( 'NONE', *, *, #258, .F. ) ;
#98 = EDGE_CURVE ( 'NONE', #1, #356, #48, .T. ) ;
#99 =( NAMED_UNIT ( * ) SI_UNIT ( $, .STERADIAN. ) SOLID_ANGLE_UNIT ( ) );
#100 = ORIENTED_EDGE ( 'NONE', *, *, #326, .T. ) ;
#101 = CARTESIAN_POINT ( 'NONE',  ( 0.000000000000000000, 1.000000000000000000, 0.000000000000000000 ) ) ;
#102 = CIRCLE ( 'NONE', #259, 3.999999999999993339 ) ;
#103 = CIRCLE ( 'NONE', #4, 3.000000000000000000 ) ;
#104 = CARTESIAN_POINT ( 'NONE',  ( 0.000000000000000000, 1.000000000000000000, 0.000000000000000000 ) ) ;
#105 = CARTESIAN_POINT ( 'NONE',  ( 0.000000000000000000, 1.000000000000000000, 0.000000000000000000 ) ) ;
#106 = ORIENTED_EDGE ( 'NONE', *, *, #279, .F. ) ;
#107 = FILL_AREA_STYLE ('',( #274 ) ) ;
#108 = SURFACE_STYLE_FILL_AREA ( #107 ) ;
#109 = ORIENTED_EDGE ( 'NONE', *, *, #110, .F. ) ;
#110 = EDGE_CURVE ( 'NONE', #214, #187, #102, .T. ) ;
#111 = CIRCLE ( 'NONE', #295, 3.999999999999998224 ) ;
#112 =( GEOMETRIC_REPRESENTATION_CONTEXT ( 3 ) GLOBAL_UNCERTAINTY_ASSIGNED_CONTEXT ( ( #246 ) ) GLOBAL_UNIT_ASSIGNED_CONTEXT ( ( #80, #220, #82 ) ) REPRESENTATION_CONTEXT ( 'NONE', 'WORKASPACE' ) );
#113 = ORIENTED_EDGE ( 'NONE', *, *, #98, .F. ) ;
#114 = UNCERTAINTY_MEASURE_WITH_UNIT (LENGTH_MEASURE( 1.000000000000000082E-05 ), #170, 'distance_accuracy_value', 'NONE');
#115 = DIRECTION ( 'NONE',  ( -9.448620473410002383E-17, 1.000000000000000000, -0.000000000000000000 ) ) ;
#116 = FACE_OUTER_BOUND ( 'NONE', #208, .T. ) ;
#117 = SURFACE_STYLE_USAGE ( .BOTH. , #224 ) ;
#118 = DIRECTION ( 'NONE',  ( -1.000000000000000000, 0.000000000000000000, 0.000000000000000000 ) ) ;
#119 =( NAMED_UNIT ( * ) PLANE_ANGLE_UNIT ( ) SI_UNIT ( $, .RADIAN. ) );
#120 = SURFACE_STYLE_FILL_AREA ( #255 ) ;
#121 = EDGE_LOOP ( 'NONE', ( #100, #301, #113, #297 ) ) ;
#122 = SURFACE_SIDE_STYLE ('',( #62 ) ) ;
#123 = PRESENTATION_LAYER_ASSIGNMENT (  '', '', ( #347 ) ) ;
#124 = FILL_AREA_STYLE_COLOUR ( '', #176 ) ;
#125 = SURFACE_STYLE_USAGE ( .BOTH. , #153 ) ;
#126 = DIRECTION ( 'NONE',  ( 0.000000000000000000, 0.000000000000000000, -1.000000000000000000 ) ) ;
#127 = PRESENTATION_LAYER_ASSIGNMENT (  '', '', ( #283 ) ) ;
#128 = ADVANCED_FACE ( 'NONE', ( #137 ), #338, .T. ) ;
#129 =( LENGTH_UNIT ( ) NAMED_UNIT ( * ) SI_UNIT ( .MILLI., .METRE. ) );
#130 = VERTEX_POINT ( 'NONE', #163 ) ;
#131 = DIRECTION ( 'NONE',  ( -9.448620473410002383E-17, 1.000000000000000000, -0.000000000000000000 ) ) ;
#132 = VECTOR ( 'NONE', #18, 1000.000000000000000 ) ;
#133 =( GEOMETRIC_REPRESENTATION_CONTEXT ( 3 ) GLOBAL_UNCERTAINTY_ASSIGNED_CONTEXT ( ( #306 ) ) GLOBAL_UNIT_ASSIGNED_CONTEXT ( ( #47, #212, #250 ) ) REPRESENTATION_CONTEXT ( 'NONE', 'WORKASPACE' ) );
#134 = CARTESIAN_POINT ( 'NONE',  ( 6.288372600415924928E-15, 11.99999999999999645, 0.000000000000000000 ) ) ;
#135 = SHAPE_DEFINITION_REPRESENTATION ( #77, #6 ) ;
#136 = VERTEX_POINT ( 'NONE', #139 ) ;
#137 = FACE_OUTER_BOUND ( 'NONE', #355, .T. ) ;
#138 = DIRECTION ( 'NONE',  ( -0.000000000000000000, -1.000000000000000000, -0.000000000000000000 ) ) ;
#139 = CARTESIAN_POINT ( 'NONE',  ( 4.898587196589412829E-16, 12.00000000000000000, 4.000000000000000000 ) ) ;
#140 = DIRECTION ( 'NONE',  ( -0.000000000000000000, -1.000000000000000000, -0.000000000000000000 ) ) ;
#141 = AXIS2_PLACEMENT_3D ( 'NONE', #105, #140, #339 ) ;
#142 = EDGE_CURVE ( 'NONE', #130, #271, #111, .T. ) ;
#143 = CYLINDRICAL_SURFACE ( 'NONE', #91, 4.000000000000000000 ) ;
#144 = APPLICATION_CONTEXT ( 'automotive_design' ) ;
#145 = DIRECTION ( 'NONE',  ( 0.000000000000000000, 0.000000000000000000, -1.000000000000000000 ) ) ;
#146 = DIRECTION ( 'NONE',  ( 0.000000000000000000, -1.000000000000000000, -0.000000000000000000 ) ) ;
#147 = AXIS2_PLACEMENT_3D ( 'NONE', #350, #222, #204 ) ;
#148 = AXIS2_PLACEMENT_3D ( 'NONE', #269, #131, #238 ) ;
#149 = DIRECTION ( 'NONE',  ( 0.000000000000000000, 0.000000000000000000, -1.000000000000000000 ) ) ;
#150 = EDGE_CURVE ( 'NONE', #214, #130, #43, .T. ) ;
#151 = CARTESIAN_POINT ( 'NONE',  ( 0.000000000000000000, 1.000000000000000000, -4.000000000000000000 ) ) ;
#152 = PLANE ( 'NONE',  #352 ) ;
#153 = SURFACE_SIDE_STYLE ('',( #120 ) ) ;
#154 = FACE_OUTER_BOUND ( 'NONE', #76, .T. ) ;
#155 = EDGE_LOOP ( 'NONE', ( #359, #303, #25, #74 ) ) ;
#156 = ORIENTED_EDGE ( 'NONE', *, *, #142, .T. ) ;
#157 = ADVANCED_FACE ( 'NONE', ( #315 ), #152, .T. ) ;
#158 =( LENGTH_UNIT ( ) NAMED_UNIT ( * ) SI_UNIT ( .MILLI., .METRE. ) );
#159 = ORIENTED_EDGE ( 'NONE', *, *, #191, .T. ) ;
#160 = MECHANICAL_DESIGN_GEOMETRIC_PRESENTATION_REPRESENTATION (  '', ( #217 ), #221 ) ;
#161 =( NAMED_UNIT ( * ) PLANE_ANGLE_UNIT ( ) SI_UNIT ( $, .RADIAN. ) );
#162 = CARTESIAN_POINT ( 'NONE',  ( 0.000000000000000000, 12.00000000000000000, 0.000000000000000000 ) ) ;
#163 = CARTESIAN_POINT ( 'NONE',  ( -3.999999999999996447, 63.00000000000000000, 0.000000000000000000 ) ) ;
#164 = ADVANCED_FACE ( 'NONE', ( #252 ), #225, .T. ) ;
#165 = DIRECTION ( 'NONE',  ( -1.000000000000000000, 0.000000000000000000, 0.000000000000000000 ) ) ;
#166 = AXIS2_PLACEMENT_3D ( 'NONE', #336, #235, #300 ) ;
#167 = DIRECTION ( 'NONE',  ( 1.000000000000000000, 0.000000000000000000, -1.224646799147353207E-16 ) ) ;
#168 = DIRECTION ( 'NONE',  ( -0.000000000000000000, -1.000000000000000000, -0.000000000000000000 ) ) ;
#169 = DIRECTION ( 'NONE',  ( -9.448620473410002383E-17, 1.000000000000000000, -0.000000000000000000 ) ) ;
#170 =( LENGTH_UNIT ( ) NAMED_UNIT ( * ) SI_UNIT ( .MILLI., .METRE. ) );
#171 = PRESENTATION_LAYER_ASSIGNMENT (  '', '', ( #193 ) ) ;
#172 = MECHANICAL_DESIGN_GEOMETRIC_PRESENTATION_REPRESENTATION (  '', ( #317 ), #40 ) ;
#173 = EDGE_CURVE ( 'NONE', #71, #356, #211, .T. ) ;
#174 = PRESENTATION_LAYER_ASSIGNMENT (  '', '', ( #310 ) ) ;
#175 = COLOUR_RGB ( '',1.000000000000000000, 0.000000000000000000, 0.000000000000000000 ) ;
#176 = COLOUR_RGB ( '',0.7921568627450980005, 0.8196078431372548767, 0.9333333333333333481 ) ;
#177 = DIRECTION ( 'NONE',  ( -0.000000000000000000, -1.000000000000000000, -0.000000000000000000 ) ) ;
#178 = PRESENTATION_STYLE_ASSIGNMENT (( #125 ) ) ;
#179 = FACE_OUTER_BOUND ( 'NONE', #364, .T. ) ;
#180 = ORIENTED_EDGE ( 'NONE', *, *, #213, .T. ) ;
#181 = AXIS2_PLACEMENT_3D ( 'NONE', #234, #349, #343 ) ;
#182 = EDGE_LOOP ( 'NONE', ( #109, #17 ) ) ;
#183 = MANIFOLD_SOLID_BREP ( 'Revolve - Cutting Edge', #272 ) ;
#184 = UNCERTAINTY_MEASURE_WITH_UNIT (LENGTH_MEASURE( 1.000000000000000082E-05 ), #257, 'distance_accuracy_value', 'NONE');
#185 =( NAMED_UNIT ( * ) SI_UNIT ( $, .STERADIAN. ) SOLID_ANGLE_UNIT ( ) );
#186 = SURFACE_SIDE_STYLE ('',( #108 ) ) ;
#187 = VERTEX_POINT ( 'NONE', #88 ) ;
#188 = MECHANICAL_DESIGN_GEOMETRIC_PRESENTATION_REPRESENTATION (  '', ( #49 ), #112 ) ;
#189 = FILL_AREA_STYLE ('',( #81 ) ) ;
#190 = FILL_AREA_STYLE ('',( #367 ) ) ;
#191 = EDGE_CURVE ( 'NONE', #187, #214, #231, .T. ) ;
#192 = PRESENTATION_STYLE_ASSIGNMENT (( #89 ) ) ;
#193 = STYLED_ITEM ( 'NONE', ( #26 ), #92 ) ;
#194 = VECTOR ( 'NONE', #177, 1000.000000000000000 ) ;
#195 = CARTESIAN_POINT ( 'NONE',  ( 0.000000000000000000, 1.000000000000000000, 0.000000000000000000 ) ) ;
#196 = CARTESIAN_POINT ( 'NONE',  ( 6.288372600415924928E-15, 11.99999999999999645, 0.000000000000000000 ) ) ;
#197 = AXIS2_PLACEMENT_3D ( 'NONE', #162, #52, #332 ) ;
#198 = CIRCLE ( 'NONE', #141, 4.000000000000000000 ) ;
#199 = DIRECTION ( 'NONE',  ( 0.000000000000000000, 0.000000000000000000, -1.000000000000000000 ) ) ;
#200 = EDGE_CURVE ( 'NONE', #136, #215, #67, .T. ) ;
#201 = SURFACE_STYLE_FILL_AREA ( #230 ) ;
#202 = AXIS2_PLACEMENT_3D ( 'NONE', #104, #27, #23 ) ;
#203 = AXIS2_PLACEMENT_3D ( 'NONE', #313, #57, #263 ) ;
#204 = DIRECTION ( 'NONE',  ( -1.000000000000000000, 0.000000000000000000, 0.000000000000000000 ) ) ;
#205 = CARTESIAN_POINT ( 'NONE',  ( 4.898587196589412829E-16, 1.000000000000000000, 4.000000000000000000 ) ) ;
#206 = EDGE_CURVE ( 'NONE', #356, #1, #103, .T. ) ;
#207 = DIRECTION ( 'NONE',  ( -0.000000000000000000, -1.000000000000000000, -0.000000000000000000 ) ) ;
#208 = EDGE_LOOP ( 'NONE', ( #15, #180, #55, #97 ) ) ;
#209 = FACE_OUTER_BOUND ( 'NONE', #182, .T. ) ;
#210 = ORIENTED_EDGE ( 'NONE', *, *, #229, .T. ) ;
#211 = CIRCLE ( 'NONE', #54, 1.000000000000000000 ) ;
#212 =( NAMED_UNIT ( * ) PLANE_ANGLE_UNIT ( ) SI_UNIT ( $, .RADIAN. ) );
#213 = EDGE_CURVE ( 'NONE', #136, #71, #322, .T. ) ;
#214 = VERTEX_POINT ( 'NONE', #14 ) ;
#215 = VERTEX_POINT ( 'NONE', #96 ) ;
#216 = UNCERTAINTY_MEASURE_WITH_UNIT (LENGTH_MEASURE( 1.000000000000000082E-05 ), #261, 'distance_accuracy_value', 'NONE');
#217 = STYLED_ITEM ( 'NONE', ( #226 ), #10 ) ;
#218 = SURFACE_STYLE_USAGE ( .BOTH. , #244 ) ;
#219 = EDGE_CURVE ( 'NONE', #71, #267, #30, .T. ) ;
#220 =( NAMED_UNIT ( * ) PLANE_ANGLE_UNIT ( ) SI_UNIT ( $, .RADIAN. ) );
#221 =( GEOMETRIC_REPRESENTATION_CONTEXT ( 3 ) GLOBAL_UNCERTAINTY_ASSIGNED_CONTEXT ( ( #184 ) ) GLOBAL_UNIT_ASSIGNED_CONTEXT ( ( #257, #331, #99 ) ) REPRESENTATION_CONTEXT ( 'NONE', 'WORKASPACE' ) );
#222 = DIRECTION ( 'NONE',  ( -9.448620473410002383E-17, 1.000000000000000000, -0.000000000000000000 ) ) ;
#223 = CIRCLE ( 'NONE', #330, 3.999999999999998224 ) ;
#224 = SURFACE_SIDE_STYLE ('',( #243 ) ) ;
#225 = CYLINDRICAL_SURFACE ( 'NONE', #147, 3.999999999999996447 ) ;
#226 = PRESENTATION_STYLE_ASSIGNMENT (( #285 ) ) ;
#227 = APPLICATION_CONTEXT ( 'automotive_design' ) ;
#228 = CARTESIAN_POINT ( 'NONE',  ( 0.000000000000000000, 0.000000000000000000, 0.000000000000000000 ) ) ;
#229 = EDGE_CURVE ( 'NONE', #267, #1, #264, .T. ) ;
#230 = FILL_AREA_STYLE ('',( #124 ) ) ;
#231 = CIRCLE ( 'NONE', #78, 3.999999999999993339 ) ;
#232 = ADVANCED_FACE ( 'NONE', ( #253 ), #12, .T. ) ;
#233 = AXIS2_PLACEMENT_3D ( 'NONE', #319, #260, #199 ) ;
#234 = CARTESIAN_POINT ( 'NONE',  ( 0.000000000000000000, 1.000000000000000000, -3.000000000000000000 ) ) ;
#235 = DIRECTION ( 'NONE',  ( 0.000000000000000000, 0.000000000000000000, 1.000000000000000000 ) ) ;
#236 = ORIENTED_EDGE ( 'NONE', *, *, #363, .T. ) ;
#237 = AXIS2_PLACEMENT_3D ( 'NONE', #195, #168, #145 ) ;
#238 = DIRECTION ( 'NONE',  ( -1.000000000000000000, 0.000000000000000000, 0.000000000000000000 ) ) ;
#239 = CARTESIAN_POINT ( 'NONE',  ( 0.000000000000000000, 0.000000000000000000, 0.000000000000000000 ) ) ;
#240 = ORIENTED_EDGE ( 'NONE', *, *, #206, .T. ) ;
#241 = UNCERTAINTY_MEASURE_WITH_UNIT (LENGTH_MEASURE( 1.000000000000000082E-05 ), #284, 'distance_accuracy_value', 'NONE');
#242 =( NAMED_UNIT ( * ) PLANE_ANGLE_UNIT ( ) SI_UNIT ( $, .RADIAN. ) );
#243 = SURFACE_STYLE_FILL_AREA ( #56 ) ;
#244 = SURFACE_SIDE_STYLE ('',( #304 ) ) ;
#245 = DIRECTION ( 'NONE',  ( -1.000000000000000000, 0.000000000000000000, 0.000000000000000000 ) ) ;
#246 = UNCERTAINTY_MEASURE_WITH_UNIT (LENGTH_MEASURE( 1.000000000000000082E-05 ), #80, 'distance_accuracy_value', 'NONE');
#247 = COLOUR_RGB ( '',0.7921568627450980005, 0.8196078431372548767, 0.9333333333333333481 ) ;
#248 = VECTOR ( 'NONE', #286, 1000.000000000000000 ) ;
#249 = CARTESIAN_POINT ( 'NONE',  ( 1.469576158976823750E-15, 63.00000000000000000, 0.000000000000000000 ) ) ;
#250 =( NAMED_UNIT ( * ) SI_UNIT ( $, .STERADIAN. ) SOLID_ANGLE_UNIT ( ) );
#251 = PRODUCT_RELATED_PRODUCT_CATEGORY ( 'part', '', ( #65 ) ) ;
#252 = FACE_OUTER_BOUND ( 'NONE', #293, .T. ) ;
#253 = FACE_OUTER_BOUND ( 'NONE', #121, .T. ) ;
#254 = PRESENTATION_LAYER_ASSIGNMENT (  '', '', ( #369 ) ) ;
#255 = FILL_AREA_STYLE ('',( #5 ) ) ;
#256 = CARTESIAN_POINT ( 'NONE',  ( 0.000000000000000000, 0.000000000000000000, -3.000000000000000000 ) ) ;
#257 =( LENGTH_UNIT ( ) NAMED_UNIT ( * ) SI_UNIT ( .MILLI., .METRE. ) );
#258 = EDGE_CURVE ( 'NONE', #215, #267, #305, .T. ) ;
#259 = AXIS2_PLACEMENT_3D ( 'NONE', #134, #307, #165 ) ;
#260 = DIRECTION ( 'NONE',  ( -0.000000000000000000, -1.000000000000000000, -0.000000000000000000 ) ) ;
#261 =( LENGTH_UNIT ( ) NAMED_UNIT ( * ) SI_UNIT ( .MILLI., .METRE. ) );
#262 = SURFACE_STYLE_USAGE ( .BOTH. , #122 ) ;
#263 = DIRECTION ( 'NONE',  ( 0.000000000000000000, 0.000000000000000000, -1.000000000000000000 ) ) ;
#264 = CIRCLE ( 'NONE', #181, 1.000000000000000000 ) ;
#265 = ADVANCED_FACE ( 'NONE', ( #2 ), #8, .T. ) ;
#266 = PLANE ( 'NONE',  #358 ) ;
#267 = VERTEX_POINT ( 'NONE', #151 ) ;
#268 = UNCERTAINTY_MEASURE_WITH_UNIT (LENGTH_MEASURE( 1.000000000000000082E-05 ), #129, 'distance_accuracy_value', 'NONE');
#269 = CARTESIAN_POINT ( 'NONE',  ( 1.469576158976823750E-15, 63.00000000000000000, 0.000000000000000000 ) ) ;
#270 =( NAMED_UNIT ( * ) SI_UNIT ( $, .STERADIAN. ) SOLID_ANGLE_UNIT ( ) );
#271 = VERTEX_POINT ( 'NONE', #90 ) ;
#272 = CLOSED_SHELL ( 'NONE', ( #10, #232, #157, #92, #265, #128 ) ) ;
#273 =( GEOMETRIC_REPRESENTATION_CONTEXT ( 3 ) GLOBAL_UNCERTAINTY_ASSIGNED_CONTEXT ( ( #268 ) ) GLOBAL_UNIT_ASSIGNED_CONTEXT ( ( #129, #302, #185 ) ) REPRESENTATION_CONTEXT ( 'NONE', 'WORKASPACE' ) );
#274 = FILL_AREA_STYLE_COLOUR ( '', #287 ) ;
#275 = PRESENTATION_STYLE_ASSIGNMENT (( #218 ) ) ;
#276 = FILL_AREA_STYLE_COLOUR ( '', #323 ) ;
#277 =( NAMED_UNIT ( * ) SI_UNIT ( $, .STERADIAN. ) SOLID_ANGLE_UNIT ( ) );
#278 = LINE ( 'NONE', #365, #289 ) ;
#279 = EDGE_CURVE ( 'NONE', #215, #136, #86, .T. ) ;
#280 = DIRECTION ( 'NONE',  ( 0.000000000000000000, 0.000000000000000000, -1.000000000000000000 ) ) ;
#281 = SURFACE_SIDE_STYLE ('',( #53 ) ) ;
#282 = MECHANICAL_DESIGN_GEOMETRIC_PRESENTATION_REPRESENTATION (  '', ( #193 ), #328 ) ;
#283 = STYLED_ITEM ( 'NONE', ( #321 ), #312 ) ;
#284 =( LENGTH_UNIT ( ) NAMED_UNIT ( * ) SI_UNIT ( .MILLI., .METRE. ) );
#285 = SURFACE_STYLE_USAGE ( .BOTH. , #281 ) ;
#286 = DIRECTION ( 'NONE',  ( -0.000000000000000000, -1.000000000000000000, -0.000000000000000000 ) ) ;
#287 = COLOUR_RGB ( '',1.000000000000000000, 0.000000000000000000, 0.000000000000000000 ) ;
#288 = CARTESIAN_POINT ( 'NONE',  ( 0.000000000000000000, 0.000000000000000000, 0.000000000000000000 ) ) ;
#289 = VECTOR ( 'NONE', #24, 1000.000000000000000 ) ;
#290 = PRESENTATION_STYLE_ASSIGNMENT (( #262 ) ) ;
#291 = CLOSED_SHELL ( 'NONE', ( #320, #29, #164, #70 ) ) ;
#292 =( NAMED_UNIT ( * ) PLANE_ANGLE_UNIT ( ) SI_UNIT ( $, .RADIAN. ) );
#293 = EDGE_LOOP ( 'NONE', ( #42, #159, #325, #66 ) ) ;
#294 = DIRECTION ( 'NONE',  ( 0.000000000000000000, 0.000000000000000000, -1.000000000000000000 ) ) ;
#295 = AXIS2_PLACEMENT_3D ( 'NONE', #249, #115, #299 ) ;
#296 = EDGE_LOOP ( 'NONE', ( #329, #240 ) ) ;
#297 = ORIENTED_EDGE ( 'NONE', *, *, #229, .F. ) ;
#298 = CARTESIAN_POINT ( 'NONE',  ( 6.288372600415925717E-15, 12.00000000000000000, 0.000000000000000000 ) ) ;
#299 = DIRECTION ( 'NONE',  ( -1.000000000000000000, 0.000000000000000000, 0.000000000000000000 ) ) ;
#300 = DIRECTION ( 'NONE',  ( 1.000000000000000000, 0.000000000000000000, 0.000000000000000000 ) ) ;
#301 = ORIENTED_EDGE ( 'NONE', *, *, #173, .T. ) ;
#302 =( NAMED_UNIT ( * ) PLANE_ANGLE_UNIT ( ) SI_UNIT ( $, .RADIAN. ) );
#303 = ORIENTED_EDGE ( 'NONE', *, *, #200, .T. ) ;
#304 = SURFACE_STYLE_FILL_AREA ( #190 ) ;
#305 = LINE ( 'NONE', #87, #248 ) ;
#306 = UNCERTAINTY_MEASURE_WITH_UNIT (LENGTH_MEASURE( 1.000000000000000082E-05 ), #47, 'distance_accuracy_value', 'NONE');
#307 = DIRECTION ( 'NONE',  ( -9.448620473410002383E-17, 1.000000000000000000, -0.000000000000000000 ) ) ;
#308 = PRESENTATION_STYLE_ASSIGNMENT (( #117 ) ) ;
#309 = CARTESIAN_POINT ( 'NONE',  ( 1.469576158976823750E-15, 63.00000000000000000, 0.000000000000000000 ) ) ;
#310 = STYLED_ITEM ( 'NONE', ( #192 ), #183 ) ;
#311 = PRESENTATION_LAYER_ASSIGNMENT (  '', '', ( #317 ) ) ;
#312 = MANIFOLD_SOLID_BREP ( 'Revolve - Tool Body (Straight Shanked)', #291 ) ;
#313 = CARTESIAN_POINT ( 'NONE',  ( 0.000000000000000000, 12.00000000000000000, 0.000000000000000000 ) ) ;
#314 = EDGE_LOOP ( 'NONE', ( #83, #236, #41, #340 ) ) ;
#315 = FACE_OUTER_BOUND ( 'NONE', #296, .T. ) ;
#316 = AXIS2_PLACEMENT_3D ( 'NONE', #72, #138, #280 ) ;
#317 = STYLED_ITEM ( 'NONE', ( #290 ), #265 ) ;
#318 = SURFACE_SIDE_STYLE ('',( #201 ) ) ;
#319 = CARTESIAN_POINT ( 'NONE',  ( 0.000000000000000000, 12.00000000000000000, 0.000000000000000000 ) ) ;
#320 = ADVANCED_FACE ( 'NONE', ( #16 ), #357, .T. ) ;
#321 = PRESENTATION_STYLE_ASSIGNMENT (( #61 ) ) ;
#322 = LINE ( 'NONE', #64, #194 ) ;
#323 = COLOUR_RGB ( '',1.000000000000000000, 0.000000000000000000, 0.000000000000000000 ) ;
#324 = SURFACE_SIDE_STYLE ('',( #94 ) ) ;
#325 = ORIENTED_EDGE ( 'NONE', *, *, #150, .T. ) ;
#326 = EDGE_CURVE ( 'NONE', #267, #71, #198, .T. ) ;
#327 = CARTESIAN_POINT ( 'NONE',  ( 4.000000000000000000, 63.00000000000000000, 0.000000000000000000 ) ) ;
#328 =( GEOMETRIC_REPRESENTATION_CONTEXT ( 3 ) GLOBAL_UNCERTAINTY_ASSIGNED_CONTEXT ( ( #22 ) ) GLOBAL_UNIT_ASSIGNED_CONTEXT ( ( #158, #161, #277 ) ) REPRESENTATION_CONTEXT ( 'NONE', 'WORKASPACE' ) );
#329 = ORIENTED_EDGE ( 'NONE', *, *, #98, .T. ) ;
#330 = AXIS2_PLACEMENT_3D ( 'NONE', #309, #345, #245 ) ;
#331 =( NAMED_UNIT ( * ) PLANE_ANGLE_UNIT ( ) SI_UNIT ( $, .RADIAN. ) );
#332 = DIRECTION ( 'NONE',  ( 0.000000000000000000, -0.000000000000000000, 1.000000000000000000 ) ) ;
#333 = CARTESIAN_POINT ( 'NONE',  ( 4.286263797015736595E-16, 0.000000000000000000, 3.000000000000000000 ) ) ;
#334 = ORIENTED_EDGE ( 'NONE', *, *, #200, .F. ) ;
#335 = SURFACE_STYLE_USAGE ( .BOTH. , #186 ) ;
#336 = CARTESIAN_POINT ( 'NONE',  ( 0.000000000000000000, 0.000000000000000000, 0.000000000000000000 ) ) ;
#337 = PRODUCT_DEFINITION_CONTEXT ( 'detailed design', #144, 'design' ) ;
#338 = PLANE ( 'NONE',  #197 ) ;
#339 = DIRECTION ( 'NONE',  ( 0.000000000000000000, 0.000000000000000000, -1.000000000000000000 ) ) ;
#340 = ORIENTED_EDGE ( 'NONE', *, *, #150, .F. ) ;
#341 = AXIS2_PLACEMENT_3D ( 'NONE', #327, #68, #75 ) ;
#342 = PRESENTATION_LAYER_ASSIGNMENT (  '', '', ( #49 ) ) ;
#343 = DIRECTION ( 'NONE',  ( 0.000000000000000000, 0.000000000000000000, 1.000000000000000000 ) ) ;
#344 = EDGE_CURVE ( 'NONE', #271, #130, #223, .T. ) ;
#345 = DIRECTION ( 'NONE',  ( -9.448620473410002383E-17, 1.000000000000000000, -0.000000000000000000 ) ) ;
#346 = FILL_AREA_STYLE_COLOUR ( '', #247 ) ;
#347 = STYLED_ITEM ( 'NONE', ( #275 ), #128 ) ;
#348 =( NAMED_UNIT ( * ) SI_UNIT ( $, .STERADIAN. ) SOLID_ANGLE_UNIT ( ) );
#349 = DIRECTION ( 'NONE',  ( -1.000000000000000000, 0.000000000000000000, 0.000000000000000000 ) ) ;
#350 = CARTESIAN_POINT ( 'NONE',  ( 1.469576158976823750E-15, 63.00000000000000000, 0.000000000000000000 ) ) ;
#351 = DIRECTION ( 'NONE',  ( 0.000000000000000000, 0.000000000000000000, -1.000000000000000000 ) ) ;
#352 = AXIS2_PLACEMENT_3D ( 'NONE', #95, #146, #38 ) ;
#353 = COLOUR_RGB ( '',1.000000000000000000, 0.000000000000000000, 0.000000000000000000 ) ;
#354 = DIRECTION ( 'NONE',  ( -1.000000000000000000, -9.448620473410002383E-17, 0.000000000000000000 ) ) ;
#355 = EDGE_LOOP ( 'NONE', ( #106, #334 ) ) ;
#356 = VERTEX_POINT ( 'NONE', #333 ) ;
#357 = CYLINDRICAL_SURFACE ( 'NONE', #148, 3.999999999999996447 ) ;
#358 = AXIS2_PLACEMENT_3D ( 'NONE', #298, #39, #354 ) ;
#359 = ORIENTED_EDGE ( 'NONE', *, *, #213, .F. ) ;
#360 = UNCERTAINTY_MEASURE_WITH_UNIT (LENGTH_MEASURE( 1.000000000000000082E-05 ), #46, 'distance_accuracy_value', 'NONE');
#361 = PLANE ( 'NONE',  #341 ) ;
#362 = CARTESIAN_POINT ( 'NONE',  ( -3.999999999999994671, 63.00000000000000000, 0.000000000000000000 ) ) ;
#363 = EDGE_CURVE ( 'NONE', #187, #271, #278, .T. ) ;
#364 = EDGE_LOOP ( 'NONE', ( #156, #20 ) ) ;
#365 = CARTESIAN_POINT ( 'NONE',  ( 3.999999999999998224, 63.00000000000000000, 4.898587196589408884E-16 ) ) ;
#366 = ORIENTED_EDGE ( 'NONE', *, *, #206, .F. ) ;
#367 = FILL_AREA_STYLE_COLOUR ( '', #36 ) ;
#368 = ORIENTED_EDGE ( 'NONE', *, *, #173, .F. ) ;
#369 = STYLED_ITEM ( 'NONE', ( #178 ), #157 ) ;
#370 = AXIS2_PLACEMENT_3D ( 'NONE', #228, #93, #351 ) ;
ENDSEC;
END-ISO-10303-21;
